ISO-10303-21;
HEADER;
FILE_DESCRIPTION (( 'STEP AP214' ),
    '1' );
FILE_NAME ('26307.STEP',
    '2023-06-22T17:38:11',
    ( '' ),
    ( '' ),
    'SwSTEP 2.0',
    'SolidWorks 2023',
    '' );
FILE_SCHEMA (( 'AUTOMOTIVE_DESIGN' ));
ENDSEC;

DATA;
#1 = EDGE_CURVE ( 'NONE', #176, #246, #178, .T. ) ;
#2 =( NAMED_UNIT ( * ) SI_UNIT ( $, .STERADIAN. ) SOLID_ANGLE_UNIT ( ) );
#3 =( LENGTH_UNIT ( ) NAMED_UNIT ( * ) SI_UNIT ( $, .METRE. ) );
#4 =( NAMED_UNIT ( * ) PLANE_ANGLE_UNIT ( ) SI_UNIT ( $, .RADIAN. ) );
#5 = PRESENTATION_STYLE_ASSIGNMENT (( #231 ) ) ;
#6 = DIRECTION ( 'NONE',  ( 0.000000000000000000, -0.000000000000000000, 1.000000000000000000 ) ) ;
#7 = CARTESIAN_POINT ( 'NONE',  ( -0.2500000000000000555, 2.000000000000000000, 0.000000000000000000 ) ) ;
#8 = PLANE ( 'NONE',  #229 ) ;
#9 = EDGE_LOOP ( 'NONE', ( #11, #300 ) ) ;
#10 = SURFACE_STYLE_FILL_AREA ( #259 ) ;
#11 = ORIENTED_EDGE ( 'NONE', *, *, #99, .T. ) ;
#12 = CIRCLE ( 'NONE', #244, 0.2500000000000000555 ) ;
#13 = SURFACE_STYLE_FILL_AREA ( #80 ) ;
#14 = LINE ( 'NONE', #109, #49 ) ;
#15 = COLOUR_RGB ( '',0.7921568627450980005, 0.8196078431372548767, 0.9333333333333333481 ) ;
#16 = UNCERTAINTY_MEASURE_WITH_UNIT (LENGTH_MEASURE( 1.000000000000000082E-05 ), #297, 'distance_accuracy_value', 'NONE');
#17 = DIRECTION ( 'NONE',  ( -0.000000000000000000, -1.000000000000000000, -0.000000000000000000 ) ) ;
#18 = SURFACE_SIDE_STYLE ('',( #245 ) ) ;
#19 = DIRECTION ( 'NONE',  ( -6.123233995736763571E-17, 1.000000000000000000, -0.000000000000000000 ) ) ;
#20 = EDGE_CURVE ( 'NONE', #200, #159, #250, .T. ) ;
#21 = DIRECTION ( 'NONE',  ( 0.000000000000000000, -1.000000000000000000, -0.000000000000000000 ) ) ;
#22 = AXIS2_PLACEMENT_3D ( 'NONE', #254, #21, #284 ) ;
#23 = CYLINDRICAL_SURFACE ( 'NONE', #152, 0.2500000000000000000 ) ;
#24 = PRODUCT ( '26307', '26307', '', ( #279 ) ) ;
#25 = DIRECTION ( 'NONE',  ( 0.000000000000000000, 0.000000000000000000, -1.000000000000000000 ) ) ;
#26 =( NAMED_UNIT ( * ) SI_UNIT ( $, .STERADIAN. ) SOLID_ANGLE_UNIT ( ) );
#27 = DIRECTION ( 'NONE',  ( 1.000000000000000000, 0.000000000000000000, 0.000000000000000000 ) ) ;
#28 = AXIS2_PLACEMENT_3D ( 'NONE', #309, #232, #204 ) ;
#29 = SURFACE_STYLE_USAGE ( .BOTH. , #79 ) ;
#30 = UNCERTAINTY_MEASURE_WITH_UNIT (LENGTH_MEASURE( 1.000000000000000082E-05 ), #235, 'distance_accuracy_value', 'NONE');
#31 = CARTESIAN_POINT ( 'NONE',  ( 0.2499999999999999167, 4.000000000000000000, 3.061616997868383634E-17 ) ) ;
#32 = COLOUR_RGB ( '',1.000000000000000000, 0.000000000000000000, 0.000000000000000000 ) ;
#33 = CARTESIAN_POINT ( 'NONE',  ( 0.000000000000000000, 0.000000000000000000, 0.000000000000000000 ) ) ;
#34 = ORIENTED_EDGE ( 'NONE', *, *, #95, .F. ) ;
#35 = SURFACE_SIDE_STYLE ('',( #243 ) ) ;
#36 = VECTOR ( 'NONE', #168, 39.37007874015748143 ) ;
#37 = ORIENTED_EDGE ( 'NONE', *, *, #20, .F. ) ;
#38 = LENGTH_MEASURE_WITH_UNIT ( LENGTH_MEASURE( 0.02539999999999999897 ), #150 );
#39 = EDGE_LOOP ( 'NONE', ( #157, #104, #37, #106 ) ) ;
#40 = EDGE_CURVE ( 'NONE', #246, #264, #14, .T. ) ;
#41 = CARTESIAN_POINT ( 'NONE',  ( 0.2499999999999999722, 4.000000000000000000, 0.000000000000000000 ) ) ;
#42 = AXIS2_PLACEMENT_3D ( 'NONE', #141, #19, #209 ) ;
#43 = AXIS2_PLACEMENT_3D ( 'NONE', #120, #17, #305 ) ;
#44 = DIRECTION ( 'NONE',  ( -1.000000000000000000, -6.123233995736763571E-17, 0.000000000000000000 ) ) ;
#45 = FILL_AREA_STYLE_COLOUR ( '', #32 ) ;
#46 =( CONVERSION_BASED_UNIT ( 'INCH', #233 ) LENGTH_UNIT ( ) NAMED_UNIT ( #163 ) );
#47 = CARTESIAN_POINT ( 'NONE',  ( 3.061616997868383018E-17, 0.000000000000000000, 0.2500000000000000000 ) ) ;
#48 = SURFACE_STYLE_USAGE ( .BOTH. , #18 ) ;
#49 = VECTOR ( 'NONE', #182, 39.37007874015748143 ) ;
#50 = CARTESIAN_POINT ( 'NONE',  ( 0.000000000000000000, 0.000000000000000000, 0.000000000000000000 ) ) ;
#51 =( LENGTH_UNIT ( ) NAMED_UNIT ( * ) SI_UNIT ( $, .METRE. ) );
#52 = CARTESIAN_POINT ( 'NONE',  ( 0.000000000000000000, 2.000000000000000000, 0.000000000000000000 ) ) ;
#53 = MECHANICAL_DESIGN_GEOMETRIC_PRESENTATION_REPRESENTATION (  '', ( #290 ), #160 ) ;
#54 = FILL_AREA_STYLE_COLOUR ( '', #164 ) ;
#55 = MECHANICAL_DESIGN_GEOMETRIC_PRESENTATION_REPRESENTATION (  '', ( #58 ), #267 ) ;
#56 = VERTEX_POINT ( 'NONE', #137 ) ;
#57 = MECHANICAL_DESIGN_GEOMETRIC_PRESENTATION_REPRESENTATION (  '', ( #190 ), #298 ) ;
#58 = STYLED_ITEM ( 'NONE', ( #193 ), #248 ) ;
#59 = FILL_AREA_STYLE ('',( #84 ) ) ;
#60 = STYLED_ITEM ( 'NONE', ( #180 ), #112 ) ;
#61 = ORIENTED_EDGE ( 'NONE', *, *, #74, .F. ) ;
#62 = CYLINDRICAL_SURFACE ( 'NONE', #111, 0.2500000000000000000 ) ;
#63 = UNCERTAINTY_MEASURE_WITH_UNIT (LENGTH_MEASURE( 1.000000000000000082E-05 ), #213, 'distance_accuracy_value', 'NONE');
#64 = LENGTH_MEASURE_WITH_UNIT ( LENGTH_MEASURE( 0.02539999999999999897 ), #149 );
#65 = APPLICATION_CONTEXT ( 'automotive_design' ) ;
#66 =( NAMED_UNIT ( * ) PLANE_ANGLE_UNIT ( ) SI_UNIT ( $, .RADIAN. ) );
#67 = AXIS2_PLACEMENT_3D ( 'NONE', #276, #249, #44 ) ;
#68 = DIRECTION ( 'NONE',  ( 0.000000000000000000, 0.000000000000000000, -1.000000000000000000 ) ) ;
#69 = CARTESIAN_POINT ( 'NONE',  ( -1.224646799147352714E-16, 4.000000000000000000, 0.000000000000000000 ) ) ;
#70 = DIRECTION ( 'NONE',  ( -1.000000000000000000, 0.000000000000000000, 0.000000000000000000 ) ) ;
#71 = FACE_OUTER_BOUND ( 'NONE', #136, .T. ) ;
#72 = CARTESIAN_POINT ( 'NONE',  ( 3.061616997868383634E-17, 2.000000000000000000, 0.2500000000000000555 ) ) ;
#73 =( GEOMETRIC_REPRESENTATION_CONTEXT ( 3 ) GLOBAL_UNCERTAINTY_ASSIGNED_CONTEXT ( ( #135 ) ) GLOBAL_UNIT_ASSIGNED_CONTEXT ( ( #167, #234, #273 ) ) REPRESENTATION_CONTEXT ( 'NONE', 'WORKASPACE' ) );
#74 = EDGE_CURVE ( 'NONE', #272, #159, #205, .T. ) ;
#75 = ADVANCED_FACE ( 'NONE', ( #228 ), #252, .T. ) ;
#76 = PRESENTATION_LAYER_ASSIGNMENT (  '', '', ( #60 ) ) ;
#77 = PRODUCT_DEFINITION_CONTEXT ( 'detailed design', #110, 'design' ) ;
#78 = EDGE_LOOP ( 'NONE', ( #81, #301 ) ) ;
#79 = SURFACE_SIDE_STYLE ('',( #10 ) ) ;
#80 = FILL_AREA_STYLE ('',( #268 ) ) ;
#81 = ORIENTED_EDGE ( 'NONE', *, *, #293, .F. ) ;
#82 = AXIS2_PLACEMENT_3D ( 'NONE', #52, #257, #6 ) ;
#83 = FILL_AREA_STYLE ('',( #100 ) ) ;
#84 = FILL_AREA_STYLE_COLOUR ( '', #97 ) ;
#85 = ORIENTED_EDGE ( 'NONE', *, *, #1, .F. ) ;
#86 = UNCERTAINTY_MEASURE_WITH_UNIT (LENGTH_MEASURE( 1.000000000000000082E-05 ), #172, 'distance_accuracy_value', 'NONE');
#87 = PRESENTATION_LAYER_ASSIGNMENT (  '', '', ( #134 ) ) ;
#88 = DIRECTION ( 'NONE',  ( 1.000000000000000000, 6.123233995736763571E-17, 0.000000000000000000 ) ) ;
#89 = DIRECTION ( 'NONE',  ( -6.123233995736763571E-17, 1.000000000000000000, -0.000000000000000000 ) ) ;
#90 = ADVANCED_FACE ( 'NONE', ( #181 ), #274, .F. ) ;
#91 = PRESENTATION_STYLE_ASSIGNMENT (( #253 ) ) ;
#92 =( CONVERSION_BASED_UNIT ( 'INCH', #171 ) LENGTH_UNIT ( ) NAMED_UNIT ( #165 ) );
#93 = SHAPE_DEFINITION_REPRESENTATION ( #122, #303 ) ;
#94 = DIRECTION ( 'NONE',  ( -0.000000000000000000, -1.000000000000000000, -0.000000000000000000 ) ) ;
#95 = EDGE_CURVE ( 'NONE', #56, #264, #133, .T. ) ;
#96 = DIRECTION ( 'NONE',  ( -0.000000000000000000, -1.000000000000000000, -0.000000000000000000 ) ) ;
#97 = COLOUR_RGB ( '',0.7921568627450980005, 0.8196078431372548767, 0.9333333333333333481 ) ;
#98 = CARTESIAN_POINT ( 'NONE',  ( 0.000000000000000000, 2.000000000000000000, 0.000000000000000000 ) ) ;
#99 = EDGE_CURVE ( 'NONE', #264, #56, #101, .T. ) ;
#100 = FILL_AREA_STYLE_COLOUR ( '', #103 ) ;
#101 = CIRCLE ( 'NONE', #28, 0.2500000000000001110 ) ;
#102 = UNCERTAINTY_MEASURE_WITH_UNIT (LENGTH_MEASURE( 1.000000000000000082E-05 ), #46, 'distance_accuracy_value', 'NONE');
#103 = COLOUR_RGB ( '',1.000000000000000000, 0.000000000000000000, 0.000000000000000000 ) ;
#104 = ORIENTED_EDGE ( 'NONE', *, *, #74, .T. ) ;
#105 = EDGE_LOOP ( 'NONE', ( #296, #129 ) ) ;
#106 = ORIENTED_EDGE ( 'NONE', *, *, #132, .F. ) ;
#107 = ORIENTED_EDGE ( 'NONE', *, *, #128, .F. ) ;
#108 = ADVANCED_FACE ( 'NONE', ( #162 ), #8, .F. ) ;
#109 = CARTESIAN_POINT ( 'NONE',  ( -0.2500000000000002220, 4.000000000000000000, 0.000000000000000000 ) ) ;
#110 = APPLICATION_CONTEXT ( 'automotive_design' ) ;
#111 = AXIS2_PLACEMENT_3D ( 'NONE', #33, #131, #201 ) ;
#112 = ADVANCED_FACE ( 'NONE', ( #295 ), #62, .T. ) ;
#113 = DIMENSIONAL_EXPONENTS ( 1.000000000000000000, 0.000000000000000000, 0.000000000000000000, 0.000000000000000000, 0.000000000000000000, 0.000000000000000000, 0.000000000000000000 ) ;
#114 = SURFACE_STYLE_FILL_AREA ( #169 ) ;
#115 = FACE_OUTER_BOUND ( 'NONE', #269, .T. ) ;
#116 = MECHANICAL_DESIGN_GEOMETRIC_PRESENTATION_REPRESENTATION (  '', ( #60 ), #73 ) ;
#117 = CIRCLE ( 'NONE', #43, 0.2500000000000000555 ) ;
#118 = MANIFOLD_SOLID_BREP ( 'Revolve - Tool Body (Straight Shanked)', #240 ) ;
#119 = DIRECTION ( 'NONE',  ( 0.000000000000000000, 0.000000000000000000, 1.000000000000000000 ) ) ;
#120 = CARTESIAN_POINT ( 'NONE',  ( 0.000000000000000000, 2.000000000000000000, 0.000000000000000000 ) ) ;
#121 = LINE ( 'NONE', #208, #238 ) ;
#122 = PRODUCT_DEFINITION_SHAPE ( 'NONE', 'NONE',  #265 ) ;
#123 = LINE ( 'NONE', #31, #155 ) ;
#124 = PRESENTATION_STYLE_ASSIGNMENT (( #29 ) ) ;
#125 = FACE_OUTER_BOUND ( 'NONE', #78, .T. ) ;
#126 = AXIS2_PLACEMENT_3D ( 'NONE', #158, #242, #130 ) ;
#127 = DIRECTION ( 'NONE',  ( -6.123233995736763571E-17, 1.000000000000000000, -0.000000000000000000 ) ) ;
#128 = EDGE_CURVE ( 'NONE', #246, #176, #12, .T. ) ;
#129 = ORIENTED_EDGE ( 'NONE', *, *, #270, .T. ) ;
#130 = DIRECTION ( 'NONE',  ( -1.000000000000000000, 0.000000000000000000, 0.000000000000000000 ) ) ;
#131 = DIRECTION ( 'NONE',  ( -0.000000000000000000, -1.000000000000000000, -0.000000000000000000 ) ) ;
#132 = EDGE_CURVE ( 'NONE', #175, #200, #121, .T. ) ;
#133 = CIRCLE ( 'NONE', #42, 0.2500000000000001110 ) ;
#134 = STYLED_ITEM ( 'NONE', ( #91 ), #218 ) ;
#135 = UNCERTAINTY_MEASURE_WITH_UNIT (LENGTH_MEASURE( 1.000000000000000082E-05 ), #167, 'distance_accuracy_value', 'NONE');
#136 = EDGE_LOOP ( 'NONE', ( #61, #203, #202, #196 ) ) ;
#137 = CARTESIAN_POINT ( 'NONE',  ( 0.2500000000000000000, 4.000000000000000000, 3.061616997868384251E-17 ) ) ;
#138 =( LENGTH_UNIT ( ) NAMED_UNIT ( * ) SI_UNIT ( $, .METRE. ) );
#139 = DIMENSIONAL_EXPONENTS ( 1.000000000000000000, 0.000000000000000000, 0.000000000000000000, 0.000000000000000000, 0.000000000000000000, 0.000000000000000000, 0.000000000000000000 ) ;
#140 =( LENGTH_UNIT ( ) NAMED_UNIT ( * ) SI_UNIT ( $, .METRE. ) );
#141 = CARTESIAN_POINT ( 'NONE',  ( -1.224646799147352714E-16, 4.000000000000000000, 0.000000000000000000 ) ) ;
#142 = LENGTH_MEASURE_WITH_UNIT ( LENGTH_MEASURE( 0.02539999999999999897 ), #147 );
#143 = CARTESIAN_POINT ( 'NONE',  ( 0.000000000000000000, 0.000000000000000000, 0.000000000000000000 ) ) ;
#144 = CARTESIAN_POINT ( 'NONE',  ( -1.224646799147352714E-16, 4.000000000000000000, 0.000000000000000000 ) ) ;
#145 =( NAMED_UNIT ( * ) PLANE_ANGLE_UNIT ( ) SI_UNIT ( $, .RADIAN. ) );
#146 = AXIS2_PLACEMENT_3D ( 'NONE', #225, #211, #68 ) ;
#147 =( LENGTH_UNIT ( ) NAMED_UNIT ( * ) SI_UNIT ( $, .METRE. ) );
#148 =( NAMED_UNIT ( * ) SI_UNIT ( $, .STERADIAN. ) SOLID_ANGLE_UNIT ( ) );
#149 =( LENGTH_UNIT ( ) NAMED_UNIT ( * ) SI_UNIT ( $, .METRE. ) );
#150 =( LENGTH_UNIT ( ) NAMED_UNIT ( * ) SI_UNIT ( $, .METRE. ) );
#151 =( NAMED_UNIT ( * ) PLANE_ANGLE_UNIT ( ) SI_UNIT ( $, .RADIAN. ) );
#152 = AXIS2_PLACEMENT_3D ( 'NONE', #188, #277, #25 ) ;
#153 = FILL_AREA_STYLE_COLOUR ( '', #15 ) ;
#154 = ADVANCED_FACE ( 'NONE', ( #278 ), #189, .T. ) ;
#155 = VECTOR ( 'NONE', #127, 39.37007874015748143 ) ;
#156 = AXIS2_PLACEMENT_3D ( 'NONE', #50, #94, #286 ) ;
#157 = ORIENTED_EDGE ( 'NONE', *, *, #293, .T. ) ;
#158 = CARTESIAN_POINT ( 'NONE',  ( 1.516480271171051896E-32, 2.000000000000000000, 0.000000000000000000 ) ) ;
#159 = VERTEX_POINT ( 'NONE', #47 ) ;
#160 =( GEOMETRIC_REPRESENTATION_CONTEXT ( 3 ) GLOBAL_UNCERTAINTY_ASSIGNED_CONTEXT ( ( #292 ) ) GLOBAL_UNIT_ASSIGNED_CONTEXT ( ( #92, #145, #212 ) ) REPRESENTATION_CONTEXT ( 'NONE', 'WORKASPACE' ) );
#161 = ORIENTED_EDGE ( 'NONE', *, *, #40, .T. ) ;
#162 = FACE_OUTER_BOUND ( 'NONE', #9, .T. ) ;
#163 = DIMENSIONAL_EXPONENTS ( 1.000000000000000000, 0.000000000000000000, 0.000000000000000000, 0.000000000000000000, 0.000000000000000000, 0.000000000000000000, 0.000000000000000000 ) ;
#164 = COLOUR_RGB ( '',1.000000000000000000, 0.000000000000000000, 0.000000000000000000 ) ;
#165 = DIMENSIONAL_EXPONENTS ( 1.000000000000000000, 0.000000000000000000, 0.000000000000000000, 0.000000000000000000, 0.000000000000000000, 0.000000000000000000, 0.000000000000000000 ) ;
#166 = DIRECTION ( 'NONE',  ( -1.000000000000000000, 0.000000000000000000, 0.000000000000000000 ) ) ;
#167 =( CONVERSION_BASED_UNIT ( 'INCH', #306 ) LENGTH_UNIT ( ) NAMED_UNIT ( #113 ) );
#168 = DIRECTION ( 'NONE',  ( -0.000000000000000000, -1.000000000000000000, -0.000000000000000000 ) ) ;
#169 = FILL_AREA_STYLE ('',( #54 ) ) ;
#170 = PRESENTATION_STYLE_ASSIGNMENT (( #307 ) ) ;
#171 = LENGTH_MEASURE_WITH_UNIT ( LENGTH_MEASURE( 0.02539999999999999897 ), #51 );
#172 =( CONVERSION_BASED_UNIT ( 'INCH', #142 ) LENGTH_UNIT ( ) NAMED_UNIT ( #186 ) );
#173 = ADVANCED_FACE ( 'NONE', ( #115 ), #282, .T. ) ;
#174 = SURFACE_SIDE_STYLE ('',( #13 ) ) ;
#175 = VERTEX_POINT ( 'NONE', #222 ) ;
#176 = VERTEX_POINT ( 'NONE', #239 ) ;
#177 = ORIENTED_EDGE ( 'NONE', *, *, #40, .F. ) ;
#178 = CIRCLE ( 'NONE', #126, 0.2500000000000000555 ) ;
#179 = AXIS2_PLACEMENT_3D ( 'NONE', #143, #119, #27 ) ;
#180 = PRESENTATION_STYLE_ASSIGNMENT (( #302 ) ) ;
#181 = FACE_OUTER_BOUND ( 'NONE', #294, .T. ) ;
#182 = DIRECTION ( 'NONE',  ( -6.123233995736763571E-17, 1.000000000000000000, -0.000000000000000000 ) ) ;
#183 = DIMENSIONAL_EXPONENTS ( 1.000000000000000000, 0.000000000000000000, 0.000000000000000000, 0.000000000000000000, 0.000000000000000000, 0.000000000000000000, 0.000000000000000000 ) ;
#184 = DIRECTION ( 'NONE',  ( -0.000000000000000000, -1.000000000000000000, -0.000000000000000000 ) ) ;
#185 = PRESENTATION_LAYER_ASSIGNMENT (  '', '', ( #290 ) ) ;
#186 = DIMENSIONAL_EXPONENTS ( 1.000000000000000000, 0.000000000000000000, 0.000000000000000000, 0.000000000000000000, 0.000000000000000000, 0.000000000000000000, 0.000000000000000000 ) ;
#187 =( GEOMETRIC_REPRESENTATION_CONTEXT ( 3 ) GLOBAL_UNCERTAINTY_ASSIGNED_CONTEXT ( ( #63 ) ) GLOBAL_UNIT_ASSIGNED_CONTEXT ( ( #213, #308, #148 ) ) REPRESENTATION_CONTEXT ( 'NONE', 'WORKASPACE' ) );
#188 = CARTESIAN_POINT ( 'NONE',  ( 0.000000000000000000, 0.000000000000000000, 0.000000000000000000 ) ) ;
#189 = PLANE ( 'NONE',  #22 ) ;
#190 = STYLED_ITEM ( 'NONE', ( #124 ), #217 ) ;
#191 =( GEOMETRIC_REPRESENTATION_CONTEXT ( 3 ) GLOBAL_UNCERTAINTY_ASSIGNED_CONTEXT ( ( #102 ) ) GLOBAL_UNIT_ASSIGNED_CONTEXT ( ( #46, #4, #2 ) ) REPRESENTATION_CONTEXT ( 'NONE', 'WORKASPACE' ) );
#192 = LENGTH_MEASURE_WITH_UNIT ( LENGTH_MEASURE( 0.02539999999999999897 ), #3 );
#193 = PRESENTATION_STYLE_ASSIGNMENT (( #48 ) ) ;
#194 = EDGE_CURVE ( 'NONE', #176, #56, #123, .T. ) ;
#195 = AXIS2_PLACEMENT_3D ( 'NONE', #69, #261, #216 ) ;
#196 = ORIENTED_EDGE ( 'NONE', *, *, #270, .F. ) ;
#197 = ORIENTED_EDGE ( 'NONE', *, *, #99, .F. ) ;
#198 = PRESENTATION_LAYER_ASSIGNMENT (  '', '', ( #263 ) ) ;
#199 = PRESENTATION_LAYER_ASSIGNMENT (  '', '', ( #58 ) ) ;
#200 = VERTEX_POINT ( 'NONE', #237 ) ;
#201 = DIRECTION ( 'NONE',  ( 0.000000000000000000, 0.000000000000000000, -1.000000000000000000 ) ) ;
#202 = ORIENTED_EDGE ( 'NONE', *, *, #132, .T. ) ;
#203 = ORIENTED_EDGE ( 'NONE', *, *, #223, .T. ) ;
#204 = DIRECTION ( 'NONE',  ( -1.000000000000000000, 0.000000000000000000, 0.000000000000000000 ) ) ;
#205 = LINE ( 'NONE', #304, #36 ) ;
#206 = SURFACE_STYLE_FILL_AREA ( #258 ) ;
#207 = DIMENSIONAL_EXPONENTS ( 1.000000000000000000, 0.000000000000000000, 0.000000000000000000, 0.000000000000000000, 0.000000000000000000, 0.000000000000000000, 0.000000000000000000 ) ;
#208 = CARTESIAN_POINT ( 'NONE',  ( 0.000000000000000000, 0.000000000000000000, -0.2500000000000000000 ) ) ;
#209 = DIRECTION ( 'NONE',  ( -1.000000000000000000, 0.000000000000000000, 0.000000000000000000 ) ) ;
#210 = COLOUR_RGB ( '',1.000000000000000000, 0.000000000000000000, 0.000000000000000000 ) ;
#211 = DIRECTION ( 'NONE',  ( -0.000000000000000000, -1.000000000000000000, -0.000000000000000000 ) ) ;
#212 =( NAMED_UNIT ( * ) SI_UNIT ( $, .STERADIAN. ) SOLID_ANGLE_UNIT ( ) );
#213 =( CONVERSION_BASED_UNIT ( 'INCH', #64 ) LENGTH_UNIT ( ) NAMED_UNIT ( #207 ) );
#214 = SURFACE_SIDE_STYLE ('',( #206 ) ) ;
#215 = PRODUCT_RELATED_PRODUCT_CATEGORY ( 'part', '', ( #24 ) ) ;
#216 = DIRECTION ( 'NONE',  ( -1.000000000000000000, 0.000000000000000000, 0.000000000000000000 ) ) ;
#217 = MANIFOLD_SOLID_BREP ( 'Revolve - Cutting Edge', #256 ) ;
#218 = ADVANCED_FACE ( 'NONE', ( #71 ), #23, .T. ) ;
#219 = MECHANICAL_DESIGN_GEOMETRIC_PRESENTATION_REPRESENTATION (  '', ( #263 ), #266 ) ;
#220 = CIRCLE ( 'NONE', #251, 0.2500000000000000555 ) ;
#221 = EDGE_LOOP ( 'NONE', ( #271, #241, #161, #34 ) ) ;
#222 = CARTESIAN_POINT ( 'NONE',  ( 0.000000000000000000, 2.000000000000000000, -0.2500000000000000555 ) ) ;
#223 = EDGE_CURVE ( 'NONE', #272, #175, #117, .T. ) ;
#224 = ORIENTED_EDGE ( 'NONE', *, *, #194, .T. ) ;
#225 = CARTESIAN_POINT ( 'NONE',  ( 0.000000000000000000, 0.000000000000000000, 0.000000000000000000 ) ) ;
#226 = MECHANICAL_DESIGN_GEOMETRIC_PRESENTATION_REPRESENTATION (  '', ( #134 ), #191 ) ;
#227 = ORIENTED_EDGE ( 'NONE', *, *, #128, .T. ) ;
#228 = FACE_OUTER_BOUND ( 'NONE', #221, .T. ) ;
#229 = AXIS2_PLACEMENT_3D ( 'NONE', #41, #247, #88 ) ;
#230 = CIRCLE ( 'NONE', #156, 0.2500000000000000000 ) ;
#231 = SURFACE_STYLE_USAGE ( .BOTH. , #214 ) ;
#232 = DIRECTION ( 'NONE',  ( -6.123233995736763571E-17, 1.000000000000000000, -0.000000000000000000 ) ) ;
#233 = LENGTH_MEASURE_WITH_UNIT ( LENGTH_MEASURE( 0.02539999999999999897 ), #138 );
#234 =( NAMED_UNIT ( * ) PLANE_ANGLE_UNIT ( ) SI_UNIT ( $, .RADIAN. ) );
#235 =( CONVERSION_BASED_UNIT ( 'INCH', #192 ) LENGTH_UNIT ( ) NAMED_UNIT ( #183 ) );
#236 =( NAMED_UNIT ( * ) SI_UNIT ( $, .STERADIAN. ) SOLID_ANGLE_UNIT ( ) );
#237 = CARTESIAN_POINT ( 'NONE',  ( 0.000000000000000000, 0.000000000000000000, -0.2500000000000000000 ) ) ;
#238 = VECTOR ( 'NONE', #184, 39.37007874015748143 ) ;
#239 = CARTESIAN_POINT ( 'NONE',  ( 0.2500000000000000555, 2.000000000000000000, 3.061616997868384251E-17 ) ) ;
#240 = CLOSED_SHELL ( 'NONE', ( #173, #90, #75, #108 ) ) ;
#241 = ORIENTED_EDGE ( 'NONE', *, *, #1, .T. ) ;
#242 = DIRECTION ( 'NONE',  ( -6.123233995736763571E-17, 1.000000000000000000, -0.000000000000000000 ) ) ;
#243 = SURFACE_STYLE_FILL_AREA ( #59 ) ;
#244 = AXIS2_PLACEMENT_3D ( 'NONE', #299, #287, #166 ) ;
#245 = SURFACE_STYLE_FILL_AREA ( #83 ) ;
#246 = VERTEX_POINT ( 'NONE', #7 ) ;
#247 = DIRECTION ( 'NONE',  ( 6.123233995736763571E-17, -1.000000000000000000, 0.000000000000000000 ) ) ;
#248 = ADVANCED_FACE ( 'NONE', ( #125 ), #260, .T. ) ;
#249 = DIRECTION ( 'NONE',  ( -6.123233995736763571E-17, 1.000000000000000000, 0.000000000000000000 ) ) ;
#250 = CIRCLE ( 'NONE', #146, 0.2500000000000000000 ) ;
#251 = AXIS2_PLACEMENT_3D ( 'NONE', #98, #96, #289 ) ;
#252 = CYLINDRICAL_SURFACE ( 'NONE', #280, 0.2500000000000000555 ) ;
#253 = SURFACE_STYLE_USAGE ( .BOTH. , #255 ) ;
#254 = CARTESIAN_POINT ( 'NONE',  ( 0.000000000000000000, 0.000000000000000000, 0.000000000000000000 ) ) ;
#255 = SURFACE_SIDE_STYLE ('',( #114 ) ) ;
#256 = CLOSED_SHELL ( 'NONE', ( #112, #248, #218, #154 ) ) ;
#257 = DIRECTION ( 'NONE',  ( 0.000000000000000000, 1.000000000000000000, 0.000000000000000000 ) ) ;
#258 = FILL_AREA_STYLE ('',( #45 ) ) ;
#259 = FILL_AREA_STYLE ('',( #153 ) ) ;
#260 = PLANE ( 'NONE',  #82 ) ;
#261 = DIRECTION ( 'NONE',  ( -6.123233995736763571E-17, 1.000000000000000000, -0.000000000000000000 ) ) ;
#262 = PRESENTATION_LAYER_ASSIGNMENT (  '', '', ( #190 ) ) ;
#263 = STYLED_ITEM ( 'NONE', ( #170 ), #118 ) ;
#264 = VERTEX_POINT ( 'NONE', #288 ) ;
#265 = PRODUCT_DEFINITION ( 'UNKNOWN', '', #291, #77 ) ;
#266 =( GEOMETRIC_REPRESENTATION_CONTEXT ( 3 ) GLOBAL_UNCERTAINTY_ASSIGNED_CONTEXT ( ( #86 ) ) GLOBAL_UNIT_ASSIGNED_CONTEXT ( ( #172, #66, #26 ) ) REPRESENTATION_CONTEXT ( 'NONE', 'WORKASPACE' ) );
#267 =( GEOMETRIC_REPRESENTATION_CONTEXT ( 3 ) GLOBAL_UNCERTAINTY_ASSIGNED_CONTEXT ( ( #30 ) ) GLOBAL_UNIT_ASSIGNED_CONTEXT ( ( #235, #151, #236 ) ) REPRESENTATION_CONTEXT ( 'NONE', 'WORKASPACE' ) );
#268 = FILL_AREA_STYLE_COLOUR ( '', #210 ) ;
#269 = EDGE_LOOP ( 'NONE', ( #227, #224, #197, #177 ) ) ;
#270 = EDGE_CURVE ( 'NONE', #159, #200, #230, .T. ) ;
#271 = ORIENTED_EDGE ( 'NONE', *, *, #194, .F. ) ;
#272 = VERTEX_POINT ( 'NONE', #72 ) ;
#273 =( NAMED_UNIT ( * ) SI_UNIT ( $, .STERADIAN. ) SOLID_ANGLE_UNIT ( ) );
#274 = PLANE ( 'NONE',  #67 ) ;
#275 =( NAMED_UNIT ( * ) PLANE_ANGLE_UNIT ( ) SI_UNIT ( $, .RADIAN. ) );
#276 = CARTESIAN_POINT ( 'NONE',  ( 4.686749320818301603E-34, 2.000000000000000000, 0.000000000000000000 ) ) ;
#277 = DIRECTION ( 'NONE',  ( -0.000000000000000000, -1.000000000000000000, -0.000000000000000000 ) ) ;
#278 = FACE_OUTER_BOUND ( 'NONE', #105, .T. ) ;
#279 = PRODUCT_CONTEXT ( 'NONE', #65, 'mechanical' ) ;
#280 = AXIS2_PLACEMENT_3D ( 'NONE', #144, #89, #70 ) ;
#281 =( NAMED_UNIT ( * ) SI_UNIT ( $, .STERADIAN. ) SOLID_ANGLE_UNIT ( ) );
#282 = CYLINDRICAL_SURFACE ( 'NONE', #195, 0.2500000000000000555 ) ;
#283 = APPLICATION_PROTOCOL_DEFINITION ( 'draft international standard', 'automotive_design', 1998, #110 ) ;
#284 = DIRECTION ( 'NONE',  ( 0.000000000000000000, 0.000000000000000000, -1.000000000000000000 ) ) ;
#285 = APPLICATION_PROTOCOL_DEFINITION ( 'draft international standard', 'automotive_design', 1998, #65 ) ;
#286 = DIRECTION ( 'NONE',  ( 0.000000000000000000, 0.000000000000000000, -1.000000000000000000 ) ) ;
#287 = DIRECTION ( 'NONE',  ( -6.123233995736763571E-17, 1.000000000000000000, -0.000000000000000000 ) ) ;
#288 = CARTESIAN_POINT ( 'NONE',  ( -0.2500000000000002220, 4.000000000000000000, 0.000000000000000000 ) ) ;
#289 = DIRECTION ( 'NONE',  ( 0.000000000000000000, 0.000000000000000000, -1.000000000000000000 ) ) ;
#290 = STYLED_ITEM ( 'NONE', ( #5 ), #154 ) ;
#291 = PRODUCT_DEFINITION_FORMATION_WITH_SPECIFIED_SOURCE ( 'ANY', '', #24, .NOT_KNOWN. ) ;
#292 = UNCERTAINTY_MEASURE_WITH_UNIT (LENGTH_MEASURE( 1.000000000000000082E-05 ), #92, 'distance_accuracy_value', 'NONE');
#293 = EDGE_CURVE ( 'NONE', #175, #272, #220, .T. ) ;
#294 = EDGE_LOOP ( 'NONE', ( #107, #85 ) ) ;
#295 = FACE_OUTER_BOUND ( 'NONE', #39, .T. ) ;
#296 = ORIENTED_EDGE ( 'NONE', *, *, #20, .T. ) ;
#297 =( CONVERSION_BASED_UNIT ( 'INCH', #38 ) LENGTH_UNIT ( ) NAMED_UNIT ( #139 ) );
#298 =( GEOMETRIC_REPRESENTATION_CONTEXT ( 3 ) GLOBAL_UNCERTAINTY_ASSIGNED_CONTEXT ( ( #16 ) ) GLOBAL_UNIT_ASSIGNED_CONTEXT ( ( #297, #275, #281 ) ) REPRESENTATION_CONTEXT ( 'NONE', 'WORKASPACE' ) );
#299 = CARTESIAN_POINT ( 'NONE',  ( 1.516480271171051896E-32, 2.000000000000000000, 0.000000000000000000 ) ) ;
#300 = ORIENTED_EDGE ( 'NONE', *, *, #95, .T. ) ;
#301 = ORIENTED_EDGE ( 'NONE', *, *, #223, .F. ) ;
#302 = SURFACE_STYLE_USAGE ( .BOTH. , #174 ) ;
#303 = ADVANCED_BREP_SHAPE_REPRESENTATION ( '26307', ( #217, #118, #179 ), #187 ) ;
#304 = CARTESIAN_POINT ( 'NONE',  ( 3.061616997868383018E-17, 0.000000000000000000, 0.2500000000000000000 ) ) ;
#305 = DIRECTION ( 'NONE',  ( 0.000000000000000000, 0.000000000000000000, -1.000000000000000000 ) ) ;
#306 = LENGTH_MEASURE_WITH_UNIT ( LENGTH_MEASURE( 0.02539999999999999897 ), #140 );
#307 = SURFACE_STYLE_USAGE ( .BOTH. , #35 ) ;
#308 =( NAMED_UNIT ( * ) PLANE_ANGLE_UNIT ( ) SI_UNIT ( $, .RADIAN. ) );
#309 = CARTESIAN_POINT ( 'NONE',  ( -1.224646799147352714E-16, 4.000000000000000000, 0.000000000000000000 ) ) ;
ENDSEC;
END-ISO-10303-21;
