ISO-10303-21;
HEADER;
FILE_DESCRIPTION (( 'STEP AP214' ),
    '1' );
FILE_NAME ('Micro_KC-093-140-040.STEP',
    '2021-09-03T19:05:33',
    ( '' ),
    ( '' ),
    'SwSTEP 2.0',
    'SolidWorks 2020',
    '' );
FILE_SCHEMA (( 'AUTOMOTIVE_DESIGN' ));
ENDSEC;

DATA;
#1 =( NAMED_UNIT ( * ) SI_UNIT ( $, .STERADIAN. ) SOLID_ANGLE_UNIT ( ) );
#2 =( GEOMETRIC_REPRESENTATION_CONTEXT ( 3 ) GLOBAL_UNCERTAINTY_ASSIGNED_CONTEXT ( ( #146 ) ) GLOBAL_UNIT_ASSIGNED_CONTEXT ( ( #359, #334, #305 ) ) REPRESENTATION_CONTEXT ( 'NONE', 'WORKASPACE' ) );
#3 = DIRECTION ( 'NONE',  ( -0.0000000000000000000, -0.0000000000000000000, -1.000000000000000000 ) ) ;
#4 = VECTOR ( 'NONE', #347, 39.37007874015748854 ) ;
#5 = APPLICATION_PROTOCOL_DEFINITION ( 'draft international standard', 'automotive_design', 1998, #19 ) ;
#6 = LINE ( 'NONE', #294, #40 ) ;
#7 = CARTESIAN_POINT ( 'NONE',  ( -0.02350000000000001740, 0.0000000000000000000, 0.0000000000000000000 ) ) ;
#8 = EDGE_CURVE ( 'NONE', #281, #361, #60, .T. ) ;
#9 = CONICAL_SURFACE ( 'NONE', #299, 0.02350000000000002781, 0.7853981633974510546 ) ;
#10 = CARTESIAN_POINT ( 'NONE',  ( -0.02350000000000002781, 5.265981236333620997E-18, 0.1400000000000000133 ) ) ;
#11 = CARTESIAN_POINT ( 'NONE',  ( 0.06250000000000000000, 7.654042494670956004E-18, 1.485000000000000764 ) ) ;
#12 = FACE_OUTER_BOUND ( 'NONE', #83, .T. ) ;
#13 = FACE_OUTER_BOUND ( 'NONE', #229, .T. ) ;
#14 = CARTESIAN_POINT ( 'NONE',  ( 0.0000000000000000000, 0.0000000000000000000, 0.0000000000000000000 ) ) ;
#15 = ORIENTED_EDGE ( 'NONE', *, *, #178, .F. ) ;
#16 = VECTOR ( 'NONE', #158, 39.37007874015748143 ) ;
#17 = DIRECTION ( 'NONE',  ( -0.0000000000000000000, -0.0000000000000000000, -1.000000000000000000 ) ) ;
#18 = ORIENTED_EDGE ( 'NONE', *, *, #106, .F. ) ;
#19 = APPLICATION_CONTEXT ( 'automotive_design' ) ;
#20 = ORIENTED_EDGE ( 'NONE', *, *, #205, .F. ) ;
#21 = EDGE_CURVE ( 'NONE', #260, #238, #285, .T. ) ;
#22 = DIRECTION ( 'NONE',  ( -1.000000000000000000, 0.0000000000000000000, 0.0000000000000000000 ) ) ;
#23 = EDGE_CURVE ( 'NONE', #161, #159, #58, .T. ) ;
#24 = AXIS2_PLACEMENT_3D ( 'NONE', #353, #3, #271 ) ;
#25 = DIRECTION ( 'NONE',  ( -0.0000000000000000000, -0.0000000000000000000, -1.000000000000000000 ) ) ;
#26 = CARTESIAN_POINT ( 'NONE',  ( 0.0000000000000000000, 0.0000000000000000000, 0.1400000000000000133 ) ) ;
#27 = ORIENTED_EDGE ( 'NONE', *, *, #45, .F. ) ;
#28 = AXIS2_PLACEMENT_3D ( 'NONE', #174, #314, #282 ) ;
#29 = ORIENTED_EDGE ( 'NONE', *, *, #188, .F. ) ;
#30 = DIRECTION ( 'NONE',  ( -1.000000000000000000, 0.0000000000000000000, 0.0000000000000000000 ) ) ;
#31 = CYLINDRICAL_SURFACE ( 'NONE', #79, 0.02350000000000001740 ) ;
#32 = ADVANCED_FACE ( 'NONE', ( #84 ), #193, .T. ) ;
#33 = CIRCLE ( 'NONE', #138, 0.06250000000000000000 ) ;
#34 = DIRECTION ( 'NONE',  ( 0.7071067811865493491, 0.0000000000000000000, 0.7071067811865454633 ) ) ;
#35 =( NAMED_UNIT ( * ) PLANE_ANGLE_UNIT ( ) SI_UNIT ( $, .RADIAN. ) );
#36 = SURFACE_STYLE_FILL_AREA ( #214 ) ;
#37 =( NAMED_UNIT ( * ) PLANE_ANGLE_UNIT ( ) SI_UNIT ( $, .RADIAN. ) );
#38 = APPLICATION_CONTEXT ( 'automotive_design' ) ;
#39 = CARTESIAN_POINT ( 'NONE',  ( 0.06250000000000000000, 7.654042494670956004E-18, 1.500000000000000222 ) ) ;
#40 = VECTOR ( 'NONE', #34, 39.37007874015748854 ) ;
#41 = DIRECTION ( 'NONE',  ( 0.0000000000000000000, 0.0000000000000000000, -1.000000000000000000 ) ) ;
#42 = VECTOR ( 'NONE', #112, 39.37007874015748143 ) ;
#43 = DIRECTION ( 'NONE',  ( 1.000000000000000000, 0.0000000000000000000, 0.0000000000000000000 ) ) ;
#44 = ORIENTED_EDGE ( 'NONE', *, *, #45, .T. ) ;
#45 = EDGE_CURVE ( 'NONE', #366, #75, #114, .T. ) ;
#46 = CARTESIAN_POINT ( 'NONE',  ( 0.0000000000000000000, 0.0000000000000000000, 1.500000000000000222 ) ) ;
#47 = ORIENTED_EDGE ( 'NONE', *, *, #21, .T. ) ;
#48 = PRODUCT_RELATED_PRODUCT_CATEGORY ( 'part', '', ( #286 ) ) ;
#49 = CARTESIAN_POINT ( 'NONE',  ( -0.02350000000000001046, 0.0000000000000000000, 0.04000000000000000083 ) ) ;
#50 = CIRCLE ( 'NONE', #28, 0.04690000000000001806 ) ;
#51 = ORIENTED_EDGE ( 'NONE', *, *, #264, .T. ) ;
#52 = STYLED_ITEM ( 'NONE', ( #269 ), #219 ) ;
#53 = COLOUR_RGB ( '',0.7921568627450980005, 0.8196078431372548767, 0.9333333333333333481 ) ;
#54 = ADVANCED_FACE ( 'NONE', ( #172 ), #348, .T. ) ;
#55 = VERTEX_POINT ( 'NONE', #234 ) ;
#56 = EDGE_CURVE ( 'NONE', #104, #75, #50, .T. ) ;
#57 = ORIENTED_EDGE ( 'NONE', *, *, #211, .F. ) ;
#58 = LINE ( 'NONE', #370, #4 ) ;
#59 = AXIS2_PLACEMENT_3D ( 'NONE', #274, #17, #134 ) ;
#60 = LINE ( 'NONE', #115, #245 ) ;
#61 = DIRECTION ( 'NONE',  ( -0.0000000000000000000, -0.0000000000000000000, -1.000000000000000000 ) ) ;
#62 = CIRCLE ( 'NONE', #163, 0.06250000000000000000 ) ;
#63 = CARTESIAN_POINT ( 'NONE',  ( -0.04690000000000001806, 0.0000000000000000000, 0.0000000000000000000 ) ) ;
#64 = DIRECTION ( 'NONE',  ( -1.000000000000000000, 0.0000000000000000000, 0.0000000000000000000 ) ) ;
#65 = CIRCLE ( 'NONE', #72, 0.06250000000000000000 ) ;
#66 = FACE_OUTER_BOUND ( 'NONE', #277, .T. ) ;
#67 = LENGTH_MEASURE_WITH_UNIT ( LENGTH_MEASURE( 0.02539999999999999897 ), #156 );
#68 = CARTESIAN_POINT ( 'NONE',  ( 0.0000000000000000000, 0.0000000000000000000, 0.04000000000000000083 ) ) ;
#69 =( NAMED_UNIT ( * ) SI_UNIT ( $, .STERADIAN. ) SOLID_ANGLE_UNIT ( ) );
#70 = CARTESIAN_POINT ( 'NONE',  ( 0.0000000000000000000, 0.0000000000000000000, 0.0000000000000000000 ) ) ;
#71 = LINE ( 'NONE', #7, #255 ) ;
#72 = AXIS2_PLACEMENT_3D ( 'NONE', #371, #111, #235 ) ;
#73 = CARTESIAN_POINT ( 'NONE',  ( -0.04750000000000064587, 0.0000000000000000000, 1.500000000000000222 ) ) ;
#74 =( GEOMETRIC_REPRESENTATION_CONTEXT ( 3 ) GLOBAL_UNCERTAINTY_ASSIGNED_CONTEXT ( ( #215 ) ) GLOBAL_UNIT_ASSIGNED_CONTEXT ( ( #270, #37, #1 ) ) REPRESENTATION_CONTEXT ( 'NONE', 'WORKASPACE' ) );
#75 = VERTEX_POINT ( 'NONE', #342 ) ;
#76 = ADVANCED_FACE ( 'NONE', ( #289, #171 ), #206, .T. ) ;
#77 = ORIENTED_EDGE ( 'NONE', *, *, #21, .F. ) ;
#78 = ORIENTED_EDGE ( 'NONE', *, *, #170, .F. ) ;
#79 = AXIS2_PLACEMENT_3D ( 'NONE', #70, #93, #322 ) ;
#80 = EDGE_LOOP ( 'NONE', ( #367, #337, #137, #86 ) ) ;
#81 = EDGE_CURVE ( 'NONE', #278, #366, #351, .T. ) ;
#82 = APPLICATION_PROTOCOL_DEFINITION ( 'draft international standard', 'automotive_design', 1998, #38 ) ;
#83 = EDGE_LOOP ( 'NONE', ( #232, #18, #142, #332 ) ) ;
#84 = FACE_OUTER_BOUND ( 'NONE', #131, .T. ) ;
#85 = CIRCLE ( 'NONE', #295, 0.02350000000000002781 ) ;
#86 = ORIENTED_EDGE ( 'NONE', *, *, #317, .F. ) ;
#87 = DIRECTION ( 'NONE',  ( -1.000000000000000000, 0.0000000000000000000, 0.0000000000000000000 ) ) ;
#88 = ORIENTED_EDGE ( 'NONE', *, *, #188, .T. ) ;
#89 = CIRCLE ( 'NONE', #24, 0.06250000000000000000 ) ;
#90 = EDGE_CURVE ( 'NONE', #364, #361, #65, .T. ) ;
#91 = CARTESIAN_POINT ( 'NONE',  ( 0.0000000000000000000, 0.0000000000000000000, 1.500000000000000222 ) ) ;
#92 = DIRECTION ( 'NONE',  ( -0.0000000000000000000, -0.0000000000000000000, -1.000000000000000000 ) ) ;
#93 = DIRECTION ( 'NONE',  ( -0.0000000000000000000, -0.0000000000000000000, -1.000000000000000000 ) ) ;
#94 = CIRCLE ( 'NONE', #236, 0.04750000000000064587 ) ;
#95 = PRODUCT_DEFINITION_FORMATION_WITH_SPECIFIED_SOURCE ( 'ANY', '', #286, .NOT_KNOWN. ) ;
#96 = ADVANCED_FACE ( 'NONE', ( #283 ), #9, .T. ) ;
#97 = SURFACE_STYLE_FILL_AREA ( #293 ) ;
#98 = ORIENTED_EDGE ( 'NONE', *, *, #315, .F. ) ;
#99 = PRODUCT_DEFINITION ( 'UNKNOWN', '', #95, #151 ) ;
#100 = CIRCLE ( 'NONE', #201, 0.04690000000000001806 ) ;
#101 = LINE ( 'NONE', #250, #107 ) ;
#102 = EDGE_LOOP ( 'NONE', ( #195, #304, #320, #77 ) ) ;
#103 = FACE_OUTER_BOUND ( 'NONE', #227, .T. ) ;
#104 = VERTEX_POINT ( 'NONE', #63 ) ;
#105 = EDGE_LOOP ( 'NONE', ( #29, #166, #139, #57 ) ) ;
#106 = EDGE_CURVE ( 'NONE', #281, #135, #94, .T. ) ;
#107 = VECTOR ( 'NONE', #363, 39.37007874015748143 ) ;
#108 = ORIENTED_EDGE ( 'NONE', *, *, #56, .T. ) ;
#109 = CARTESIAN_POINT ( 'NONE',  ( 0.0000000000000000000, 0.0000000000000000000, 0.0000000000000000000 ) ) ;
#110 = DIRECTION ( 'NONE',  ( -1.000000000000000000, 0.0000000000000000000, 0.0000000000000000000 ) ) ;
#111 = DIRECTION ( 'NONE',  ( 0.0000000000000000000, 0.0000000000000000000, -1.000000000000000000 ) ) ;
#112 = DIRECTION ( 'NONE',  ( -0.0000000000000000000, -0.0000000000000000000, -1.000000000000000000 ) ) ;
#113 = CONICAL_SURFACE ( 'NONE', #326, 0.02350000000000002781, 0.7853981633974510546 ) ;
#114 = LINE ( 'NONE', #350, #42 ) ;
#115 = CARTESIAN_POINT ( 'NONE',  ( -0.04750000000000064587, 0.0000000000000000000, 1.500000000000000222 ) ) ;
#116 = ADVANCED_FACE ( 'NONE', ( #263 ), #31, .T. ) ;
#117 = CARTESIAN_POINT ( 'NONE',  ( 0.0000000000000000000, 0.0000000000000000000, 0.1400000000000000133 ) ) ;
#118 = AXIS2_PLACEMENT_3D ( 'NONE', #91, #298, #147 ) ;
#119 = DIRECTION ( 'NONE',  ( -1.000000000000000000, 0.0000000000000000000, 0.0000000000000000000 ) ) ;
#120 = DIRECTION ( 'NONE',  ( -0.0000000000000000000, -0.0000000000000000000, -1.000000000000000000 ) ) ;
#121 = DIRECTION ( 'NONE',  ( -0.0000000000000000000, -0.0000000000000000000, -1.000000000000000000 ) ) ;
#122 = CARTESIAN_POINT ( 'NONE',  ( 0.0000000000000000000, 0.0000000000000000000, 1.500000000000000222 ) ) ;
#123 = DIRECTION ( 'NONE',  ( -0.0000000000000000000, -0.0000000000000000000, -1.000000000000000000 ) ) ;
#124 = SURFACE_STYLE_USAGE ( .BOTH. , #153 ) ;
#125 = AXIS2_PLACEMENT_3D ( 'NONE', #242, #92, #379 ) ;
#126 = CARTESIAN_POINT ( 'NONE',  ( 0.04750000000000064587, 5.817072295950006528E-18, 1.500000000000000222 ) ) ;
#127 = LINE ( 'NONE', #301, #16 ) ;
#128 = ORIENTED_EDGE ( 'NONE', *, *, #106, .T. ) ;
#129 = EDGE_CURVE ( 'NONE', #364, #55, #243, .T. ) ;
#130 = CARTESIAN_POINT ( 'NONE',  ( 0.02350000000000001046, 2.877919977996281753E-18, 0.04000000000000000083 ) ) ;
#131 = EDGE_LOOP ( 'NONE', ( #279, #203, #20, #133 ) ) ;
#132 = DIRECTION ( 'NONE',  ( 0.0000000000000000000, 0.0000000000000000000, 1.000000000000000000 ) ) ;
#133 = ORIENTED_EDGE ( 'NONE', *, *, #8, .F. ) ;
#134 = DIRECTION ( 'NONE',  ( -1.000000000000000000, 0.0000000000000000000, 0.0000000000000000000 ) ) ;
#135 = VERTEX_POINT ( 'NONE', #290 ) ;
#136 = SHAPE_DEFINITION_REPRESENTATION ( #312, #216 ) ;
#137 = ORIENTED_EDGE ( 'NONE', *, *, #376, .F. ) ;
#138 = AXIS2_PLACEMENT_3D ( 'NONE', #324, #121, #241 ) ;
#139 = ORIENTED_EDGE ( 'NONE', *, *, #376, .T. ) ;
#140 = EDGE_CURVE ( 'NONE', #198, #161, #85, .T. ) ;
#141 = ORIENTED_EDGE ( 'NONE', *, *, #291, .T. ) ;
#142 = ORIENTED_EDGE ( 'NONE', *, *, #8, .T. ) ;
#143 = CIRCLE ( 'NONE', #339, 0.02350000000000001046 ) ;
#144 = CARTESIAN_POINT ( 'NONE',  ( 0.04690000000000001806, 0.0000000000000000000, 0.04000000000000000083 ) ) ;
#145 = ADVANCED_FACE ( 'NONE', ( #66 ), #154, .T. ) ;
#146 = UNCERTAINTY_MEASURE_WITH_UNIT (LENGTH_MEASURE( 1.000000000000000082E-05 ), #359, 'distance_accuracy_value', 'NONE');
#147 = DIRECTION ( 'NONE',  ( 1.000000000000000000, 0.0000000000000000000, -0.0000000000000000000 ) ) ;
#148 = CARTESIAN_POINT ( 'NONE',  ( 0.04690000000000001806, 5.743593488001088307E-18, 0.04000000000000000083 ) ) ;
#149 = CARTESIAN_POINT ( 'NONE',  ( -0.06250000000000000000, 0.0000000000000000000, 0.1789999999999997982 ) ) ;
#150 = AXIS2_PLACEMENT_3D ( 'NONE', #268, #354, #266 ) ;
#151 = PRODUCT_DEFINITION_CONTEXT ( 'detailed design', #38, 'design' ) ;
#152 = DIRECTION ( 'NONE',  ( 0.0000000000000000000, 0.0000000000000000000, 1.000000000000000000 ) ) ;
#153 = SURFACE_SIDE_STYLE ('',( #36 ) ) ;
#154 = PLANE ( 'NONE',  #118 ) ;
#155 = AXIS2_PLACEMENT_3D ( 'NONE', #46, #189, #157 ) ;
#156 =( LENGTH_UNIT ( ) NAMED_UNIT ( * ) SI_UNIT ( $, .METRE. ) );
#157 = DIRECTION ( 'NONE',  ( 1.000000000000000000, 0.0000000000000000000, 0.0000000000000000000 ) ) ;
#158 = DIRECTION ( 'NONE',  ( -0.0000000000000000000, -0.0000000000000000000, -1.000000000000000000 ) ) ;
#159 = VERTEX_POINT ( 'NONE', #149 ) ;
#160 = DIRECTION ( 'NONE',  ( -1.000000000000000000, 0.0000000000000000000, 0.0000000000000000000 ) ) ;
#161 = VERTEX_POINT ( 'NONE', #10 ) ;
#162 = ADVANCED_FACE ( 'NONE', ( #218 ), #292, .T. ) ;
#163 = AXIS2_PLACEMENT_3D ( 'NONE', #297, #323, #180 ) ;
#164 = FACE_OUTER_BOUND ( 'NONE', #254, .T. ) ;
#165 =( GEOMETRIC_REPRESENTATION_CONTEXT ( 3 ) GLOBAL_UNCERTAINTY_ASSIGNED_CONTEXT ( ( #196 ) ) GLOBAL_UNIT_ASSIGNED_CONTEXT ( ( #244, #35, #69 ) ) REPRESENTATION_CONTEXT ( 'NONE', 'WORKASPACE' ) );
#166 = ORIENTED_EDGE ( 'NONE', *, *, #23, .T. ) ;
#167 = EDGE_LOOP ( 'NONE', ( #306, #47 ) ) ;
#168 = EDGE_LOOP ( 'NONE', ( #338, #210 ) ) ;
#169 = DIRECTION ( 'NONE',  ( 1.000000000000000000, 0.0000000000000000000, -0.0000000000000000000 ) ) ;
#170 = EDGE_CURVE ( 'NONE', #55, #159, #89, .T. ) ;
#171 = FACE_OUTER_BOUND ( 'NONE', #168, .T. ) ;
#172 = FACE_OUTER_BOUND ( 'NONE', #80, .T. ) ;
#173 = AXIS2_PLACEMENT_3D ( 'NONE', #377, #256, #22 ) ;
#174 = CARTESIAN_POINT ( 'NONE',  ( 0.0000000000000000000, 0.0000000000000000000, 0.0000000000000000000 ) ) ;
#175 = AXIS2_PLACEMENT_3D ( 'NONE', #316, #61, #110 ) ;
#176 = ORIENTED_EDGE ( 'NONE', *, *, #317, .T. ) ;
#177 = DIRECTION ( 'NONE',  ( -0.0000000000000000000, -0.0000000000000000000, -1.000000000000000000 ) ) ;
#178 = EDGE_CURVE ( 'NONE', #238, #260, #143, .T. ) ;
#179 = FACE_OUTER_BOUND ( 'NONE', #200, .T. ) ;
#180 = DIRECTION ( 'NONE',  ( 1.000000000000000000, 0.0000000000000000000, 0.0000000000000000000 ) ) ;
#181 = EDGE_CURVE ( 'NONE', #135, #364, #356, .T. ) ;
#182 = CONICAL_SURFACE ( 'NONE', #357, 0.04750000000000064587, 0.7853981633974457255 ) ;
#183 = LENGTH_MEASURE_WITH_UNIT ( LENGTH_MEASURE( 0.02539999999999999897 ), #248 );
#184 = DIRECTION ( 'NONE',  ( 0.7071067811865456854, 8.659560562354911904E-17, -0.7071067811865493491 ) ) ;
#185 = DIRECTION ( 'NONE',  ( -0.0000000000000000000, -0.0000000000000000000, -1.000000000000000000 ) ) ;
#186 = LENGTH_MEASURE_WITH_UNIT ( LENGTH_MEASURE( 0.02539999999999999897 ), #358 );
#187 = DIRECTION ( 'NONE',  ( -1.000000000000000000, 0.0000000000000000000, 0.0000000000000000000 ) ) ;
#188 = EDGE_CURVE ( 'NONE', #161, #198, #267, .T. ) ;
#189 = DIRECTION ( 'NONE',  ( 0.0000000000000000000, 0.0000000000000000000, 1.000000000000000000 ) ) ;
#190 = AXIS2_PLACEMENT_3D ( 'NONE', #372, #209, #87 ) ;
#191 = AXIS2_PLACEMENT_3D ( 'NONE', #257, #25, #208 ) ;
#192 = DIRECTION ( 'NONE',  ( -0.0000000000000000000, -0.0000000000000000000, -1.000000000000000000 ) ) ;
#193 = CONICAL_SURFACE ( 'NONE', #190, 0.04750000000000064587, 0.7853981633974457255 ) ;
#194 = DIRECTION ( 'NONE',  ( -0.0000000000000000000, -0.0000000000000000000, -1.000000000000000000 ) ) ;
#195 = ORIENTED_EDGE ( 'NONE', *, *, #349, .F. ) ;
#196 = UNCERTAINTY_MEASURE_WITH_UNIT (LENGTH_MEASURE( 1.000000000000000082E-05 ), #244, 'distance_accuracy_value', 'NONE');
#197 = CARTESIAN_POINT ( 'NONE',  ( 0.0000000000000000000, 0.0000000000000000000, 0.0000000000000000000 ) ) ;
#198 = VERTEX_POINT ( 'NONE', #247 ) ;
#199 = FACE_OUTER_BOUND ( 'NONE', #105, .T. ) ;
#200 = EDGE_LOOP ( 'NONE', ( #231, #237, #176, #78 ) ) ;
#201 = AXIS2_PLACEMENT_3D ( 'NONE', #197, #336, #251 ) ;
#202 = PRESENTATION_LAYER_ASSIGNMENT (  '', '', ( #352 ) ) ;
#203 = ORIENTED_EDGE ( 'NONE', *, *, #181, .T. ) ;
#204 = ORIENTED_EDGE ( 'NONE', *, *, #349, .T. ) ;
#205 = EDGE_CURVE ( 'NONE', #361, #364, #62, .T. ) ;
#206 = PLANE ( 'NONE',  #259 ) ;
#207 = CIRCLE ( 'NONE', #368, 0.04690000000000001806 ) ;
#208 = DIRECTION ( 'NONE',  ( -1.000000000000000000, 0.0000000000000000000, 0.0000000000000000000 ) ) ;
#209 = DIRECTION ( 'NONE',  ( 0.0000000000000000000, 0.0000000000000000000, -1.000000000000000000 ) ) ;
#210 = ORIENTED_EDGE ( 'NONE', *, *, #365, .F. ) ;
#211 = EDGE_CURVE ( 'NONE', #198, #55, #6, .T. ) ;
#212 = ORIENTED_EDGE ( 'NONE', *, *, #23, .F. ) ;
#213 = AXIS2_PLACEMENT_3D ( 'NONE', #222, #192, #119 ) ;
#214 = FILL_AREA_STYLE ('',( #239 ) ) ;
#215 = UNCERTAINTY_MEASURE_WITH_UNIT (LENGTH_MEASURE( 1.000000000000000082E-05 ), #270, 'distance_accuracy_value', 'NONE');
#216 = ADVANCED_BREP_SHAPE_REPRESENTATION ( 'Micro_KC-093-140-040', ( #219, #374 ), #74 ) ;
#217 = DIRECTION ( 'NONE',  ( -1.000000000000000000, 0.0000000000000000000, 0.0000000000000000000 ) ) ;
#218 = FACE_OUTER_BOUND ( 'NONE', #252, .T. ) ;
#219 = MANIFOLD_SOLID_BREP ( 'Cut-Revolve1', #345 ) ;
#220 = CARTESIAN_POINT ( 'NONE',  ( -0.06250000000000000000, 0.0000000000000000000, 1.485000000000000764 ) ) ;
#221 = DIRECTION ( 'NONE',  ( -0.0000000000000000000, -0.0000000000000000000, -1.000000000000000000 ) ) ;
#222 = CARTESIAN_POINT ( 'NONE',  ( 0.0000000000000000000, 0.0000000000000000000, 0.0000000000000000000 ) ) ;
#223 = DIRECTION ( 'NONE',  ( 1.000000000000000000, 0.0000000000000000000, 0.0000000000000000000 ) ) ;
#224 = ADVANCED_FACE ( 'NONE', ( #12 ), #182, .T. ) ;
#225 = DIRECTION ( 'NONE',  ( 0.0000000000000000000, 0.0000000000000000000, 1.000000000000000000 ) ) ;
#226 = CARTESIAN_POINT ( 'NONE',  ( -0.04690000000000001806, 0.0000000000000000000, 0.0000000000000000000 ) ) ;
#227 = EDGE_LOOP ( 'NONE', ( #88, #204, #15, #310 ) ) ;
#228 = LINE ( 'NONE', #226, #346 ) ;
#229 = EDGE_LOOP ( 'NONE', ( #108, #51 ) ) ;
#230 = CYLINDRICAL_SURFACE ( 'NONE', #213, 0.02350000000000001740 ) ;
#231 = ORIENTED_EDGE ( 'NONE', *, *, #129, .F. ) ;
#232 = ORIENTED_EDGE ( 'NONE', *, *, #181, .F. ) ;
#233 = DIMENSIONAL_EXPONENTS ( 1.000000000000000000, 0.0000000000000000000, 0.0000000000000000000, 0.0000000000000000000, 0.0000000000000000000, 0.0000000000000000000, 0.0000000000000000000 ) ;
#234 = CARTESIAN_POINT ( 'NONE',  ( 0.06250000000000000000, 7.654042494670956004E-18, 0.1789999999999997982 ) ) ;
#235 = DIRECTION ( 'NONE',  ( 1.000000000000000000, 0.0000000000000000000, 0.0000000000000000000 ) ) ;
#236 = AXIS2_PLACEMENT_3D ( 'NONE', #325, #152, #223 ) ;
#237 = ORIENTED_EDGE ( 'NONE', *, *, #90, .T. ) ;
#238 = VERTEX_POINT ( 'NONE', #49 ) ;
#239 = FILL_AREA_STYLE_COLOUR ( '', #333 ) ;
#240 = CIRCLE ( 'NONE', #155, 0.04750000000000064587 ) ;
#241 = DIRECTION ( 'NONE',  ( 1.000000000000000000, 0.0000000000000000000, 0.0000000000000000000 ) ) ;
#242 = CARTESIAN_POINT ( 'NONE',  ( 0.0000000000000000000, 0.0000000000000000000, 0.1400000000000000133 ) ) ;
#243 = LINE ( 'NONE', #39, #313 ) ;
#244 =( CONVERSION_BASED_UNIT ( 'INCH', #183 ) LENGTH_UNIT ( ) NAMED_UNIT ( #233 ) );
#245 = VECTOR ( 'NONE', #318, 39.37007874015748143 ) ;
#246 = CARTESIAN_POINT ( 'NONE',  ( 0.0000000000000000000, 0.0000000000000000000, 1.500000000000000222 ) ) ;
#247 = CARTESIAN_POINT ( 'NONE',  ( 0.02350000000000002781, 0.0000000000000000000, 0.1400000000000000133 ) ) ;
#248 =( LENGTH_UNIT ( ) NAMED_UNIT ( * ) SI_UNIT ( $, .METRE. ) );
#249 = DIRECTION ( 'NONE',  ( 1.000000000000000000, 0.0000000000000000000, -0.0000000000000000000 ) ) ;
#250 = CARTESIAN_POINT ( 'NONE',  ( 0.02350000000000001740, 2.877919977996282524E-18, 0.0000000000000000000 ) ) ;
#251 = DIRECTION ( 'NONE',  ( -1.000000000000000000, 0.0000000000000000000, 0.0000000000000000000 ) ) ;
#252 = EDGE_LOOP ( 'NONE', ( #284, #44, #344, #98 ) ) ;
#253 = ADVANCED_FACE ( 'NONE', ( #164 ), #331, .T. ) ;
#254 = EDGE_LOOP ( 'NONE', ( #27, #275, #375, #311 ) ) ;
#255 = VECTOR ( 'NONE', #185, 39.37007874015748143 ) ;
#256 = DIRECTION ( 'NONE',  ( -0.0000000000000000000, -0.0000000000000000000, -1.000000000000000000 ) ) ;
#257 = CARTESIAN_POINT ( 'NONE',  ( 0.0000000000000000000, 0.0000000000000000000, 0.04000000000000000083 ) ) ;
#258 = EDGE_LOOP ( 'NONE', ( #212, #335, #340, #308 ) ) ;
#259 = AXIS2_PLACEMENT_3D ( 'NONE', #144, #262, #169 ) ;
#260 = VERTEX_POINT ( 'NONE', #130 ) ;
#261 = MECHANICAL_DESIGN_GEOMETRIC_PRESENTATION_REPRESENTATION (  '', ( #352 ), #165 ) ;
#262 = DIRECTION ( 'NONE',  ( 0.0000000000000000000, 0.0000000000000000000, 1.000000000000000000 ) ) ;
#263 = FACE_OUTER_BOUND ( 'NONE', #102, .T. ) ;
#264 = EDGE_CURVE ( 'NONE', #75, #104, #100, .T. ) ;
#265 = DIRECTION ( 'NONE',  ( -0.0000000000000000000, -0.0000000000000000000, -1.000000000000000000 ) ) ;
#266 = DIRECTION ( 'NONE',  ( -1.000000000000000000, 0.0000000000000000000, 0.0000000000000000000 ) ) ;
#267 = CIRCLE ( 'NONE', #125, 0.02350000000000002781 ) ;
#268 = CARTESIAN_POINT ( 'NONE',  ( 0.0000000000000000000, 0.0000000000000000000, 0.0000000000000000000 ) ) ;
#269 = PRESENTATION_STYLE_ASSIGNMENT (( #124 ) ) ;
#270 =( CONVERSION_BASED_UNIT ( 'INCH', #67 ) LENGTH_UNIT ( ) NAMED_UNIT ( #287 ) );
#271 = DIRECTION ( 'NONE',  ( 1.000000000000000000, 0.0000000000000000000, 0.0000000000000000000 ) ) ;
#272 = CYLINDRICAL_SURFACE ( 'NONE', #327, 0.06250000000000000000 ) ;
#273 = DIRECTION ( 'NONE',  ( 0.0000000000000000000, 0.0000000000000000000, 1.000000000000000000 ) ) ;
#274 = CARTESIAN_POINT ( 'NONE',  ( 0.0000000000000000000, 0.0000000000000000000, 0.0000000000000000000 ) ) ;
#275 = ORIENTED_EDGE ( 'NONE', *, *, #365, .T. ) ;
#276 = PLANE ( 'NONE',  #373 ) ;
#277 = EDGE_LOOP ( 'NONE', ( #128, #141 ) ) ;
#278 = VERTEX_POINT ( 'NONE', #303 ) ;
#279 = ORIENTED_EDGE ( 'NONE', *, *, #291, .F. ) ;
#280 = DIRECTION ( 'NONE',  ( 1.000000000000000000, 0.0000000000000000000, 0.0000000000000000000 ) ) ;
#281 = VERTEX_POINT ( 'NONE', #73 ) ;
#282 = DIRECTION ( 'NONE',  ( -1.000000000000000000, 0.0000000000000000000, 0.0000000000000000000 ) ) ;
#283 = FACE_OUTER_BOUND ( 'NONE', #258, .T. ) ;
#284 = ORIENTED_EDGE ( 'NONE', *, *, #81, .T. ) ;
#285 = CIRCLE ( 'NONE', #173, 0.02350000000000001046 ) ;
#286 = PRODUCT ( 'Micro_KC-093-140-040', 'Micro_KC-093-140-040', '', ( #341 ) ) ;
#287 = DIMENSIONAL_EXPONENTS ( 1.000000000000000000, 0.0000000000000000000, 0.0000000000000000000, 0.0000000000000000000, 0.0000000000000000000, 0.0000000000000000000, 0.0000000000000000000 ) ;
#288 = VECTOR ( 'NONE', #184, 39.37007874015748143 ) ;
#289 = FACE_BOUND ( 'NONE', #167, .T. ) ;
#290 = CARTESIAN_POINT ( 'NONE',  ( 0.04750000000000064587, 6.735557395310482421E-18, 1.500000000000000222 ) ) ;
#291 = EDGE_CURVE ( 'NONE', #135, #281, #240, .T. ) ;
#292 = CYLINDRICAL_SURFACE ( 'NONE', #150, 0.04690000000000001806 ) ;
#293 = FILL_AREA_STYLE ('',( #296 ) ) ;
#294 = CARTESIAN_POINT ( 'NONE',  ( 0.02350000000000002781, 0.0000000000000000000, 0.1400000000000000133 ) ) ;
#295 = AXIS2_PLACEMENT_3D ( 'NONE', #117, #221, #30 ) ;
#296 = FILL_AREA_STYLE_COLOUR ( '', #53 ) ;
#297 = CARTESIAN_POINT ( 'NONE',  ( 0.0000000000000000000, 0.0000000000000000000, 1.485000000000000764 ) ) ;
#298 = DIRECTION ( 'NONE',  ( 0.0000000000000000000, 0.0000000000000000000, 1.000000000000000000 ) ) ;
#299 = AXIS2_PLACEMENT_3D ( 'NONE', #26, #225, #329 ) ;
#300 = SURFACE_STYLE_USAGE ( .BOTH. , #330 ) ;
#301 = CARTESIAN_POINT ( 'NONE',  ( -0.06250000000000000000, 0.0000000000000000000, 1.500000000000000222 ) ) ;
#302 = ADVANCED_FACE ( 'NONE', ( #199 ), #113, .T. ) ;
#303 = CARTESIAN_POINT ( 'NONE',  ( -0.04690000000000001806, 0.0000000000000000000, 0.04000000000000000083 ) ) ;
#304 = ORIENTED_EDGE ( 'NONE', *, *, #140, .T. ) ;
#305 =( NAMED_UNIT ( * ) SI_UNIT ( $, .STERADIAN. ) SOLID_ANGLE_UNIT ( ) );
#306 = ORIENTED_EDGE ( 'NONE', *, *, #178, .T. ) ;
#307 = MECHANICAL_DESIGN_GEOMETRIC_PRESENTATION_REPRESENTATION (  '', ( #52 ), #2 ) ;
#308 = ORIENTED_EDGE ( 'NONE', *, *, #170, .T. ) ;
#309 = DIRECTION ( 'NONE',  ( 0.0000000000000000000, 0.0000000000000000000, 1.000000000000000000 ) ) ;
#310 = ORIENTED_EDGE ( 'NONE', *, *, #369, .F. ) ;
#311 = ORIENTED_EDGE ( 'NONE', *, *, #264, .F. ) ;
#312 = PRODUCT_DEFINITION_SHAPE ( 'NONE', 'NONE',  #99 ) ;
#313 = VECTOR ( 'NONE', #177, 39.37007874015748143 ) ;
#314 = DIRECTION ( 'NONE',  ( -0.0000000000000000000, -0.0000000000000000000, -1.000000000000000000 ) ) ;
#315 = EDGE_CURVE ( 'NONE', #278, #104, #228, .T. ) ;
#316 = CARTESIAN_POINT ( 'NONE',  ( 0.0000000000000000000, 0.0000000000000000000, 1.500000000000000222 ) ) ;
#317 = EDGE_CURVE ( 'NONE', #361, #159, #127, .T. ) ;
#318 = DIRECTION ( 'NONE',  ( -0.7071067811865456854, 0.0000000000000000000, -0.7071067811865493491 ) ) ;
#319 = PRESENTATION_LAYER_ASSIGNMENT (  '', '', ( #52 ) ) ;
#320 = ORIENTED_EDGE ( 'NONE', *, *, #369, .T. ) ;
#321 = DIMENSIONAL_EXPONENTS ( 1.000000000000000000, 0.0000000000000000000, 0.0000000000000000000, 0.0000000000000000000, 0.0000000000000000000, 0.0000000000000000000, 0.0000000000000000000 ) ;
#322 = DIRECTION ( 'NONE',  ( -1.000000000000000000, 0.0000000000000000000, 0.0000000000000000000 ) ) ;
#323 = DIRECTION ( 'NONE',  ( 0.0000000000000000000, 0.0000000000000000000, -1.000000000000000000 ) ) ;
#324 = CARTESIAN_POINT ( 'NONE',  ( 0.0000000000000000000, 0.0000000000000000000, 0.1789999999999997982 ) ) ;
#325 = CARTESIAN_POINT ( 'NONE',  ( 0.0000000000000000000, 0.0000000000000000000, 1.500000000000000222 ) ) ;
#326 = AXIS2_PLACEMENT_3D ( 'NONE', #362, #273, #43 ) ;
#327 = AXIS2_PLACEMENT_3D ( 'NONE', #246, #265, #217 ) ;
#328 = CARTESIAN_POINT ( 'NONE',  ( 0.0000000000000000000, 0.0000000000000000000, 0.04000000000000000083 ) ) ;
#329 = DIRECTION ( 'NONE',  ( 1.000000000000000000, 0.0000000000000000000, 0.0000000000000000000 ) ) ;
#330 = SURFACE_SIDE_STYLE ('',( #97 ) ) ;
#331 = CYLINDRICAL_SURFACE ( 'NONE', #59, 0.04690000000000001806 ) ;
#332 = ORIENTED_EDGE ( 'NONE', *, *, #90, .F. ) ;
#333 = COLOUR_RGB ( '',0.7921568627450980005, 0.8196078431372548767, 0.9333333333333333481 ) ;
#334 =( NAMED_UNIT ( * ) PLANE_ANGLE_UNIT ( ) SI_UNIT ( $, .RADIAN. ) );
#335 = ORIENTED_EDGE ( 'NONE', *, *, #140, .F. ) ;
#336 = DIRECTION ( 'NONE',  ( -0.0000000000000000000, -0.0000000000000000000, -1.000000000000000000 ) ) ;
#337 = ORIENTED_EDGE ( 'NONE', *, *, #129, .T. ) ;
#338 = ORIENTED_EDGE ( 'NONE', *, *, #81, .F. ) ;
#339 = AXIS2_PLACEMENT_3D ( 'NONE', #68, #120, #64 ) ;
#340 = ORIENTED_EDGE ( 'NONE', *, *, #211, .T. ) ;
#341 = PRODUCT_CONTEXT ( 'NONE', #19, 'mechanical' ) ;
#342 = CARTESIAN_POINT ( 'NONE',  ( 0.04690000000000001806, 5.743593488001088307E-18, 0.0000000000000000000 ) ) ;
#343 = ADVANCED_FACE ( 'NONE', ( #13 ), #276, .F. ) ;
#344 = ORIENTED_EDGE ( 'NONE', *, *, #56, .F. ) ;
#345 = CLOSED_SHELL ( 'NONE', ( #360, #162, #302, #32, #54, #378, #145, #224, #96, #253, #116, #76, #343 ) ) ;
#346 = VECTOR ( 'NONE', #194, 39.37007874015748143 ) ;
#347 = DIRECTION ( 'NONE',  ( -0.7071067811865493491, 8.659560562354955045E-17, 0.7071067811865454633 ) ) ;
#348 = CYLINDRICAL_SURFACE ( 'NONE', #175, 0.06250000000000000000 ) ;
#349 = EDGE_CURVE ( 'NONE', #198, #260, #101, .T. ) ;
#350 = CARTESIAN_POINT ( 'NONE',  ( 0.04690000000000001806, 5.743593488001088307E-18, 0.0000000000000000000 ) ) ;
#351 = CIRCLE ( 'NONE', #191, 0.04690000000000001806 ) ;
#352 = STYLED_ITEM ( 'NONE', ( #355 ), #216 ) ;
#353 = CARTESIAN_POINT ( 'NONE',  ( 0.0000000000000000000, 0.0000000000000000000, 0.1789999999999997982 ) ) ;
#354 = DIRECTION ( 'NONE',  ( -0.0000000000000000000, -0.0000000000000000000, -1.000000000000000000 ) ) ;
#355 = PRESENTATION_STYLE_ASSIGNMENT (( #300 ) ) ;
#356 = LINE ( 'NONE', #126, #288 ) ;
#357 = AXIS2_PLACEMENT_3D ( 'NONE', #122, #41, #160 ) ;
#358 =( LENGTH_UNIT ( ) NAMED_UNIT ( * ) SI_UNIT ( $, .METRE. ) );
#359 =( CONVERSION_BASED_UNIT ( 'INCH', #186 ) LENGTH_UNIT ( ) NAMED_UNIT ( #321 ) );
#360 = ADVANCED_FACE ( 'NONE', ( #103 ), #230, .T. ) ;
#361 = VERTEX_POINT ( 'NONE', #220 ) ;
#362 = CARTESIAN_POINT ( 'NONE',  ( 0.0000000000000000000, 0.0000000000000000000, 0.1400000000000000133 ) ) ;
#363 = DIRECTION ( 'NONE',  ( -0.0000000000000000000, -0.0000000000000000000, -1.000000000000000000 ) ) ;
#364 = VERTEX_POINT ( 'NONE', #11 ) ;
#365 = EDGE_CURVE ( 'NONE', #366, #278, #207, .T. ) ;
#366 = VERTEX_POINT ( 'NONE', #148 ) ;
#367 = ORIENTED_EDGE ( 'NONE', *, *, #205, .T. ) ;
#368 = AXIS2_PLACEMENT_3D ( 'NONE', #328, #123, #187 ) ;
#369 = EDGE_CURVE ( 'NONE', #161, #238, #71, .T. ) ;
#370 = CARTESIAN_POINT ( 'NONE',  ( -0.02350000000000002781, 2.877919977996283294E-18, 0.1400000000000000133 ) ) ;
#371 = CARTESIAN_POINT ( 'NONE',  ( 0.0000000000000000000, 0.0000000000000000000, 1.485000000000000764 ) ) ;
#372 = CARTESIAN_POINT ( 'NONE',  ( 0.0000000000000000000, 0.0000000000000000000, 1.500000000000000222 ) ) ;
#373 = AXIS2_PLACEMENT_3D ( 'NONE', #14, #132, #249 ) ;
#374 = AXIS2_PLACEMENT_3D ( 'NONE', #109, #309, #280 ) ;
#375 = ORIENTED_EDGE ( 'NONE', *, *, #315, .T. ) ;
#376 = EDGE_CURVE ( 'NONE', #159, #55, #33, .T. ) ;
#377 = CARTESIAN_POINT ( 'NONE',  ( 0.0000000000000000000, 0.0000000000000000000, 0.04000000000000000083 ) ) ;
#378 = ADVANCED_FACE ( 'NONE', ( #179 ), #272, .T. ) ;
#379 = DIRECTION ( 'NONE',  ( -1.000000000000000000, 0.0000000000000000000, 0.0000000000000000000 ) ) ;
ENDSEC;
END-ISO-10303-21;
