ISO-10303-21;
HEADER;
FILE_DESCRIPTION (( 'STEP AP214' ),
    '1' );
FILE_NAME ('59596.STEP',
    '2023-07-24T15:13:49',
    ( '' ),
    ( '' ),
    'SwSTEP 2.0',
    'SolidWorks 2023',
    '' );
FILE_SCHEMA (( 'AUTOMOTIVE_DESIGN' ));
ENDSEC;

DATA;
#1 = CARTESIAN_POINT ( 'NONE',  ( 0.000000000000000000, 0.5000000000000000000, 0.000000000000000000 ) ) ;
#2 = EDGE_LOOP ( 'NONE', ( #295, #348, #61, #153 ) ) ;
#3 = DIRECTION ( 'NONE',  ( -5.682149050294907483E-17, 1.000000000000000000, 0.000000000000000000 ) ) ;
#4 = PRODUCT_DEFINITION ( 'UNKNOWN', '', #8, #327 ) ;
#5 = ORIENTED_EDGE ( 'NONE', *, *, #331, .T. ) ;
#6 = SURFACE_STYLE_USAGE ( .BOTH. , #207 ) ;
#7 = VECTOR ( 'NONE', #141, 1000.000000000000000 ) ;
#8 = PRODUCT_DEFINITION_FORMATION_WITH_SPECIFIED_SOURCE ( 'ANY', '', #319, .NOT_KNOWN. ) ;
#9 = DIRECTION ( 'NONE',  ( -5.682149050294907483E-17, 1.000000000000000000, -0.000000000000000000 ) ) ;
#10 = ADVANCED_FACE ( 'NONE', ( #149 ), #200, .T. ) ;
#11 = DIRECTION ( 'NONE',  ( -0.000000000000000000, -1.000000000000000000, -0.000000000000000000 ) ) ;
#12 = DIRECTION ( 'NONE',  ( -0.000000000000000000, -1.000000000000000000, -0.000000000000000000 ) ) ;
#13 = TOROIDAL_SURFACE ( 'NONE', #269, 3.500000000000000000, 0.5000000000000000000 ) ;
#14 = STYLED_ITEM ( 'NONE', ( #213 ), #259 ) ;
#15 = ORIENTED_EDGE ( 'NONE', *, *, #344, .T. ) ;
#16 = LINE ( 'NONE', #83, #7 ) ;
#17 =( NAMED_UNIT ( * ) SI_UNIT ( $, .STERADIAN. ) SOLID_ANGLE_UNIT ( ) );
#18 = FILL_AREA_STYLE ('',( #190 ) ) ;
#19 = UNCERTAINTY_MEASURE_WITH_UNIT (LENGTH_MEASURE( 1.000000000000000082E-05 ), #186, 'distance_accuracy_value', 'NONE');
#20 = CARTESIAN_POINT ( 'NONE',  ( 0.000000000000000000, 16.00000000000000000, 0.000000000000000000 ) ) ;
#21 = MECHANICAL_DESIGN_GEOMETRIC_PRESENTATION_REPRESENTATION (  '', ( #144 ), #112 ) ;
#22 = PRESENTATION_STYLE_ASSIGNMENT (( #301 ) ) ;
#23 = FACE_OUTER_BOUND ( 'NONE', #30, .T. ) ;
#24 =( NAMED_UNIT ( * ) PLANE_ANGLE_UNIT ( ) SI_UNIT ( $, .RADIAN. ) );
#25 = AXIS2_PLACEMENT_3D ( 'NONE', #58, #335, #169 ) ;
#26 = MECHANICAL_DESIGN_GEOMETRIC_PRESENTATION_REPRESENTATION (  '', ( #271 ), #91 ) ;
#27 = SURFACE_SIDE_STYLE ('',( #184 ) ) ;
#28 = ADVANCED_FACE ( 'NONE', ( #235 ), #81, .F. ) ;
#29 = DIRECTION ( 'NONE',  ( 0.000000000000000000, 0.000000000000000000, -1.000000000000000000 ) ) ;
#30 = EDGE_LOOP ( 'NONE', ( #244, #15, #282, #316 ) ) ;
#31 = DIRECTION ( 'NONE',  ( -5.682149050294907483E-17, 1.000000000000000000, -0.000000000000000000 ) ) ;
#32 = ORIENTED_EDGE ( 'NONE', *, *, #261, .F. ) ;
#33 = MECHANICAL_DESIGN_GEOMETRIC_PRESENTATION_REPRESENTATION (  '', ( #97 ), #67 ) ;
#34 = DIRECTION ( 'NONE',  ( 0.000000000000000000, 0.000000000000000000, 1.000000000000000000 ) ) ;
#35 = CIRCLE ( 'NONE', #69, 4.000000000000000000 ) ;
#36 = EDGE_LOOP ( 'NONE', ( #197, #5, #63, #180 ) ) ;
#37 = EDGE_CURVE ( 'NONE', #353, #96, #300, .T. ) ;
#38 = CARTESIAN_POINT ( 'NONE',  ( 0.000000000000000000, 0.000000000000000000, -3.500000000000000000 ) ) ;
#39 = ORIENTED_EDGE ( 'NONE', *, *, #261, .T. ) ;
#40 = COLOUR_RGB ( '',1.000000000000000000, 0.000000000000000000, 0.000000000000000000 ) ;
#41 = VECTOR ( 'NONE', #31, 1000.000000000000000 ) ;
#42 = SURFACE_SIDE_STYLE ('',( #75 ) ) ;
#43 = EDGE_CURVE ( 'NONE', #254, #353, #84, .T. ) ;
#44 = SURFACE_STYLE_USAGE ( .BOTH. , #154 ) ;
#45 =( NAMED_UNIT ( * ) PLANE_ANGLE_UNIT ( ) SI_UNIT ( $, .RADIAN. ) );
#46 = DIRECTION ( 'NONE',  ( -5.682149050294907483E-17, 1.000000000000000000, -0.000000000000000000 ) ) ;
#47 = FILL_AREA_STYLE ('',( #167 ) ) ;
#48 =( NAMED_UNIT ( * ) SI_UNIT ( $, .STERADIAN. ) SOLID_ANGLE_UNIT ( ) );
#49 = SURFACE_SIDE_STYLE ('',( #131 ) ) ;
#50 = MECHANICAL_DESIGN_GEOMETRIC_PRESENTATION_REPRESENTATION (  '', ( #314 ), #351 ) ;
#51 = TOROIDAL_SURFACE ( 'NONE', #278, 3.500000000000000000, 0.5000000000000000000 ) ;
#52 = ORIENTED_EDGE ( 'NONE', *, *, #66, .T. ) ;
#53 = SURFACE_STYLE_USAGE ( .BOTH. , #297 ) ;
#54 = DIRECTION ( 'NONE',  ( -0.000000000000000000, -1.000000000000000000, -0.000000000000000000 ) ) ;
#55 = EDGE_CURVE ( 'NONE', #270, #252, #117, .T. ) ;
#56 = DIRECTION ( 'NONE',  ( 0.000000000000000000, 0.000000000000000000, 1.000000000000000000 ) ) ;
#57 = APPLICATION_PROTOCOL_DEFINITION ( 'draft international standard', 'automotive_design', 1998, #275 ) ;
#58 = CARTESIAN_POINT ( 'NONE',  ( 0.000000000000000000, 0.000000000000000000, 0.000000000000000000 ) ) ;
#59 = AXIS2_PLACEMENT_3D ( 'NONE', #230, #238, #292 ) ;
#60 = EDGE_CURVE ( 'NONE', #346, #185, #211, .T. ) ;
#61 = ORIENTED_EDGE ( 'NONE', *, *, #229, .F. ) ;
#62 = CARTESIAN_POINT ( 'NONE',  ( -3.999999999999991562, 63.00000000000000000, 0.000000000000000000 ) ) ;
#63 = ORIENTED_EDGE ( 'NONE', *, *, #55, .F. ) ;
#64 =( NAMED_UNIT ( * ) PLANE_ANGLE_UNIT ( ) SI_UNIT ( $, .RADIAN. ) );
#65 = ORIENTED_EDGE ( 'NONE', *, *, #37, .F. ) ;
#66 = EDGE_CURVE ( 'NONE', #258, #121, #111, .T. ) ;
#67 =( GEOMETRIC_REPRESENTATION_CONTEXT ( 3 ) GLOBAL_UNCERTAINTY_ASSIGNED_CONTEXT ( ( #334 ) ) GLOBAL_UNIT_ASSIGNED_CONTEXT ( ( #217, #45, #267 ) ) REPRESENTATION_CONTEXT ( 'NONE', 'WORKASPACE' ) );
#68 = SURFACE_STYLE_USAGE ( .BOTH. , #27 ) ;
#69 = AXIS2_PLACEMENT_3D ( 'NONE', #20, #340, #365 ) ;
#70 = ORIENTED_EDGE ( 'NONE', *, *, #344, .F. ) ;
#71 = DIRECTION ( 'NONE',  ( -0.000000000000000000, -1.000000000000000000, -0.000000000000000000 ) ) ;
#72 = PRODUCT_DEFINITION_SHAPE ( 'NONE', 'NONE',  #4 ) ;
#73 = ORIENTED_EDGE ( 'NONE', *, *, #247, .T. ) ;
#74 = PRODUCT_RELATED_PRODUCT_CATEGORY ( 'part', '', ( #319 ) ) ;
#75 = SURFACE_STYLE_FILL_AREA ( #18 ) ;
#76 = CARTESIAN_POINT ( 'NONE',  ( 0.000000000000000000, 0.5000000000000000000, 0.000000000000000000 ) ) ;
#77 = AXIS2_PLACEMENT_3D ( 'NONE', #136, #326, #187 ) ;
#78 = MECHANICAL_DESIGN_GEOMETRIC_PRESENTATION_REPRESENTATION (  '', ( #188 ), #330 ) ;
#79 = FACE_OUTER_BOUND ( 'NONE', #206, .T. ) ;
#80 = FACE_OUTER_BOUND ( 'NONE', #100, .T. ) ;
#81 = PLANE ( 'NONE',  #262 ) ;
#82 = ADVANCED_FACE ( 'NONE', ( #79 ), #13, .T. ) ;
#83 = CARTESIAN_POINT ( 'NONE',  ( 4.898587196589412829E-16, 0.000000000000000000, 4.000000000000000000 ) ) ;
#84 = LINE ( 'NONE', #291, #294 ) ;
#85 = CIRCLE ( 'NONE', #198, 3.999999999999994227 ) ;
#86 =( NAMED_UNIT ( * ) PLANE_ANGLE_UNIT ( ) SI_UNIT ( $, .RADIAN. ) );
#87 = PRESENTATION_STYLE_ASSIGNMENT (( #53 ) ) ;
#88 = ADVANCED_FACE ( 'NONE', ( #354 ), #105, .T. ) ;
#89 = PRESENTATION_LAYER_ASSIGNMENT (  '', '', ( #97 ) ) ;
#90 = VECTOR ( 'NONE', #277, 1000.000000000000000 ) ;
#91 =( GEOMETRIC_REPRESENTATION_CONTEXT ( 3 ) GLOBAL_UNCERTAINTY_ASSIGNED_CONTEXT ( ( #245 ) ) GLOBAL_UNIT_ASSIGNED_CONTEXT ( ( #128, #289, #48 ) ) REPRESENTATION_CONTEXT ( 'NONE', 'WORKASPACE' ) );
#92 = FACE_OUTER_BOUND ( 'NONE', #202, .T. ) ;
#93 = FILL_AREA_STYLE_COLOUR ( '', #329 ) ;
#94 = DIRECTION ( 'NONE',  ( 0.000000000000000000, 0.000000000000000000, -1.000000000000000000 ) ) ;
#95 = EDGE_CURVE ( 'NONE', #346, #270, #362, .T. ) ;
#96 = VERTEX_POINT ( 'NONE', #337 ) ;
#97 = STYLED_ITEM ( 'NONE', ( #164 ), #82 ) ;
#98 = STYLED_ITEM ( 'NONE', ( #87 ), #339 ) ;
#99 = PLANE ( 'NONE',  #352 ) ;
#100 = EDGE_LOOP ( 'NONE', ( #216, #308, #137, #65 ) ) ;
#101 = FACE_OUTER_BOUND ( 'NONE', #2, .T. ) ;
#102 = DIRECTION ( 'NONE',  ( -1.000000000000000000, 0.000000000000000000, 0.000000000000000000 ) ) ;
#103 = DIRECTION ( 'NONE',  ( -1.000000000000000000, 0.000000000000000000, 0.000000000000000000 ) ) ;
#104 = FILL_AREA_STYLE_COLOUR ( '', #150 ) ;
#105 = PLANE ( 'NONE',  #25 ) ;
#106 = ADVANCED_FACE ( 'NONE', ( #249 ), #114, .T. ) ;
#107 = DIRECTION ( 'NONE',  ( 0.000000000000000000, 0.000000000000000000, -1.000000000000000000 ) ) ;
#108 = AXIS2_PLACEMENT_3D ( 'NONE', #321, #12, #323 ) ;
#109 = CIRCLE ( 'NONE', #285, 3.999999999999996447 ) ;
#110 = ADVANCED_FACE ( 'NONE', ( #147 ), #99, .F. ) ;
#111 = CIRCLE ( 'NONE', #156, 3.500000000000000000 ) ;
#112 =( GEOMETRIC_REPRESENTATION_CONTEXT ( 3 ) GLOBAL_UNCERTAINTY_ASSIGNED_CONTEXT ( ( #146 ) ) GLOBAL_UNIT_ASSIGNED_CONTEXT ( ( #231, #64, #309 ) ) REPRESENTATION_CONTEXT ( 'NONE', 'WORKASPACE' ) );
#113 = SURFACE_STYLE_FILL_AREA ( #165 ) ;
#114 = CYLINDRICAL_SURFACE ( 'NONE', #157, 4.000000000000000000 ) ;
#115 = SURFACE_STYLE_USAGE ( .BOTH. , #306 ) ;
#116 = ORIENTED_EDGE ( 'NONE', *, *, #172, .F. ) ;
#117 = CIRCLE ( 'NONE', #143, 4.000000000000000000 ) ;
#118 = COLOUR_RGB ( '',1.000000000000000000, 0.000000000000000000, 0.000000000000000000 ) ;
#119 = ADVANCED_FACE ( 'NONE', ( #92 ), #145, .T. ) ;
#120 = DIRECTION ( 'NONE',  ( -1.000000000000000000, 0.000000000000000000, 0.000000000000000000 ) ) ;
#121 = VERTEX_POINT ( 'NONE', #38 ) ;
#122 = DIRECTION ( 'NONE',  ( -5.682149050294907483E-17, 1.000000000000000000, -0.000000000000000000 ) ) ;
#123 = SURFACE_STYLE_USAGE ( .BOTH. , #288 ) ;
#124 = DIRECTION ( 'NONE',  ( -5.682149050294907483E-17, 1.000000000000000000, -0.000000000000000000 ) ) ;
#125 = EDGE_LOOP ( 'NONE', ( #203, #70 ) ) ;
#126 = CLOSED_SHELL ( 'NONE', ( #119, #110, #293, #28 ) ) ;
#127 = COLOUR_RGB ( '',0.7921568627450980005, 0.8196078431372548767, 0.9333333333333333481 ) ;
#128 =( LENGTH_UNIT ( ) NAMED_UNIT ( * ) SI_UNIT ( .MILLI., .METRE. ) );
#129 = EDGE_CURVE ( 'NONE', #287, #96, #199, .T. ) ;
#130 = FILL_AREA_STYLE ('',( #265 ) ) ;
#131 = SURFACE_STYLE_FILL_AREA ( #47 ) ;
#132 =( NAMED_UNIT ( * ) SI_UNIT ( $, .STERADIAN. ) SOLID_ANGLE_UNIT ( ) );
#133 = DIRECTION ( 'NONE',  ( -0.000000000000000000, -1.000000000000000000, -0.000000000000000000 ) ) ;
#134 = AXIS2_PLACEMENT_3D ( 'NONE', #148, #317, #34 ) ;
#135 = DIRECTION ( 'NONE',  ( -0.000000000000000000, -1.000000000000000000, -0.000000000000000000 ) ) ;
#136 = CARTESIAN_POINT ( 'NONE',  ( 3.184081677783117402E-15, 63.00000000000000000, 0.000000000000000000 ) ) ;
#137 = ORIENTED_EDGE ( 'NONE', *, *, #129, .T. ) ;
#138 =( LENGTH_UNIT ( ) NAMED_UNIT ( * ) SI_UNIT ( .MILLI., .METRE. ) );
#139 =( LENGTH_UNIT ( ) NAMED_UNIT ( * ) SI_UNIT ( .MILLI., .METRE. ) );
#140 = STYLED_ITEM ( 'NONE', ( #152 ), #10 ) ;
#141 = DIRECTION ( 'NONE',  ( -0.000000000000000000, -1.000000000000000000, -0.000000000000000000 ) ) ;
#142 =( NAMED_UNIT ( * ) SI_UNIT ( $, .STERADIAN. ) SOLID_ANGLE_UNIT ( ) );
#143 = AXIS2_PLACEMENT_3D ( 'NONE', #268, #133, #158 ) ;
#144 = STYLED_ITEM ( 'NONE', ( #205 ), #106 ) ;
#145 = CYLINDRICAL_SURFACE ( 'NONE', #307, 3.999999999999994671 ) ;
#146 = UNCERTAINTY_MEASURE_WITH_UNIT (LENGTH_MEASURE( 1.000000000000000082E-05 ), #231, 'distance_accuracy_value', 'NONE');
#147 = FACE_OUTER_BOUND ( 'NONE', #242, .T. ) ;
#148 = CARTESIAN_POINT ( 'NONE',  ( 0.000000000000000000, 0.5000000000000000000, -3.500000000000000000 ) ) ;
#149 = FACE_OUTER_BOUND ( 'NONE', #125, .T. ) ;
#150 = COLOUR_RGB ( '',0.7921568627450980005, 0.8196078431372548767, 0.9333333333333333481 ) ;
#151 = CARTESIAN_POINT ( 'NONE',  ( 5.854691731421723944E-15, 16.00000000000000000, 0.000000000000000000 ) ) ;
#152 = PRESENTATION_STYLE_ASSIGNMENT (( #123 ) ) ;
#153 = ORIENTED_EDGE ( 'NONE', *, *, #175, .F. ) ;
#154 = SURFACE_SIDE_STYLE ('',( #214 ) ) ;
#155 = ORIENTED_EDGE ( 'NONE', *, *, #129, .F. ) ;
#156 = AXIS2_PLACEMENT_3D ( 'NONE', #189, #11, #360 ) ;
#157 = AXIS2_PLACEMENT_3D ( 'NONE', #311, #279, #29 ) ;
#158 = DIRECTION ( 'NONE',  ( 0.000000000000000000, 0.000000000000000000, -1.000000000000000000 ) ) ;
#159 = APPLICATION_CONTEXT ( 'automotive_design' ) ;
#160 = DIRECTION ( 'NONE',  ( 5.682149050294907483E-17, -1.000000000000000000, 0.000000000000000000 ) ) ;
#161 = ORIENTED_EDGE ( 'NONE', *, *, #204, .F. ) ;
#162 = PRESENTATION_LAYER_ASSIGNMENT (  '', '', ( #314 ) ) ;
#163 =( GEOMETRIC_REPRESENTATION_CONTEXT ( 3 ) GLOBAL_UNCERTAINTY_ASSIGNED_CONTEXT ( ( #19 ) ) GLOBAL_UNIT_ASSIGNED_CONTEXT ( ( #186, #320, #132 ) ) REPRESENTATION_CONTEXT ( 'NONE', 'WORKASPACE' ) );
#164 = PRESENTATION_STYLE_ASSIGNMENT (( #236 ) ) ;
#165 = FILL_AREA_STYLE ('',( #168 ) ) ;
#166 = EDGE_CURVE ( 'NONE', #252, #258, #181, .T. ) ;
#167 = FILL_AREA_STYLE_COLOUR ( '', #274 ) ;
#168 = FILL_AREA_STYLE_COLOUR ( '', #357 ) ;
#169 = DIRECTION ( 'NONE',  ( 0.000000000000000000, 0.000000000000000000, -1.000000000000000000 ) ) ;
#170 =( GEOMETRIC_REPRESENTATION_CONTEXT ( 3 ) GLOBAL_UNCERTAINTY_ASSIGNED_CONTEXT ( ( #248 ) ) GLOBAL_UNIT_ASSIGNED_CONTEXT ( ( #138, #86, #195 ) ) REPRESENTATION_CONTEXT ( 'NONE', 'WORKASPACE' ) );
#171 = CYLINDRICAL_SURFACE ( 'NONE', #233, 4.000000000000000000 ) ;
#172 = EDGE_CURVE ( 'NONE', #96, #353, #109, .T. ) ;
#173 = SHAPE_DEFINITION_REPRESENTATION ( #72, #239 ) ;
#174 = UNCERTAINTY_MEASURE_WITH_UNIT (LENGTH_MEASURE( 1.000000000000000082E-05 ), #225, 'distance_accuracy_value', 'NONE');
#175 = EDGE_CURVE ( 'NONE', #270, #121, #361, .T. ) ;
#176 = EDGE_LOOP ( 'NONE', ( #227, #52 ) ) ;
#177 = DIRECTION ( 'NONE',  ( 1.000000000000000000, 0.000000000000000000, -1.224646799147353207E-16 ) ) ;
#178 = ORIENTED_EDGE ( 'NONE', *, *, #166, .F. ) ;
#179 = DIRECTION ( 'NONE',  ( -1.000000000000000000, 0.000000000000000000, 0.000000000000000000 ) ) ;
#180 = ORIENTED_EDGE ( 'NONE', *, *, #95, .F. ) ;
#181 = CIRCLE ( 'NONE', #250, 0.5000000000000000000 ) ;
#182 = PRESENTATION_STYLE_ASSIGNMENT (( #68 ) ) ;
#183 = EDGE_LOOP ( 'NONE', ( #370, #367 ) ) ;
#184 = SURFACE_STYLE_FILL_AREA ( #313 ) ;
#185 = VERTEX_POINT ( 'NONE', #253 ) ;
#186 =( LENGTH_UNIT ( ) NAMED_UNIT ( * ) SI_UNIT ( .MILLI., .METRE. ) );
#187 = DIRECTION ( 'NONE',  ( -1.000000000000000000, 0.000000000000000000, 0.000000000000000000 ) ) ;
#188 = STYLED_ITEM ( 'NONE', ( #182 ), #256 ) ;
#189 = CARTESIAN_POINT ( 'NONE',  ( 0.000000000000000000, 0.000000000000000000, 0.000000000000000000 ) ) ;
#190 = FILL_AREA_STYLE_COLOUR ( '', #40 ) ;
#191 = UNCERTAINTY_MEASURE_WITH_UNIT (LENGTH_MEASURE( 1.000000000000000082E-05 ), #139, 'distance_accuracy_value', 'NONE');
#192 = PRODUCT_CONTEXT ( 'NONE', #159, 'mechanical' ) ;
#193 = CLOSED_SHELL ( 'NONE', ( #106, #303, #88, #82, #339, #10 ) ) ;
#194 = PRESENTATION_LAYER_ASSIGNMENT (  '', '', ( #188 ) ) ;
#195 =( NAMED_UNIT ( * ) SI_UNIT ( $, .STERADIAN. ) SOLID_ANGLE_UNIT ( ) );
#196 = DIRECTION ( 'NONE',  ( -1.224646799147353454E-16, 0.000000000000000000, -1.000000000000000000 ) ) ;
#197 = ORIENTED_EDGE ( 'NONE', *, *, #60, .T. ) ;
#198 = AXIS2_PLACEMENT_3D ( 'NONE', #151, #368, #120 ) ;
#199 = LINE ( 'NONE', #62, #41 ) ;
#200 = PLANE ( 'NONE',  #59 ) ;
#201 = FILL_AREA_STYLE_COLOUR ( '', #127 ) ;
#202 = EDGE_LOOP ( 'NONE', ( #39, #310, #116, #155 ) ) ;
#203 = ORIENTED_EDGE ( 'NONE', *, *, #60, .F. ) ;
#204 = EDGE_CURVE ( 'NONE', #254, #287, #85, .T. ) ;
#205 = PRESENTATION_STYLE_ASSIGNMENT (( #115 ) ) ;
#206 = EDGE_LOOP ( 'NONE', ( #178, #73, #280, #312 ) ) ;
#207 = SURFACE_SIDE_STYLE ('',( #209 ) ) ;
#208 = CARTESIAN_POINT ( 'NONE',  ( 4.000000000000000000, 63.00000000000000000, 0.000000000000000000 ) ) ;
#209 = SURFACE_STYLE_FILL_AREA ( #130 ) ;
#210 = DIRECTION ( 'NONE',  ( 1.000000000000000000, 5.682149050294907483E-17, 0.000000000000000000 ) ) ;
#211 = CIRCLE ( 'NONE', #108, 4.000000000000000000 ) ;
#212 = AXIS2_PLACEMENT_3D ( 'NONE', #1, #226, #94 ) ;
#213 = PRESENTATION_STYLE_ASSIGNMENT (( #44 ) ) ;
#214 = SURFACE_STYLE_FILL_AREA ( #324 ) ;
#215 = DIRECTION ( 'NONE',  ( 0.000000000000000000, 0.000000000000000000, -1.000000000000000000 ) ) ;
#216 = ORIENTED_EDGE ( 'NONE', *, *, #43, .F. ) ;
#217 =( LENGTH_UNIT ( ) NAMED_UNIT ( * ) SI_UNIT ( .MILLI., .METRE. ) );
#218 =( GEOMETRIC_REPRESENTATION_CONTEXT ( 3 ) GLOBAL_UNCERTAINTY_ASSIGNED_CONTEXT ( ( #304 ) ) GLOBAL_UNIT_ASSIGNED_CONTEXT ( ( #350, #260, #343 ) ) REPRESENTATION_CONTEXT ( 'NONE', 'WORKASPACE' ) );
#219 = MECHANICAL_DESIGN_GEOMETRIC_PRESENTATION_REPRESENTATION (  '', ( #98 ), #170 ) ;
#220 =( LENGTH_UNIT ( ) NAMED_UNIT ( * ) SI_UNIT ( .MILLI., .METRE. ) );
#221 = CARTESIAN_POINT ( 'NONE',  ( 0.000000000000000000, 0.000000000000000000, 0.000000000000000000 ) ) ;
#222 = CARTESIAN_POINT ( 'NONE',  ( 0.000000000000000000, 0.000000000000000000, -4.000000000000000000 ) ) ;
#223 = AXIS2_PLACEMENT_3D ( 'NONE', #355, #46, #103 ) ;
#224 = FILL_AREA_STYLE_COLOUR ( '', #290 ) ;
#225 =( LENGTH_UNIT ( ) NAMED_UNIT ( * ) SI_UNIT ( .MILLI., .METRE. ) );
#226 = DIRECTION ( 'NONE',  ( -0.000000000000000000, -1.000000000000000000, -0.000000000000000000 ) ) ;
#227 = ORIENTED_EDGE ( 'NONE', *, *, #229, .T. ) ;
#228 = CARTESIAN_POINT ( 'NONE',  ( 4.898587196589412829E-16, 0.5000000000000000000, 4.000000000000000000 ) ) ;
#229 = EDGE_CURVE ( 'NONE', #121, #258, #232, .T. ) ;
#230 = CARTESIAN_POINT ( 'NONE',  ( 0.000000000000000000, 16.00000000000000000, 0.000000000000000000 ) ) ;
#231 =( LENGTH_UNIT ( ) NAMED_UNIT ( * ) SI_UNIT ( .MILLI., .METRE. ) );
#232 = CIRCLE ( 'NONE', #263, 3.500000000000000000 ) ;
#233 = AXIS2_PLACEMENT_3D ( 'NONE', #221, #299, #107 ) ;
#234 = CARTESIAN_POINT ( 'NONE',  ( 4.592425496802573972E-16, 0.000000000000000000, 3.500000000000000000 ) ) ;
#235 = FACE_OUTER_BOUND ( 'NONE', #183, .T. ) ;
#236 = SURFACE_STYLE_USAGE ( .BOTH. , #49 ) ;
#237 = CYLINDRICAL_SURFACE ( 'NONE', #223, 3.999999999999994671 ) ;
#238 = DIRECTION ( 'NONE',  ( 0.000000000000000000, 1.000000000000000000, 0.000000000000000000 ) ) ;
#239 = ADVANCED_BREP_SHAPE_REPRESENTATION ( '59596', ( #259, #256, #332 ), #264 ) ;
#240 = PRESENTATION_LAYER_ASSIGNMENT (  '', '', ( #98 ) ) ;
#241 = CARTESIAN_POINT ( 'NONE',  ( -3.999999999999988010, 16.00000000000000000, 0.000000000000000000 ) ) ;
#242 = EDGE_LOOP ( 'NONE', ( #32, #161 ) ) ;
#243 = DIRECTION ( 'NONE',  ( -5.682149050294907483E-17, 1.000000000000000000, -0.000000000000000000 ) ) ;
#244 = ORIENTED_EDGE ( 'NONE', *, *, #331, .F. ) ;
#245 = UNCERTAINTY_MEASURE_WITH_UNIT (LENGTH_MEASURE( 1.000000000000000082E-05 ), #128, 'distance_accuracy_value', 'NONE');
#246 = MECHANICAL_DESIGN_GEOMETRIC_PRESENTATION_REPRESENTATION (  '', ( #14 ), #163 ) ;
#247 = EDGE_CURVE ( 'NONE', #252, #270, #369, .T. ) ;
#248 = UNCERTAINTY_MEASURE_WITH_UNIT (LENGTH_MEASURE( 1.000000000000000082E-05 ), #138, 'distance_accuracy_value', 'NONE');
#249 = FACE_OUTER_BOUND ( 'NONE', #36, .T. ) ;
#250 = AXIS2_PLACEMENT_3D ( 'NONE', #251, #177, #196 ) ;
#251 = CARTESIAN_POINT ( 'NONE',  ( 4.286263797015736595E-16, 0.5000000000000000000, 3.500000000000000000 ) ) ;
#252 = VERTEX_POINT ( 'NONE', #228 ) ;
#253 = CARTESIAN_POINT ( 'NONE',  ( 4.898587196589412829E-16, 16.00000000000000000, 4.000000000000000000 ) ) ;
#254 = VERTEX_POINT ( 'NONE', #349 ) ;
#255 = CIRCLE ( 'NONE', #364, 3.999999999999994227 ) ;
#256 = MANIFOLD_SOLID_BREP ( 'Revolve - Tool Body (Straight Shanked)', #126 ) ;
#257 = CARTESIAN_POINT ( 'NONE',  ( 0.000000000000000000, 0.000000000000000000, 0.000000000000000000 ) ) ;
#258 = VERTEX_POINT ( 'NONE', #234 ) ;
#259 = MANIFOLD_SOLID_BREP ( 'Revolve - Cutting Edge', #193 ) ;
#260 =( NAMED_UNIT ( * ) PLANE_ANGLE_UNIT ( ) SI_UNIT ( $, .RADIAN. ) );
#261 = EDGE_CURVE ( 'NONE', #287, #254, #255, .T. ) ;
#262 = AXIS2_PLACEMENT_3D ( 'NONE', #208, #160, #210 ) ;
#263 = AXIS2_PLACEMENT_3D ( 'NONE', #257, #71, #366 ) ;
#264 =( GEOMETRIC_REPRESENTATION_CONTEXT ( 3 ) GLOBAL_UNCERTAINTY_ASSIGNED_CONTEXT ( ( #272 ) ) GLOBAL_UNIT_ASSIGNED_CONTEXT ( ( #220, #333, #17 ) ) REPRESENTATION_CONTEXT ( 'NONE', 'WORKASPACE' ) );
#265 = FILL_AREA_STYLE_COLOUR ( '', #118 ) ;
#266 = CARTESIAN_POINT ( 'NONE',  ( 5.854691731421723944E-15, 16.00000000000000000, 0.000000000000000000 ) ) ;
#267 =( NAMED_UNIT ( * ) SI_UNIT ( $, .STERADIAN. ) SOLID_ANGLE_UNIT ( ) );
#268 = CARTESIAN_POINT ( 'NONE',  ( 0.000000000000000000, 0.5000000000000000000, 0.000000000000000000 ) ) ;
#269 = AXIS2_PLACEMENT_3D ( 'NONE', #298, #54, #215 ) ;
#270 = VERTEX_POINT ( 'NONE', #322 ) ;
#271 = STYLED_ITEM ( 'NONE', ( #359 ), #303 ) ;
#272 = UNCERTAINTY_MEASURE_WITH_UNIT (LENGTH_MEASURE( 1.000000000000000082E-05 ), #220, 'distance_accuracy_value', 'NONE');
#273 = CARTESIAN_POINT ( 'NONE',  ( 4.000000000000000000, 63.00000000000000000, 4.898587196589407898E-16 ) ) ;
#274 = COLOUR_RGB ( '',1.000000000000000000, 0.000000000000000000, 0.000000000000000000 ) ;
#275 = APPLICATION_CONTEXT ( 'automotive_design' ) ;
#276 = DIRECTION ( 'NONE',  ( 1.000000000000000000, 0.000000000000000000, 0.000000000000000000 ) ) ;
#277 = DIRECTION ( 'NONE',  ( -0.000000000000000000, -1.000000000000000000, -0.000000000000000000 ) ) ;
#278 = AXIS2_PLACEMENT_3D ( 'NONE', #76, #135, #328 ) ;
#279 = DIRECTION ( 'NONE',  ( -0.000000000000000000, -1.000000000000000000, -0.000000000000000000 ) ) ;
#280 = ORIENTED_EDGE ( 'NONE', *, *, #175, .T. ) ;
#281 = CARTESIAN_POINT ( 'NONE',  ( 3.184081677783117402E-15, 63.00000000000000000, 0.000000000000000000 ) ) ;
#282 = ORIENTED_EDGE ( 'NONE', *, *, #95, .T. ) ;
#283 = DIRECTION ( 'NONE',  ( -1.000000000000000000, 0.000000000000000000, 0.000000000000000000 ) ) ;
#284 = FILL_AREA_STYLE ('',( #93 ) ) ;
#285 = AXIS2_PLACEMENT_3D ( 'NONE', #281, #124, #283 ) ;
#286 = DIRECTION ( 'NONE',  ( -1.000000000000000000, -5.682149050294907483E-17, 0.000000000000000000 ) ) ;
#287 = VERTEX_POINT ( 'NONE', #241 ) ;
#288 = SURFACE_SIDE_STYLE ('',( #318 ) ) ;
#289 =( NAMED_UNIT ( * ) PLANE_ANGLE_UNIT ( ) SI_UNIT ( $, .RADIAN. ) );
#290 = COLOUR_RGB ( '',1.000000000000000000, 0.000000000000000000, 0.000000000000000000 ) ;
#291 = CARTESIAN_POINT ( 'NONE',  ( 3.999999999999998224, 63.00000000000000000, 4.898587196589406912E-16 ) ) ;
#292 = DIRECTION ( 'NONE',  ( 0.000000000000000000, -0.000000000000000000, 1.000000000000000000 ) ) ;
#293 = ADVANCED_FACE ( 'NONE', ( #80 ), #237, .T. ) ;
#294 = VECTOR ( 'NONE', #9, 1000.000000000000000 ) ;
#295 = ORIENTED_EDGE ( 'NONE', *, *, #55, .T. ) ;
#296 = PRESENTATION_LAYER_ASSIGNMENT (  '', '', ( #14 ) ) ;
#297 = SURFACE_SIDE_STYLE ('',( #113 ) ) ;
#298 = CARTESIAN_POINT ( 'NONE',  ( 0.000000000000000000, 0.5000000000000000000, 0.000000000000000000 ) ) ;
#299 = DIRECTION ( 'NONE',  ( -0.000000000000000000, -1.000000000000000000, -0.000000000000000000 ) ) ;
#300 = CIRCLE ( 'NONE', #77, 3.999999999999996447 ) ;
#301 = SURFACE_STYLE_USAGE ( .BOTH. , #42 ) ;
#302 = CARTESIAN_POINT ( 'NONE',  ( 0.000000000000000000, 16.00000000000000000, -4.000000000000000000 ) ) ;
#303 = ADVANCED_FACE ( 'NONE', ( #101 ), #51, .T. ) ;
#304 = UNCERTAINTY_MEASURE_WITH_UNIT (LENGTH_MEASURE( 1.000000000000000082E-05 ), #350, 'distance_accuracy_value', 'NONE');
#305 = SURFACE_STYLE_FILL_AREA ( #341 ) ;
#306 = SURFACE_SIDE_STYLE ('',( #305 ) ) ;
#307 = AXIS2_PLACEMENT_3D ( 'NONE', #342, #122, #179 ) ;
#308 = ORIENTED_EDGE ( 'NONE', *, *, #204, .T. ) ;
#309 =( NAMED_UNIT ( * ) SI_UNIT ( $, .STERADIAN. ) SOLID_ANGLE_UNIT ( ) );
#310 = ORIENTED_EDGE ( 'NONE', *, *, #43, .T. ) ;
#311 = CARTESIAN_POINT ( 'NONE',  ( 0.000000000000000000, 0.000000000000000000, 0.000000000000000000 ) ) ;
#312 = ORIENTED_EDGE ( 'NONE', *, *, #66, .F. ) ;
#313 = FILL_AREA_STYLE ('',( #201 ) ) ;
#314 = STYLED_ITEM ( 'NONE', ( #22 ), #88 ) ;
#315 = PRESENTATION_LAYER_ASSIGNMENT (  '', '', ( #144 ) ) ;
#316 = ORIENTED_EDGE ( 'NONE', *, *, #247, .F. ) ;
#317 = DIRECTION ( 'NONE',  ( -1.000000000000000000, 0.000000000000000000, 0.000000000000000000 ) ) ;
#318 = SURFACE_STYLE_FILL_AREA ( #284 ) ;
#319 = PRODUCT ( '59596', '59596', '', ( #192 ) ) ;
#320 =( NAMED_UNIT ( * ) PLANE_ANGLE_UNIT ( ) SI_UNIT ( $, .RADIAN. ) );
#321 = CARTESIAN_POINT ( 'NONE',  ( 0.000000000000000000, 16.00000000000000000, 0.000000000000000000 ) ) ;
#322 = CARTESIAN_POINT ( 'NONE',  ( 0.000000000000000000, 0.5000000000000000000, -4.000000000000000000 ) ) ;
#323 = DIRECTION ( 'NONE',  ( 0.000000000000000000, 0.000000000000000000, -1.000000000000000000 ) ) ;
#324 = FILL_AREA_STYLE ('',( #104 ) ) ;
#325 =( NAMED_UNIT ( * ) PLANE_ANGLE_UNIT ( ) SI_UNIT ( $, .RADIAN. ) );
#326 = DIRECTION ( 'NONE',  ( -5.682149050294907483E-17, 1.000000000000000000, -0.000000000000000000 ) ) ;
#327 = PRODUCT_DEFINITION_CONTEXT ( 'detailed design', #275, 'design' ) ;
#328 = DIRECTION ( 'NONE',  ( 0.000000000000000000, 0.000000000000000000, -1.000000000000000000 ) ) ;
#329 = COLOUR_RGB ( '',1.000000000000000000, 0.000000000000000000, 0.000000000000000000 ) ;
#330 =( GEOMETRIC_REPRESENTATION_CONTEXT ( 3 ) GLOBAL_UNCERTAINTY_ASSIGNED_CONTEXT ( ( #174 ) ) GLOBAL_UNIT_ASSIGNED_CONTEXT ( ( #225, #325, #358 ) ) REPRESENTATION_CONTEXT ( 'NONE', 'WORKASPACE' ) );
#331 = EDGE_CURVE ( 'NONE', #185, #252, #16, .T. ) ;
#332 = AXIS2_PLACEMENT_3D ( 'NONE', #336, #56, #276 ) ;
#333 =( NAMED_UNIT ( * ) PLANE_ANGLE_UNIT ( ) SI_UNIT ( $, .RADIAN. ) );
#334 = UNCERTAINTY_MEASURE_WITH_UNIT (LENGTH_MEASURE( 1.000000000000000082E-05 ), #217, 'distance_accuracy_value', 'NONE');
#335 = DIRECTION ( 'NONE',  ( 0.000000000000000000, -1.000000000000000000, -0.000000000000000000 ) ) ;
#336 = CARTESIAN_POINT ( 'NONE',  ( 0.000000000000000000, 0.000000000000000000, 0.000000000000000000 ) ) ;
#337 = CARTESIAN_POINT ( 'NONE',  ( -3.999999999999993339, 63.00000000000000000, 0.000000000000000000 ) ) ;
#338 = PRESENTATION_LAYER_ASSIGNMENT (  '', '', ( #271 ) ) ;
#339 = ADVANCED_FACE ( 'NONE', ( #23 ), #171, .T. ) ;
#340 = DIRECTION ( 'NONE',  ( -0.000000000000000000, -1.000000000000000000, -0.000000000000000000 ) ) ;
#341 = FILL_AREA_STYLE ('',( #224 ) ) ;
#342 = CARTESIAN_POINT ( 'NONE',  ( 3.184081677783117402E-15, 63.00000000000000000, 0.000000000000000000 ) ) ;
#343 =( NAMED_UNIT ( * ) SI_UNIT ( $, .STERADIAN. ) SOLID_ANGLE_UNIT ( ) );
#344 = EDGE_CURVE ( 'NONE', #185, #346, #35, .T. ) ;
#345 = MECHANICAL_DESIGN_GEOMETRIC_PRESENTATION_REPRESENTATION (  '', ( #140 ), #218 ) ;
#346 = VERTEX_POINT ( 'NONE', #302 ) ;
#347 = CARTESIAN_POINT ( 'NONE',  ( 5.854691731421723944E-15, 16.00000000000000000, 0.000000000000000000 ) ) ;
#348 = ORIENTED_EDGE ( 'NONE', *, *, #166, .T. ) ;
#349 = CARTESIAN_POINT ( 'NONE',  ( 4.000000000000000000, 16.00000000000000000, 4.898587196589407898E-16 ) ) ;
#350 =( LENGTH_UNIT ( ) NAMED_UNIT ( * ) SI_UNIT ( .MILLI., .METRE. ) );
#351 =( GEOMETRIC_REPRESENTATION_CONTEXT ( 3 ) GLOBAL_UNCERTAINTY_ASSIGNED_CONTEXT ( ( #191 ) ) GLOBAL_UNIT_ASSIGNED_CONTEXT ( ( #139, #24, #142 ) ) REPRESENTATION_CONTEXT ( 'NONE', 'WORKASPACE' ) );
#352 = AXIS2_PLACEMENT_3D ( 'NONE', #347, #3, #286 ) ;
#353 = VERTEX_POINT ( 'NONE', #273 ) ;
#354 = FACE_OUTER_BOUND ( 'NONE', #176, .T. ) ;
#355 = CARTESIAN_POINT ( 'NONE',  ( 3.184081677783117402E-15, 63.00000000000000000, 0.000000000000000000 ) ) ;
#356 = PRESENTATION_LAYER_ASSIGNMENT (  '', '', ( #140 ) ) ;
#357 = COLOUR_RGB ( '',1.000000000000000000, 0.000000000000000000, 0.000000000000000000 ) ;
#358 =( NAMED_UNIT ( * ) SI_UNIT ( $, .STERADIAN. ) SOLID_ANGLE_UNIT ( ) );
#359 = PRESENTATION_STYLE_ASSIGNMENT (( #6 ) ) ;
#360 = DIRECTION ( 'NONE',  ( 0.000000000000000000, 0.000000000000000000, -1.000000000000000000 ) ) ;
#361 = CIRCLE ( 'NONE', #134, 0.5000000000000000000 ) ;
#362 = LINE ( 'NONE', #222, #90 ) ;
#363 = APPLICATION_PROTOCOL_DEFINITION ( 'draft international standard', 'automotive_design', 1998, #159 ) ;
#364 = AXIS2_PLACEMENT_3D ( 'NONE', #266, #243, #102 ) ;
#365 = DIRECTION ( 'NONE',  ( 0.000000000000000000, 0.000000000000000000, -1.000000000000000000 ) ) ;
#366 = DIRECTION ( 'NONE',  ( 0.000000000000000000, 0.000000000000000000, -1.000000000000000000 ) ) ;
#367 = ORIENTED_EDGE ( 'NONE', *, *, #37, .T. ) ;
#368 = DIRECTION ( 'NONE',  ( -5.682149050294907483E-17, 1.000000000000000000, -0.000000000000000000 ) ) ;
#369 = CIRCLE ( 'NONE', #212, 4.000000000000000000 ) ;
#370 = ORIENTED_EDGE ( 'NONE', *, *, #172, .T. ) ;
ENDSEC;
END-ISO-10303-21;
