ISO-10303-21;
HEADER;
FILE_DESCRIPTION (( 'STEP AP214' ),
    '1' );
FILE_NAME ('Micro_SD-093.STEP',
    '2021-09-02T13:22:52',
    ( '' ),
    ( '' ),
    'SwSTEP 2.0',
    'SolidWorks 2020',
    '' );
FILE_SCHEMA (( 'AUTOMOTIVE_DESIGN' ));
ENDSEC;

DATA;
#1 = ORIENTED_EDGE ( 'NONE', *, *, #22, .T. ) ;
#2 = FACE_OUTER_BOUND ( 'NONE', #53, .T. ) ;
#3 = ORIENTED_EDGE ( 'NONE', *, *, #127, .T. ) ;
#4 = CARTESIAN_POINT ( 'NONE',  ( -0.04680000000000003602, 0.0000000000000000000, 0.0000000000000000000 ) ) ;
#5 = CIRCLE ( 'NONE', #157, 0.04689999999999999725 ) ;
#6 =( NAMED_UNIT ( * ) PLANE_ANGLE_UNIT ( ) SI_UNIT ( $, .RADIAN. ) );
#7 = LINE ( 'NONE', #109, #302 ) ;
#8 = CIRCLE ( 'NONE', #208, 0.04680000000000001520 ) ;
#9 = EDGE_CURVE ( 'NONE', #165, #312, #212, .T. ) ;
#10 = ORIENTED_EDGE ( 'NONE', *, *, #162, .F. ) ;
#11 = ORIENTED_EDGE ( 'NONE', *, *, #44, .F. ) ;
#12 = VERTEX_POINT ( 'NONE', #152 ) ;
#13 =( GEOMETRIC_REPRESENTATION_CONTEXT ( 3 ) GLOBAL_UNCERTAINTY_ASSIGNED_CONTEXT ( ( #63 ) ) GLOBAL_UNIT_ASSIGNED_CONTEXT ( ( #310, #304, #57 ) ) REPRESENTATION_CONTEXT ( 'NONE', 'WORKASPACE' ) );
#14 = CARTESIAN_POINT ( 'NONE',  ( 0.0000000000000000000, 0.0000000000000000000, 1.485000000000000986 ) ) ;
#15 = CARTESIAN_POINT ( 'NONE',  ( 0.0000000000000000000, 0.0000000000000000000, 1.500000000000000222 ) ) ;
#16 = LINE ( 'NONE', #160, #276 ) ;
#17 = AXIS2_PLACEMENT_3D ( 'NONE', #309, #314, #176 ) ;
#18 = EDGE_CURVE ( 'NONE', #12, #30, #62, .T. ) ;
#19 = CIRCLE ( 'NONE', #254, 0.04689999999999999725 ) ;
#20 =( NAMED_UNIT ( * ) SI_UNIT ( $, .STERADIAN. ) SOLID_ANGLE_UNIT ( ) );
#21 = DIRECTION ( 'NONE',  ( -1.000000000000000000, 0.0000000000000000000, 0.0000000000000000000 ) ) ;
#22 = EDGE_CURVE ( 'NONE', #192, #165, #7, .T. ) ;
#23 = MECHANICAL_DESIGN_GEOMETRIC_PRESENTATION_REPRESENTATION (  '', ( #322 ), #41 ) ;
#24 = VECTOR ( 'NONE', #277, 39.37007874015748143 ) ;
#25 = ORIENTED_EDGE ( 'NONE', *, *, #229, .F. ) ;
#26 = ORIENTED_EDGE ( 'NONE', *, *, #22, .F. ) ;
#27 = ADVANCED_FACE ( 'NONE', ( #88 ), #150, .T. ) ;
#28 = CARTESIAN_POINT ( 'NONE',  ( 0.0000000000000000000, 0.0000000000000000000, 0.0000000000000000000 ) ) ;
#29 = ADVANCED_BREP_SHAPE_REPRESENTATION ( 'Micro_SD-093', ( #89, #67 ), #161 ) ;
#30 = VERTEX_POINT ( 'NONE', #105 ) ;
#31 = CARTESIAN_POINT ( 'NONE',  ( 0.0000000000000000000, 0.0000000000000000000, 1.500000000000000222 ) ) ;
#32 = DIRECTION ( 'NONE',  ( 0.0000000000000000000, 0.0000000000000000000, -1.000000000000000000 ) ) ;
#33 = ADVANCED_FACE ( 'NONE', ( #284 ), #114, .T. ) ;
#34 =( LENGTH_UNIT ( ) NAMED_UNIT ( * ) SI_UNIT ( $, .METRE. ) );
#35 = PRODUCT_CONTEXT ( 'NONE', #204, 'mechanical' ) ;
#36 = ORIENTED_EDGE ( 'NONE', *, *, #154, .T. ) ;
#37 = CIRCLE ( 'NONE', #286, 0.04680000000000006377 ) ;
#38 = EDGE_LOOP ( 'NONE', ( #217, #3, #303, #83 ) ) ;
#39 = DIRECTION ( 'NONE',  ( 1.000000000000000000, 0.0000000000000000000, 0.0000000000000000000 ) ) ;
#40 = ORIENTED_EDGE ( 'NONE', *, *, #189, .F. ) ;
#41 =( GEOMETRIC_REPRESENTATION_CONTEXT ( 3 ) GLOBAL_UNCERTAINTY_ASSIGNED_CONTEXT ( ( #190 ) ) GLOBAL_UNIT_ASSIGNED_CONTEXT ( ( #113, #290, #20 ) ) REPRESENTATION_CONTEXT ( 'NONE', 'WORKASPACE' ) );
#42 = CARTESIAN_POINT ( 'NONE',  ( 0.0000000000000000000, 0.0000000000000000000, 0.0000000000000000000 ) ) ;
#43 = FACE_OUTER_BOUND ( 'NONE', #116, .T. ) ;
#44 = EDGE_CURVE ( 'NONE', #86, #30, #80, .T. ) ;
#45 = FACE_OUTER_BOUND ( 'NONE', #52, .T. ) ;
#46 = CONICAL_SURFACE ( 'NONE', #81, 0.04680000000000006377, 0.7853981633974465026 ) ;
#47 = CARTESIAN_POINT ( 'NONE',  ( 0.04689999999999999725, 5.743593488001085225E-18, 1.500000000000000222 ) ) ;
#48 = CARTESIAN_POINT ( 'NONE',  ( -0.04689999999999999725, 0.0000000000000000000, 1.500000000000000222 ) ) ;
#49 = DIRECTION ( 'NONE',  ( 0.0000000000000000000, 0.0000000000000000000, 1.000000000000000000 ) ) ;
#50 = AXIS2_PLACEMENT_3D ( 'NONE', #296, #240, #268 ) ;
#51 = DIRECTION ( 'NONE',  ( -0.0000000000000000000, -0.0000000000000000000, -1.000000000000000000 ) ) ;
#52 = EDGE_LOOP ( 'NONE', ( #119, #205, #251, #146 ) ) ;
#53 = EDGE_LOOP ( 'NONE', ( #195, #70, #72, #55 ) ) ;
#54 = DIRECTION ( 'NONE',  ( -1.000000000000000000, 0.0000000000000000000, 0.0000000000000000000 ) ) ;
#55 = ORIENTED_EDGE ( 'NONE', *, *, #250, .F. ) ;
#56 = DIRECTION ( 'NONE',  ( 0.0000000000000000000, 0.0000000000000000000, -1.000000000000000000 ) ) ;
#57 =( NAMED_UNIT ( * ) SI_UNIT ( $, .STERADIAN. ) SOLID_ANGLE_UNIT ( ) );
#58 = CARTESIAN_POINT ( 'NONE',  ( 0.0000000000000000000, 0.0000000000000000000, 39.37007874015748143 ) ) ;
#59 = CLOSED_SHELL ( 'NONE', ( #61, #281, #33, #91, #218, #293, #299, #75, #117, #272, #27 ) ) ;
#60 = DIRECTION ( 'NONE',  ( 1.000000000000000000, 0.0000000000000000000, 0.0000000000000000000 ) ) ;
#61 = ADVANCED_FACE ( 'NONE', ( #226 ), #199, .T. ) ;
#62 = LINE ( 'NONE', #153, #24 ) ;
#63 = UNCERTAINTY_MEASURE_WITH_UNIT (LENGTH_MEASURE( 1.000000000000000082E-05 ), #310, 'distance_accuracy_value', 'NONE');
#64 = FILL_AREA_STYLE_COLOUR ( '', #287 ) ;
#65 = LENGTH_MEASURE_WITH_UNIT ( LENGTH_MEASURE( 0.02539999999999999897 ), #288 );
#66 = CARTESIAN_POINT ( 'NONE',  ( 0.0000000000000000000, 0.0000000000000000000, 0.4749999999999999778 ) ) ;
#67 = AXIS2_PLACEMENT_3D ( 'NONE', #200, #101, #151 ) ;
#68 = DIRECTION ( 'NONE',  ( -1.000000000000000000, 0.0000000000000000000, 0.0000000000000000000 ) ) ;
#69 = FILL_AREA_STYLE_COLOUR ( '', #198 ) ;
#70 = ORIENTED_EDGE ( 'NONE', *, *, #149, .T. ) ;
#71 = CARTESIAN_POINT ( 'NONE',  ( 0.04689999999999999725, 5.743593488001085225E-18, 1.485000000000000986 ) ) ;
#72 = ORIENTED_EDGE ( 'NONE', *, *, #307, .T. ) ;
#73 = CONICAL_SURFACE ( 'NONE', #266, 0.03190000000000095537, 0.7853981633974446153 ) ;
#74 = CYLINDRICAL_SURFACE ( 'NONE', #221, 0.04680000000000003602 ) ;
#75 = ADVANCED_FACE ( 'NONE', ( #201 ), #253, .T. ) ;
#76 = DIRECTION ( 'NONE',  ( -0.0000000000000000000, -0.0000000000000000000, -1.000000000000000000 ) ) ;
#77 = ORIENTED_EDGE ( 'NONE', *, *, #207, .F. ) ;
#78 =( NAMED_UNIT ( * ) SI_UNIT ( $, .STERADIAN. ) SOLID_ANGLE_UNIT ( ) );
#79 = ORIENTED_EDGE ( 'NONE', *, *, #234, .F. ) ;
#80 = CIRCLE ( 'NONE', #17, 0.04689999999999999725 ) ;
#81 = AXIS2_PLACEMENT_3D ( 'NONE', #209, #257, #96 ) ;
#82 = DIRECTION ( 'NONE',  ( 0.0000000000000000000, 0.0000000000000000000, 1.000000000000000000 ) ) ;
#83 = ORIENTED_EDGE ( 'NONE', *, *, #307, .F. ) ;
#84 = PRESENTATION_STYLE_ASSIGNMENT (( #155 ) ) ;
#85 = CIRCLE ( 'NONE', #317, 0.03190000000000095537 ) ;
#86 = VERTEX_POINT ( 'NONE', #178 ) ;
#87 = SURFACE_SIDE_STYLE ('',( #214 ) ) ;
#88 = FACE_OUTER_BOUND ( 'NONE', #202, .T. ) ;
#89 = MANIFOLD_SOLID_BREP ( 'Cut-Revolve2', #59 ) ;
#90 = CARTESIAN_POINT ( 'NONE',  ( 0.0000000000000000000, 0.0000000000000000000, 0.4750999999999999668 ) ) ;
#91 = ADVANCED_FACE ( 'NONE', ( #43 ), #73, .T. ) ;
#92 = CYLINDRICAL_SURFACE ( 'NONE', #248, 0.04689999999999999725 ) ;
#93 = CIRCLE ( 'NONE', #237, 0.03190000000000095537 ) ;
#94 = DIRECTION ( 'NONE',  ( 1.000000000000000000, 0.0000000000000000000, 0.0000000000000000000 ) ) ;
#95 = DIRECTION ( 'NONE',  ( -0.0000000000000000000, -0.0000000000000000000, -1.000000000000000000 ) ) ;
#96 = DIRECTION ( 'NONE',  ( 1.000000000000000000, 0.0000000000000000000, 0.0000000000000000000 ) ) ;
#97 = CARTESIAN_POINT ( 'NONE',  ( 0.0000000000000000000, 0.0000000000000000000, 0.02812027697048965352 ) ) ;
#98 = DIRECTION ( 'NONE',  ( -0.0000000000000000000, -0.0000000000000000000, -1.000000000000000000 ) ) ;
#99 =( LENGTH_UNIT ( ) NAMED_UNIT ( * ) SI_UNIT ( $, .METRE. ) );
#100 = LINE ( 'NONE', #265, #194 ) ;
#101 = DIRECTION ( 'NONE',  ( 0.0000000000000000000, 0.0000000000000000000, 1.000000000000000000 ) ) ;
#102 = ORIENTED_EDGE ( 'NONE', *, *, #229, .T. ) ;
#103 = PRODUCT_DEFINITION ( 'UNKNOWN', '', #283, #319 ) ;
#104 = AXIS2_PLACEMENT_3D ( 'NONE', #66, #233, #68 ) ;
#105 = CARTESIAN_POINT ( 'NONE',  ( -0.04689999999999999725, 0.0000000000000000000, 0.4750999999999999668 ) ) ;
#106 = ORIENTED_EDGE ( 'NONE', *, *, #131, .F. ) ;
#107 = DIRECTION ( 'NONE',  ( 0.0000000000000000000, 0.0000000000000000000, 1.000000000000000000 ) ) ;
#108 = EDGE_LOOP ( 'NONE', ( #123, #215, #1, #25 ) ) ;
#109 = CARTESIAN_POINT ( 'NONE',  ( -0.03190000000000095537, 0.0000000000000000000, 1.500000000000000222 ) ) ;
#110 = CARTESIAN_POINT ( 'NONE',  ( 0.04680000000000003602, 5.731347020009617729E-18, 0.0000000000000000000 ) ) ;
#111 = CARTESIAN_POINT ( 'NONE',  ( 0.04680000000000001520, 5.731347020009615418E-18, 0.02812027697048965352 ) ) ;
#112 = DIRECTION ( 'NONE',  ( -0.0000000000000000000, -0.0000000000000000000, -1.000000000000000000 ) ) ;
#113 =( CONVERSION_BASED_UNIT ( 'INCH', #65 ) LENGTH_UNIT ( ) NAMED_UNIT ( #139 ) );
#114 = CONICAL_SURFACE ( 'NONE', #156, 0.04680000000000006377, 0.7853981633974465026 ) ;
#115 = FACE_OUTER_BOUND ( 'NONE', #173, .T. ) ;
#116 = EDGE_LOOP ( 'NONE', ( #106, #36, #275, #26 ) ) ;
#117 = ADVANCED_FACE ( 'NONE', ( #45 ), #46, .T. ) ;
#118 = CARTESIAN_POINT ( 'NONE',  ( 0.0000000000000000000, 0.0000000000000000000, 0.0000000000000000000 ) ) ;
#119 = ORIENTED_EDGE ( 'NONE', *, *, #18, .F. ) ;
#120 = CYLINDRICAL_SURFACE ( 'NONE', #291, 0.04689999999999999725 ) ;
#121 = VERTEX_POINT ( 'NONE', #318 ) ;
#122 = LENGTH_MEASURE_WITH_UNIT ( LENGTH_MEASURE( 0.02539999999999999897 ), #99 );
#123 = ORIENTED_EDGE ( 'NONE', *, *, #154, .F. ) ;
#124 = CARTESIAN_POINT ( 'NONE',  ( 0.0000000000000000000, 0.0000000000000000000, 1.500000000000000222 ) ) ;
#125 = APPLICATION_PROTOCOL_DEFINITION ( 'draft international standard', 'automotive_design', 1998, #204 ) ;
#126 = SURFACE_STYLE_FILL_AREA ( #148 ) ;
#127 = EDGE_CURVE ( 'NONE', #247, #180, #256, .T. ) ;
#128 = DIRECTION ( 'NONE',  ( 1.000000000000000000, 0.0000000000000000000, 0.0000000000000000000 ) ) ;
#129 = PRODUCT_DEFINITION_SHAPE ( 'NONE', 'NONE',  #103 ) ;
#130 = CARTESIAN_POINT ( 'NONE',  ( 0.0000000000000000000, 0.0000000000000000000, 0.4749999999999999778 ) ) ;
#131 = EDGE_CURVE ( 'NONE', #263, #192, #93, .T. ) ;
#132 = DIRECTION ( 'NONE',  ( 0.8571673007021137769, 0.0000000000000000000, 0.5150380749100517130 ) ) ;
#133 = CARTESIAN_POINT ( 'NONE',  ( 0.0000000000000000000, 0.0000000000000000000, 1.500000000000000222 ) ) ;
#134 = STYLED_ITEM ( 'NONE', ( #279 ), #29 ) ;
#135 = CARTESIAN_POINT ( 'NONE',  ( 0.0000000000000000000, 0.0000000000000000000, 0.4749999999999999778 ) ) ;
#136 = DIRECTION ( 'NONE',  ( -0.0000000000000000000, -0.0000000000000000000, -1.000000000000000000 ) ) ;
#137 = DIRECTION ( 'NONE',  ( -0.0000000000000000000, -0.0000000000000000000, -1.000000000000000000 ) ) ;
#138 = CIRCLE ( 'NONE', #50, 0.04680000000000001520 ) ;
#139 = DIMENSIONAL_EXPONENTS ( 1.000000000000000000, 0.0000000000000000000, 0.0000000000000000000, 0.0000000000000000000, 0.0000000000000000000, 0.0000000000000000000, 0.0000000000000000000 ) ;
#140 = DIRECTION ( 'NONE',  ( -0.0000000000000000000, -0.0000000000000000000, -1.000000000000000000 ) ) ;
#141 = ORIENTED_EDGE ( 'NONE', *, *, #162, .T. ) ;
#142 = DIMENSIONAL_EXPONENTS ( 1.000000000000000000, 0.0000000000000000000, 0.0000000000000000000, 0.0000000000000000000, 0.0000000000000000000, 0.0000000000000000000, 0.0000000000000000000 ) ;
#143 = EDGE_CURVE ( 'NONE', #192, #263, #85, .T. ) ;
#144 = CARTESIAN_POINT ( 'NONE',  ( 0.04680000000000006377, 0.0000000000000000000, 0.4749999999999999778 ) ) ;
#145 = DIRECTION ( 'NONE',  ( -1.000000000000000000, 0.0000000000000000000, 0.0000000000000000000 ) ) ;
#146 = ORIENTED_EDGE ( 'NONE', *, *, #44, .T. ) ;
#147 = DIRECTION ( 'NONE',  ( -1.000000000000000000, 0.0000000000000000000, 0.0000000000000000000 ) ) ;
#148 = FILL_AREA_STYLE ('',( #64 ) ) ;
#149 = EDGE_CURVE ( 'NONE', #247, #12, #166, .T. ) ;
#150 = CONICAL_SURFACE ( 'NONE', #264, 65.52281426576885792, 1.029744258676657420 ) ;
#151 = DIRECTION ( 'NONE',  ( 1.000000000000000000, 0.0000000000000000000, 0.0000000000000000000 ) ) ;
#152 = CARTESIAN_POINT ( 'NONE',  ( -0.04680000000000006377, 5.737470254005354174E-18, 0.4749999999999999778 ) ) ;
#153 = CARTESIAN_POINT ( 'NONE',  ( -0.04680000000000006377, 5.731347020009620811E-18, 0.4749999999999999778 ) ) ;
#154 = EDGE_CURVE ( 'NONE', #263, #312, #184, .T. ) ;
#155 = SURFACE_STYLE_USAGE ( .BOTH. , #224 ) ;
#156 = AXIS2_PLACEMENT_3D ( 'NONE', #130, #82, #60 ) ;
#157 = AXIS2_PLACEMENT_3D ( 'NONE', #239, #323, #196 ) ;
#158 = CARTESIAN_POINT ( 'NONE',  ( -0.04689999999999999725, 0.0000000000000000000, 1.485000000000000986 ) ) ;
#159 = DIRECTION ( 'NONE',  ( -0.8571673007021137769, 1.049727191138620545E-16, 0.5150380749100517130 ) ) ;
#160 = CARTESIAN_POINT ( 'NONE',  ( 0.0000000000000000000, 0.0000000000000000000, 0.0000000000000000000 ) ) ;
#161 =( GEOMETRIC_REPRESENTATION_CONTEXT ( 3 ) GLOBAL_UNCERTAINTY_ASSIGNED_CONTEXT ( ( #261 ) ) GLOBAL_UNIT_ASSIGNED_CONTEXT ( ( #298, #6, #78 ) ) REPRESENTATION_CONTEXT ( 'NONE', 'WORKASPACE' ) );
#162 = EDGE_CURVE ( 'NONE', #280, #121, #16, .T. ) ;
#163 = ORIENTED_EDGE ( 'NONE', *, *, #131, .T. ) ;
#164 = DIRECTION ( 'NONE',  ( -1.000000000000000000, 0.0000000000000000000, 0.0000000000000000000 ) ) ;
#165 = VERTEX_POINT ( 'NONE', #158 ) ;
#166 = CIRCLE ( 'NONE', #104, 0.04680000000000006377 ) ;
#167 = PRODUCT ( 'Micro_SD-093', 'Micro_SD-093', '', ( #35 ) ) ;
#168 = CARTESIAN_POINT ( 'NONE',  ( 0.0000000000000000000, 0.0000000000000000000, 0.0000000000000000000 ) ) ;
#169 = ORIENTED_EDGE ( 'NONE', *, *, #177, .T. ) ;
#170 = FACE_OUTER_BOUND ( 'NONE', #227, .T. ) ;
#171 = EDGE_LOOP ( 'NONE', ( #271, #295, #40, #222 ) ) ;
#172 = LINE ( 'NONE', #4, #297 ) ;
#173 = EDGE_LOOP ( 'NONE', ( #249, #102, #169, #11 ) ) ;
#174 = VECTOR ( 'NONE', #206, 39.37007874015748143 ) ;
#175 = LENGTH_MEASURE_WITH_UNIT ( LENGTH_MEASURE( 0.02539999999999999897 ), #34 );
#176 = DIRECTION ( 'NONE',  ( 1.000000000000000000, 0.0000000000000000000, 0.0000000000000000000 ) ) ;
#177 = EDGE_CURVE ( 'NONE', #165, #30, #260, .T. ) ;
#178 = CARTESIAN_POINT ( 'NONE',  ( 0.04689999999999999725, 5.743593488001085225E-18, 0.4750999999999999668 ) ) ;
#179 = PRESENTATION_LAYER_ASSIGNMENT (  '', '', ( #134 ) ) ;
#180 = VERTEX_POINT ( 'NONE', #111 ) ;
#181 = DIRECTION ( 'NONE',  ( 0.0000000000000000000, 0.0000000000000000000, 1.000000000000000000 ) ) ;
#182 = CARTESIAN_POINT ( 'NONE',  ( -0.03190000000000095537, 0.0000000000000000000, 1.500000000000000222 ) ) ;
#183 = AXIS2_PLACEMENT_3D ( 'NONE', #31, #49, #219 ) ;
#184 = LINE ( 'NONE', #186, #174 ) ;
#185 = EDGE_CURVE ( 'NONE', #312, #86, #315, .T. ) ;
#186 = CARTESIAN_POINT ( 'NONE',  ( 0.03190000000000095537, 3.906623289280173497E-18, 1.500000000000000222 ) ) ;
#187 = DIRECTION ( 'NONE',  ( 0.0000000000000000000, 0.0000000000000000000, 1.000000000000000000 ) ) ;
#188 = VECTOR ( 'NONE', #255, 39.37007874015748143 ) ;
#189 = EDGE_CURVE ( 'NONE', #30, #86, #19, .T. ) ;
#190 = UNCERTAINTY_MEASURE_WITH_UNIT (LENGTH_MEASURE( 1.000000000000000082E-05 ), #113, 'distance_accuracy_value', 'NONE');
#191 = DIRECTION ( 'NONE',  ( 0.7071067811865462405, 0.0000000000000000000, 0.7071067811865487940 ) ) ;
#192 = VERTEX_POINT ( 'NONE', #182 ) ;
#193 = CYLINDRICAL_SURFACE ( 'NONE', #259, 0.04680000000000003602 ) ;
#194 = VECTOR ( 'NONE', #191, 39.37007874015748143 ) ;
#195 = ORIENTED_EDGE ( 'NONE', *, *, #127, .F. ) ;
#196 = DIRECTION ( 'NONE',  ( 1.000000000000000000, 0.0000000000000000000, 0.0000000000000000000 ) ) ;
#197 = ORIENTED_EDGE ( 'NONE', *, *, #211, .T. ) ;
#198 = COLOUR_RGB ( '',0.7921568627450980005, 0.8196078431372548767, 0.9333333333333333481 ) ;
#199 = CONICAL_SURFACE ( 'NONE', #238, 65.52281426576885792, 1.029744258676657420 ) ;
#200 = CARTESIAN_POINT ( 'NONE',  ( 0.0000000000000000000, 0.0000000000000000000, 0.0000000000000000000 ) ) ;
#201 = FACE_OUTER_BOUND ( 'NONE', #108, .T. ) ;
#202 = EDGE_LOOP ( 'NONE', ( #10, #197, #269 ) ) ;
#203 = ORIENTED_EDGE ( 'NONE', *, *, #189, .T. ) ;
#204 = APPLICATION_CONTEXT ( 'automotive_design' ) ;
#205 = ORIENTED_EDGE ( 'NONE', *, *, #149, .F. ) ;
#206 = DIRECTION ( 'NONE',  ( 0.7071067811865449082, 8.659560562354902043E-17, -0.7071067811865501263 ) ) ;
#207 = EDGE_CURVE ( 'NONE', #12, #247, #37, .T. ) ;
#208 = AXIS2_PLACEMENT_3D ( 'NONE', #97, #51, #294 ) ;
#209 = CARTESIAN_POINT ( 'NONE',  ( 0.0000000000000000000, 0.0000000000000000000, 0.4749999999999999778 ) ) ;
#210 = DIRECTION ( 'NONE',  ( 1.000000000000000000, 0.0000000000000000000, 0.0000000000000000000 ) ) ;
#211 = EDGE_CURVE ( 'NONE', #280, #180, #235, .T. ) ;
#212 = CIRCLE ( 'NONE', #274, 0.04689999999999999725 ) ;
#213 = DIMENSIONAL_EXPONENTS ( 1.000000000000000000, 0.0000000000000000000, 0.0000000000000000000, 0.0000000000000000000, 0.0000000000000000000, 0.0000000000000000000, 0.0000000000000000000 ) ;
#214 = SURFACE_STYLE_FILL_AREA ( #262 ) ;
#215 = ORIENTED_EDGE ( 'NONE', *, *, #143, .F. ) ;
#216 = FACE_OUTER_BOUND ( 'NONE', #38, .T. ) ;
#217 = ORIENTED_EDGE ( 'NONE', *, *, #207, .T. ) ;
#218 = ADVANCED_FACE ( 'NONE', ( #228 ), #92, .T. ) ;
#219 = DIRECTION ( 'NONE',  ( 1.000000000000000000, 0.0000000000000000000, -0.0000000000000000000 ) ) ;
#220 = VECTOR ( 'NONE', #132, 39.37007874015748143 ) ;
#221 = AXIS2_PLACEMENT_3D ( 'NONE', #28, #140, #145 ) ;
#222 = ORIENTED_EDGE ( 'NONE', *, *, #177, .F. ) ;
#223 = VECTOR ( 'NONE', #289, 39.37007874015748143 ) ;
#224 = SURFACE_SIDE_STYLE ('',( #126 ) ) ;
#225 = CARTESIAN_POINT ( 'NONE',  ( 0.0000000000000000000, 0.0000000000000000000, 39.37007874015748143 ) ) ;
#226 = FACE_OUTER_BOUND ( 'NONE', #301, .T. ) ;
#227 = EDGE_LOOP ( 'NONE', ( #246, #163 ) ) ;
#228 = FACE_OUTER_BOUND ( 'NONE', #171, .T. ) ;
#229 = EDGE_CURVE ( 'NONE', #312, #165, #5, .T. ) ;
#230 = DIRECTION ( 'NONE',  ( 0.0000000000000000000, 0.0000000000000000000, 1.000000000000000000 ) ) ;
#231 = AXIS2_PLACEMENT_3D ( 'NONE', #124, #56, #147 ) ;
#232 = VECTOR ( 'NONE', #112, 39.37007874015748143 ) ;
#233 = DIRECTION ( 'NONE',  ( -0.0000000000000000000, -0.0000000000000000000, -1.000000000000000000 ) ) ;
#234 = EDGE_CURVE ( 'NONE', #247, #86, #100, .T. ) ;
#235 = LINE ( 'NONE', #42, #220 ) ;
#236 = DIRECTION ( 'NONE',  ( -1.000000000000000000, 0.0000000000000000000, 0.0000000000000000000 ) ) ;
#237 = AXIS2_PLACEMENT_3D ( 'NONE', #133, #230, #94 ) ;
#238 = AXIS2_PLACEMENT_3D ( 'NONE', #58, #181, #285 ) ;
#239 = CARTESIAN_POINT ( 'NONE',  ( 0.0000000000000000000, 0.0000000000000000000, 1.485000000000000986 ) ) ;
#240 = DIRECTION ( 'NONE',  ( -0.0000000000000000000, -0.0000000000000000000, -1.000000000000000000 ) ) ;
#241 = ORIENTED_EDGE ( 'NONE', *, *, #18, .T. ) ;
#242 = CARTESIAN_POINT ( 'NONE',  ( 0.03190000000000095537, 4.825108388640630902E-18, 1.500000000000000222 ) ) ;
#243 = EDGE_LOOP ( 'NONE', ( #77, #241, #203, #79 ) ) ;
#244 = APPLICATION_CONTEXT ( 'automotive_design' ) ;
#245 = PRODUCT_RELATED_PRODUCT_CATEGORY ( 'part', '', ( #167 ) ) ;
#246 = ORIENTED_EDGE ( 'NONE', *, *, #143, .T. ) ;
#247 = VERTEX_POINT ( 'NONE', #144 ) ;
#248 = AXIS2_PLACEMENT_3D ( 'NONE', #15, #316, #54 ) ;
#249 = ORIENTED_EDGE ( 'NONE', *, *, #185, .F. ) ;
#250 = EDGE_CURVE ( 'NONE', #180, #121, #138, .T. ) ;
#251 = ORIENTED_EDGE ( 'NONE', *, *, #234, .T. ) ;
#252 = ORIENTED_EDGE ( 'NONE', *, *, #211, .F. ) ;
#253 = CONICAL_SURFACE ( 'NONE', #231, 0.03190000000000095537, 0.7853981633974446153 ) ;
#254 = AXIS2_PLACEMENT_3D ( 'NONE', #90, #136, #210 ) ;
#255 = DIRECTION ( 'NONE',  ( -0.0000000000000000000, -0.0000000000000000000, -1.000000000000000000 ) ) ;
#256 = LINE ( 'NONE', #110, #223 ) ;
#257 = DIRECTION ( 'NONE',  ( 0.0000000000000000000, 0.0000000000000000000, 1.000000000000000000 ) ) ;
#258 = EDGE_CURVE ( 'NONE', #121, #180, #8, .T. ) ;
#259 = AXIS2_PLACEMENT_3D ( 'NONE', #118, #76, #300 ) ;
#260 = LINE ( 'NONE', #48, #188 ) ;
#261 = UNCERTAINTY_MEASURE_WITH_UNIT (LENGTH_MEASURE( 1.000000000000000082E-05 ), #298, 'distance_accuracy_value', 'NONE');
#262 = FILL_AREA_STYLE ('',( #69 ) ) ;
#263 = VERTEX_POINT ( 'NONE', #242 ) ;
#264 = AXIS2_PLACEMENT_3D ( 'NONE', #225, #107, #39 ) ;
#265 = CARTESIAN_POINT ( 'NONE',  ( 0.04680000000000006377, 0.0000000000000000000, 0.4749999999999999778 ) ) ;
#266 = AXIS2_PLACEMENT_3D ( 'NONE', #278, #321, #21 ) ;
#267 = ORIENTED_EDGE ( 'NONE', *, *, #258, .T. ) ;
#268 = DIRECTION ( 'NONE',  ( -1.000000000000000000, 0.0000000000000000000, 0.0000000000000000000 ) ) ;
#269 = ORIENTED_EDGE ( 'NONE', *, *, #250, .T. ) ;
#270 = PLANE ( 'NONE',  #183 ) ;
#271 = ORIENTED_EDGE ( 'NONE', *, *, #9, .T. ) ;
#272 = ADVANCED_FACE ( 'NONE', ( #2 ), #193, .T. ) ;
#273 = CARTESIAN_POINT ( 'NONE',  ( 0.0000000000000000000, 0.0000000000000000000, 1.500000000000000222 ) ) ;
#274 = AXIS2_PLACEMENT_3D ( 'NONE', #14, #32, #128 ) ;
#275 = ORIENTED_EDGE ( 'NONE', *, *, #9, .F. ) ;
#276 = VECTOR ( 'NONE', #159, 39.37007874015748143 ) ;
#277 = DIRECTION ( 'NONE',  ( -0.7071067811865462405, 8.659560562354916834E-17, 0.7071067811865487940 ) ) ;
#278 = CARTESIAN_POINT ( 'NONE',  ( 0.0000000000000000000, 0.0000000000000000000, 1.500000000000000222 ) ) ;
#279 = PRESENTATION_STYLE_ASSIGNMENT (( #308 ) ) ;
#280 = VERTEX_POINT ( 'NONE', #168 ) ;
#281 = ADVANCED_FACE ( 'NONE', ( #216 ), #74, .T. ) ;
#282 = PRESENTATION_LAYER_ASSIGNMENT (  '', '', ( #322 ) ) ;
#283 = PRODUCT_DEFINITION_FORMATION_WITH_SPECIFIED_SOURCE ( 'ANY', '', #167, .NOT_KNOWN. ) ;
#284 = FACE_OUTER_BOUND ( 'NONE', #243, .T. ) ;
#285 = DIRECTION ( 'NONE',  ( 1.000000000000000000, 0.0000000000000000000, 0.0000000000000000000 ) ) ;
#286 = AXIS2_PLACEMENT_3D ( 'NONE', #135, #95, #236 ) ;
#287 = COLOUR_RGB ( '',0.7921568627450980005, 0.8196078431372548767, 0.9333333333333333481 ) ;
#288 =( LENGTH_UNIT ( ) NAMED_UNIT ( * ) SI_UNIT ( $, .METRE. ) );
#289 = DIRECTION ( 'NONE',  ( -0.0000000000000000000, -0.0000000000000000000, -1.000000000000000000 ) ) ;
#290 =( NAMED_UNIT ( * ) PLANE_ANGLE_UNIT ( ) SI_UNIT ( $, .RADIAN. ) );
#291 = AXIS2_PLACEMENT_3D ( 'NONE', #273, #98, #164 ) ;
#292 = DIRECTION ( 'NONE',  ( 1.000000000000000000, 0.0000000000000000000, 0.0000000000000000000 ) ) ;
#293 = ADVANCED_FACE ( 'NONE', ( #115 ), #120, .T. ) ;
#294 = DIRECTION ( 'NONE',  ( -1.000000000000000000, 0.0000000000000000000, 0.0000000000000000000 ) ) ;
#295 = ORIENTED_EDGE ( 'NONE', *, *, #185, .T. ) ;
#296 = CARTESIAN_POINT ( 'NONE',  ( 0.0000000000000000000, 0.0000000000000000000, 0.02812027697048965352 ) ) ;
#297 = VECTOR ( 'NONE', #137, 39.37007874015748143 ) ;
#298 =( CONVERSION_BASED_UNIT ( 'INCH', #122 ) LENGTH_UNIT ( ) NAMED_UNIT ( #142 ) );
#299 = ADVANCED_FACE ( 'NONE', ( #170 ), #270, .T. ) ;
#300 = DIRECTION ( 'NONE',  ( -1.000000000000000000, 0.0000000000000000000, 0.0000000000000000000 ) ) ;
#301 = EDGE_LOOP ( 'NONE', ( #252, #141, #267 ) ) ;
#302 = VECTOR ( 'NONE', #306, 39.37007874015748143 ) ;
#303 = ORIENTED_EDGE ( 'NONE', *, *, #258, .F. ) ;
#304 =( NAMED_UNIT ( * ) PLANE_ANGLE_UNIT ( ) SI_UNIT ( $, .RADIAN. ) );
#305 = SHAPE_DEFINITION_REPRESENTATION ( #129, #29 ) ;
#306 = DIRECTION ( 'NONE',  ( -0.7071067811865449082, 0.0000000000000000000, -0.7071067811865501263 ) ) ;
#307 = EDGE_CURVE ( 'NONE', #12, #121, #172, .T. ) ;
#308 = SURFACE_STYLE_USAGE ( .BOTH. , #87 ) ;
#309 = CARTESIAN_POINT ( 'NONE',  ( 0.0000000000000000000, 0.0000000000000000000, 0.4750999999999999668 ) ) ;
#310 =( CONVERSION_BASED_UNIT ( 'INCH', #175 ) LENGTH_UNIT ( ) NAMED_UNIT ( #213 ) );
#311 = APPLICATION_PROTOCOL_DEFINITION ( 'draft international standard', 'automotive_design', 1998, #244 ) ;
#312 = VERTEX_POINT ( 'NONE', #71 ) ;
#313 = MECHANICAL_DESIGN_GEOMETRIC_PRESENTATION_REPRESENTATION (  '', ( #134 ), #13 ) ;
#314 = DIRECTION ( 'NONE',  ( -0.0000000000000000000, -0.0000000000000000000, -1.000000000000000000 ) ) ;
#315 = LINE ( 'NONE', #47, #232 ) ;
#316 = DIRECTION ( 'NONE',  ( -0.0000000000000000000, -0.0000000000000000000, -1.000000000000000000 ) ) ;
#317 = AXIS2_PLACEMENT_3D ( 'NONE', #320, #187, #292 ) ;
#318 = CARTESIAN_POINT ( 'NONE',  ( -0.04680000000000001520, 0.0000000000000000000, 0.02812027697048965352 ) ) ;
#319 = PRODUCT_DEFINITION_CONTEXT ( 'detailed design', #244, 'design' ) ;
#320 = CARTESIAN_POINT ( 'NONE',  ( 0.0000000000000000000, 0.0000000000000000000, 1.500000000000000222 ) ) ;
#321 = DIRECTION ( 'NONE',  ( 0.0000000000000000000, 0.0000000000000000000, -1.000000000000000000 ) ) ;
#322 = STYLED_ITEM ( 'NONE', ( #84 ), #89 ) ;
#323 = DIRECTION ( 'NONE',  ( 0.0000000000000000000, 0.0000000000000000000, -1.000000000000000000 ) ) ;
ENDSEC;
END-ISO-10303-21;
