ISO-10303-21;
HEADER;
FILE_DESCRIPTION (( 'STEP AP214' ),
    '1' );
FILE_NAME ('Micro_SPD-750-082.STEP',
    '2021-09-03T21:22:16',
    ( '' ),
    ( '' ),
    'SwSTEP 2.0',
    'SolidWorks 2020',
    '' );
FILE_SCHEMA (( 'AUTOMOTIVE_DESIGN' ));
ENDSEC;

DATA;
#1 = EDGE_CURVE ( 'NONE', #168, #142, #38, .T. ) ;
#2 = CARTESIAN_POINT ( 'NONE',  ( 0.0000000000000000000, 0.0000000000000000000, 2.500000000000000000 ) ) ;
#3 = ORIENTED_EDGE ( 'NONE', *, *, #143, .T. ) ;
#4 = CLOSED_SHELL ( 'NONE', ( #219, #14, #237, #73, #102, #140, #132, #162, #82, #336, #64, #80 ) ) ;
#5 = AXIS2_PLACEMENT_3D ( 'NONE', #70, #148, #150 ) ;
#6 = FACE_OUTER_BOUND ( 'NONE', #116, .T. ) ;
#7 = CARTESIAN_POINT ( 'NONE',  ( 0.0000000000000000000, 0.0000000000000000000, 0.0000000000000000000 ) ) ;
#8 = ORIENTED_EDGE ( 'NONE', *, *, #117, .T. ) ;
#9 = CARTESIAN_POINT ( 'NONE',  ( 0.3749500000000000610, 4.591813173403001345E-17, 0.3749625823336866226 ) ) ;
#10 = AXIS2_PLACEMENT_3D ( 'NONE', #81, #320, #75 ) ;
#11 = EDGE_LOOP ( 'NONE', ( #310, #8 ) ) ;
#12 = ORIENTED_EDGE ( 'NONE', *, *, #246, .F. ) ;
#13 = EDGE_CURVE ( 'NONE', #111, #36, #98, .T. ) ;
#14 = ADVANCED_FACE ( 'NONE', ( #147 ), #318, .T. ) ;
#15 = PRESENTATION_STYLE_ASSIGNMENT (( #257 ) ) ;
#16 = EDGE_LOOP ( 'NONE', ( #139, #332, #305, #200 ) ) ;
#17 = DIRECTION ( 'NONE',  ( 1.000000000000000000, 0.0000000000000000000, 0.0000000000000000000 ) ) ;
#18 = CARTESIAN_POINT ( 'NONE',  ( -0.04900000000000000189, 6.000769315822030524E-18, 0.0000000000000000000 ) ) ;
#19 = DIRECTION ( 'NONE',  ( 0.7071067811865487940, 0.0000000000000000000, 0.7071067811865462405 ) ) ;
#20 = CIRCLE ( 'NONE', #195, 0.3750000000000000555 ) ;
#21 = CIRCLE ( 'NONE', #265, 0.3750000000000000555 ) ;
#22 = CARTESIAN_POINT ( 'NONE',  ( -0.3600000000000002642, 0.0000000000000000000, 2.500000000000000000 ) ) ;
#23 = SHAPE_DEFINITION_REPRESENTATION ( #266, #66 ) ;
#24 = DIRECTION ( 'NONE',  ( -0.6560590289905088301, 8.034405899049472288E-17, 0.7547095802227706818 ) ) ;
#25 = LINE ( 'NONE', #193, #204 ) ;
#26 = AXIS2_PLACEMENT_3D ( 'NONE', #205, #314, #238 ) ;
#27 = DIRECTION ( 'NONE',  ( -0.0000000000000000000, -0.0000000000000000000, -1.000000000000000000 ) ) ;
#28 = VERTEX_POINT ( 'NONE', #69 ) ;
#29 = SURFACE_SIDE_STYLE ('',( #156 ) ) ;
#30 = STYLED_ITEM ( 'NONE', ( #245 ), #134 ) ;
#31 = MECHANICAL_DESIGN_GEOMETRIC_PRESENTATION_REPRESENTATION (  '', ( #299 ), #306 ) ;
#32 = DIRECTION ( 'NONE',  ( 1.000000000000000000, 0.0000000000000000000, 0.0000000000000000000 ) ) ;
#33 = ORIENTED_EDGE ( 'NONE', *, *, #127, .T. ) ;
#34 = EDGE_LOOP ( 'NONE', ( #293, #33, #57, #285 ) ) ;
#35 = CIRCLE ( 'NONE', #159, 0.3750000000000000555 ) ;
#36 = VERTEX_POINT ( 'NONE', #231 ) ;
#37 = DIRECTION ( 'NONE',  ( -1.000000000000000000, 0.0000000000000000000, 0.0000000000000000000 ) ) ;
#38 = LINE ( 'NONE', #258, #54 ) ;
#39 = EDGE_CURVE ( 'NONE', #255, #89, #321, .T. ) ;
#40 = ORIENTED_EDGE ( 'NONE', *, *, #171, .T. ) ;
#41 = DIRECTION ( 'NONE',  ( -1.000000000000000000, 0.0000000000000000000, 0.0000000000000000000 ) ) ;
#42 = PRODUCT_DEFINITION_FORMATION_WITH_SPECIFIED_SOURCE ( 'ANY', '', #289, .NOT_KNOWN. ) ;
#43 = FACE_OUTER_BOUND ( 'NONE', #114, .T. ) ;
#44 = FACE_OUTER_BOUND ( 'NONE', #34, .T. ) ;
#45 = EDGE_CURVE ( 'NONE', #28, #255, #121, .T. ) ;
#46 = DIRECTION ( 'NONE',  ( 0.0000000000000000000, 0.0000000000000000000, 1.000000000000000000 ) ) ;
#47 = VECTOR ( 'NONE', #316, 39.37007874015748143 ) ;
#48 = FILL_AREA_STYLE ('',( #65 ) ) ;
#49 = LENGTH_MEASURE_WITH_UNIT ( LENGTH_MEASURE( 0.02539999999999999897 ), #50 );
#50 =( LENGTH_UNIT ( ) NAMED_UNIT ( * ) SI_UNIT ( $, .METRE. ) );
#51 = CIRCLE ( 'NONE', #322, 0.3600000000000002642 ) ;
#52 = CARTESIAN_POINT ( 'NONE',  ( 0.3749500000000000610, 4.591813173403001345E-17, 0.0000000000000000000 ) ) ;
#53 = DIRECTION ( 'NONE',  ( -1.000000000000000000, 0.0000000000000000000, 0.0000000000000000000 ) ) ;
#54 = VECTOR ( 'NONE', #19, 39.37007874015748143 ) ;
#55 =( GEOMETRIC_REPRESENTATION_CONTEXT ( 3 ) GLOBAL_UNCERTAINTY_ASSIGNED_CONTEXT ( ( #224 ) ) GLOBAL_UNIT_ASSIGNED_CONTEXT ( ( #247, #109, #241 ) ) REPRESENTATION_CONTEXT ( 'NONE', 'WORKASPACE' ) );
#56 = DIRECTION ( 'NONE',  ( -0.0000000000000000000, -0.0000000000000000000, -1.000000000000000000 ) ) ;
#57 = ORIENTED_EDGE ( 'NONE', *, *, #58, .F. ) ;
#58 = EDGE_CURVE ( 'NONE', #197, #142, #20, .T. ) ;
#59 = APPLICATION_PROTOCOL_DEFINITION ( 'draft international standard', 'automotive_design', 1998, #250 ) ;
#60 = ORIENTED_EDGE ( 'NONE', *, *, #307, .T. ) ;
#61 = DIRECTION ( 'NONE',  ( -1.000000000000000000, 0.0000000000000000000, 0.0000000000000000000 ) ) ;
#62 = ORIENTED_EDGE ( 'NONE', *, *, #160, .F. ) ;
#63 = ORIENTED_EDGE ( 'NONE', *, *, #1, .T. ) ;
#64 = ADVANCED_FACE ( 'NONE', ( #43 ), #118, .T. ) ;
#65 = FILL_AREA_STYLE_COLOUR ( '', #184 ) ;
#66 = ADVANCED_BREP_SHAPE_REPRESENTATION ( 'Micro_SPD-750-082', ( #134, #5 ), #101 ) ;
#67 = CARTESIAN_POINT ( 'NONE',  ( 0.0000000000000000000, 0.0000000000000000000, 1.125000000000000000 ) ) ;
#68 = EDGE_CURVE ( 'NONE', #329, #89, #267, .T. ) ;
#69 = CARTESIAN_POINT ( 'NONE',  ( 0.04900000000000000189, 0.0000000000000000000, 0.0000000000000000000 ) ) ;
#70 = CARTESIAN_POINT ( 'NONE',  ( 0.0000000000000000000, 0.0000000000000000000, 0.0000000000000000000 ) ) ;
#71 = CARTESIAN_POINT ( 'NONE',  ( -0.3749500000000000610, 0.0000000000000000000, 0.3749625823336866226 ) ) ;
#72 = DIRECTION ( 'NONE',  ( -0.0000000000000000000, -0.0000000000000000000, -1.000000000000000000 ) ) ;
#73 = ADVANCED_FACE ( 'NONE', ( #286 ), #264, .T. ) ;
#74 = LINE ( 'NONE', #52, #85 ) ;
#75 = DIRECTION ( 'NONE',  ( 1.000000000000000000, 0.0000000000000000000, 0.0000000000000000000 ) ) ;
#76 = VECTOR ( 'NONE', #24, 39.37007874015748143 ) ;
#77 = AXIS2_PLACEMENT_3D ( 'NONE', #240, #211, #319 ) ;
#78 = ORIENTED_EDGE ( 'NONE', *, *, #171, .F. ) ;
#79 = DIMENSIONAL_EXPONENTS ( 1.000000000000000000, 0.0000000000000000000, 0.0000000000000000000, 0.0000000000000000000, 0.0000000000000000000, 0.0000000000000000000, 0.0000000000000000000 ) ;
#80 = ADVANCED_FACE ( 'NONE', ( #311 ), #235, .F. ) ;
#81 = CARTESIAN_POINT ( 'NONE',  ( 0.0000000000000000000, 0.0000000000000000000, 1.125049999999999883 ) ) ;
#82 = ADVANCED_FACE ( 'NONE', ( #99 ), #107, .T. ) ;
#83 = CARTESIAN_POINT ( 'NONE',  ( 0.0000000000000000000, 0.0000000000000000000, 0.3749625823336866226 ) ) ;
#84 = AXIS2_PLACEMENT_3D ( 'NONE', #154, #125, #176 ) ;
#85 = VECTOR ( 'NONE', #166, 39.37007874015748143 ) ;
#86 = CARTESIAN_POINT ( 'NONE',  ( 0.3600000000000002642, 4.500576986866523548E-17, 2.500000000000000000 ) ) ;
#87 = ORIENTED_EDGE ( 'NONE', *, *, #313, .T. ) ;
#88 = DIRECTION ( 'NONE',  ( 0.7071067811865362485, 8.659560562354793575E-17, -0.7071067811865586750 ) ) ;
#89 = VERTEX_POINT ( 'NONE', #71 ) ;
#90 = ORIENTED_EDGE ( 'NONE', *, *, #202, .F. ) ;
#91 = ORIENTED_EDGE ( 'NONE', *, *, #127, .F. ) ;
#92 = ORIENTED_EDGE ( 'NONE', *, *, #269, .T. ) ;
#93 = CARTESIAN_POINT ( 'NONE',  ( 0.3750000000000000555, 4.592425496802575451E-17, 2.500000000000000000 ) ) ;
#94 = DIRECTION ( 'NONE',  ( -1.000000000000000000, 0.0000000000000000000, 0.0000000000000000000 ) ) ;
#95 = CIRCLE ( 'NONE', #209, 0.3749500000000000610 ) ;
#96 =( NAMED_UNIT ( * ) SI_UNIT ( $, .STERADIAN. ) SOLID_ANGLE_UNIT ( ) );
#97 = CYLINDRICAL_SURFACE ( 'NONE', #304, 0.3750000000000000555 ) ;
#98 = LINE ( 'NONE', #348, #100 ) ;
#99 = FACE_OUTER_BOUND ( 'NONE', #272, .T. ) ;
#100 = VECTOR ( 'NONE', #180, 39.37007874015748854 ) ;
#101 =( GEOMETRIC_REPRESENTATION_CONTEXT ( 3 ) GLOBAL_UNCERTAINTY_ASSIGNED_CONTEXT ( ( #236 ) ) GLOBAL_UNIT_ASSIGNED_CONTEXT ( ( #225, #300, #167 ) ) REPRESENTATION_CONTEXT ( 'NONE', 'WORKASPACE' ) );
#102 = ADVANCED_FACE ( 'NONE', ( #44 ), #97, .T. ) ;
#103 = CARTESIAN_POINT ( 'NONE',  ( 0.3750000000000000555, 4.592425496802575451E-17, 1.125049999999999883 ) ) ;
#104 = DIRECTION ( 'NONE',  ( -1.000000000000000000, 0.0000000000000000000, 0.0000000000000000000 ) ) ;
#105 = CARTESIAN_POINT ( 'NONE',  ( -0.3750000000000000555, 0.0000000000000000000, 1.125049999999999883 ) ) ;
#106 = ORIENTED_EDGE ( 'NONE', *, *, #68, .T. ) ;
#107 = CONICAL_SURFACE ( 'NONE', #252, 0.3749500000000001165, 0.7853981633974501664 ) ;
#108 = PRESENTATION_LAYER_ASSIGNMENT (  '', '', ( #299 ) ) ;
#109 =( NAMED_UNIT ( * ) PLANE_ANGLE_UNIT ( ) SI_UNIT ( $, .RADIAN. ) );
#110 = CARTESIAN_POINT ( 'NONE',  ( 0.0000000000000000000, 0.0000000000000000000, 0.0000000000000000000 ) ) ;
#111 = VERTEX_POINT ( 'NONE', #22 ) ;
#112 = AXIS2_PLACEMENT_3D ( 'NONE', #259, #220, #283 ) ;
#113 = DIRECTION ( 'NONE',  ( -0.0000000000000000000, -0.0000000000000000000, -1.000000000000000000 ) ) ;
#114 = EDGE_LOOP ( 'NONE', ( #334, #271, #216, #230 ) ) ;
#115 = CARTESIAN_POINT ( 'NONE',  ( -0.04900000000000000189, 2.595945052492602160E-17, 0.0000000000000000000 ) ) ;
#116 = EDGE_LOOP ( 'NONE', ( #173, #106, #92, #278 ) ) ;
#117 = EDGE_CURVE ( 'NONE', #329, #28, #158, .T. ) ;
#118 = CONICAL_SURFACE ( 'NONE', #84, 0.04900000000000000189, 0.7155849933176771094 ) ;
#119 = CARTESIAN_POINT ( 'NONE',  ( -0.3749500000000000610, 0.0000000000000000000, 0.0000000000000000000 ) ) ;
#120 = ORIENTED_EDGE ( 'NONE', *, *, #213, .T. ) ;
#121 = LINE ( 'NONE', #287, #280 ) ;
#122 = DIRECTION ( 'NONE',  ( -1.000000000000000000, 0.0000000000000000000, 0.0000000000000000000 ) ) ;
#123 = CONICAL_SURFACE ( 'NONE', #253, 0.3600000000000002642, 0.7853981633974324028 ) ;
#124 = CARTESIAN_POINT ( 'NONE',  ( 0.0000000000000000000, 0.0000000000000000000, 0.0000000000000000000 ) ) ;
#125 = DIRECTION ( 'NONE',  ( 0.0000000000000000000, 0.0000000000000000000, 1.000000000000000000 ) ) ;
#126 = CARTESIAN_POINT ( 'NONE',  ( 0.0000000000000000000, 0.0000000000000000000, 0.0000000000000000000 ) ) ;
#127 = EDGE_CURVE ( 'NONE', #196, #142, #207, .T. ) ;
#128 = DIRECTION ( 'NONE',  ( 1.000000000000000000, 0.0000000000000000000, 0.0000000000000000000 ) ) ;
#129 = LINE ( 'NONE', #296, #260 ) ;
#130 = AXIS2_PLACEMENT_3D ( 'NONE', #135, #113, #37 ) ;
#131 = CARTESIAN_POINT ( 'NONE',  ( 0.3750000000000000555, 4.592425496802575451E-17, 2.484999999999999876 ) ) ;
#132 = ADVANCED_FACE ( 'NONE', ( #210 ), #290, .T. ) ;
#133 = EDGE_LOOP ( 'NONE', ( #60, #309, #339, #226 ) ) ;
#134 = MANIFOLD_SOLID_BREP ( 'Cut-Revolve2', #4 ) ;
#135 = CARTESIAN_POINT ( 'NONE',  ( 0.0000000000000000000, 0.0000000000000000000, 1.125000000000000000 ) ) ;
#136 = EDGE_LOOP ( 'NONE', ( #227, #244, #223, #251 ) ) ;
#137 = FILL_AREA_STYLE_COLOUR ( '', #344 ) ;
#138 = ORIENTED_EDGE ( 'NONE', *, *, #1, .F. ) ;
#139 = ORIENTED_EDGE ( 'NONE', *, *, #213, .F. ) ;
#140 = ADVANCED_FACE ( 'NONE', ( #323 ), #291, .T. ) ;
#141 = LENGTH_MEASURE_WITH_UNIT ( LENGTH_MEASURE( 0.02539999999999999897 ), #337 );
#142 = VERTEX_POINT ( 'NONE', #103 ) ;
#143 = EDGE_CURVE ( 'NONE', #111, #275, #221, .T. ) ;
#144 = AXIS2_PLACEMENT_3D ( 'NONE', #261, #342, #122 ) ;
#145 =( NAMED_UNIT ( * ) PLANE_ANGLE_UNIT ( ) SI_UNIT ( $, .RADIAN. ) );
#146 = DIRECTION ( 'NONE',  ( 0.0000000000000000000, 0.0000000000000000000, -1.000000000000000000 ) ) ;
#147 = FACE_OUTER_BOUND ( 'NONE', #133, .T. ) ;
#148 = DIRECTION ( 'NONE',  ( 0.0000000000000000000, 0.0000000000000000000, 1.000000000000000000 ) ) ;
#149 = DIRECTION ( 'NONE',  ( -0.0000000000000000000, -0.0000000000000000000, -1.000000000000000000 ) ) ;
#150 = DIRECTION ( 'NONE',  ( 1.000000000000000000, 0.0000000000000000000, 0.0000000000000000000 ) ) ;
#151 = AXIS2_PLACEMENT_3D ( 'NONE', #124, #183, #187 ) ;
#152 = CIRCLE ( 'NONE', #312, 0.3749500000000001165 ) ;
#153 = DIRECTION ( 'NONE',  ( 1.000000000000000000, 0.0000000000000000000, -0.0000000000000000000 ) ) ;
#154 = CARTESIAN_POINT ( 'NONE',  ( 0.0000000000000000000, 0.0000000000000000000, 0.0000000000000000000 ) ) ;
#155 = EDGE_CURVE ( 'NONE', #36, #197, #129, .T. ) ;
#156 = SURFACE_STYLE_FILL_AREA ( #48 ) ;
#157 = CARTESIAN_POINT ( 'NONE',  ( 0.0000000000000000000, 0.0000000000000000000, 2.500000000000000000 ) ) ;
#158 = CIRCLE ( 'NONE', #151, 0.04900000000000000189 ) ;
#159 = AXIS2_PLACEMENT_3D ( 'NONE', #161, #214, #297 ) ;
#160 = EDGE_CURVE ( 'NONE', #168, #249, #152, .T. ) ;
#161 = CARTESIAN_POINT ( 'NONE',  ( 0.0000000000000000000, 0.0000000000000000000, 2.484999999999999876 ) ) ;
#162 = ADVANCED_FACE ( 'NONE', ( #325 ), #123, .T. ) ;
#163 = DIRECTION ( 'NONE',  ( 0.0000000000000000000, 0.0000000000000000000, 1.000000000000000000 ) ) ;
#164 = MECHANICAL_DESIGN_GEOMETRIC_PRESENTATION_REPRESENTATION (  '', ( #30 ), #55 ) ;
#165 = DIMENSIONAL_EXPONENTS ( 1.000000000000000000, 0.0000000000000000000, 0.0000000000000000000, 0.0000000000000000000, 0.0000000000000000000, 0.0000000000000000000, 0.0000000000000000000 ) ;
#166 = DIRECTION ( 'NONE',  ( -0.0000000000000000000, -0.0000000000000000000, -1.000000000000000000 ) ) ;
#167 =( NAMED_UNIT ( * ) SI_UNIT ( $, .STERADIAN. ) SOLID_ANGLE_UNIT ( ) );
#168 = VERTEX_POINT ( 'NONE', #212 ) ;
#169 = ORIENTED_EDGE ( 'NONE', *, *, #39, .F. ) ;
#170 = AXIS2_PLACEMENT_3D ( 'NONE', #7, #56, #174 ) ;
#171 = EDGE_CURVE ( 'NONE', #142, #197, #233, .T. ) ;
#172 = SURFACE_SIDE_STYLE ('',( #254 ) ) ;
#173 = ORIENTED_EDGE ( 'NONE', *, *, #117, .F. ) ;
#174 = DIRECTION ( 'NONE',  ( -1.000000000000000000, 0.0000000000000000000, 0.0000000000000000000 ) ) ;
#175 = EDGE_LOOP ( 'NONE', ( #3, #120 ) ) ;
#176 = DIRECTION ( 'NONE',  ( 1.000000000000000000, 0.0000000000000000000, 0.0000000000000000000 ) ) ;
#177 = EDGE_CURVE ( 'NONE', #36, #196, #35, .T. ) ;
#178 = AXIS2_PLACEMENT_3D ( 'NONE', #232, #146, #94 ) ;
#179 = VECTOR ( 'NONE', #88, 39.37007874015748854 ) ;
#180 = DIRECTION ( 'NONE',  ( -0.7071067811865362485, 0.0000000000000000000, -0.7071067811865586750 ) ) ;
#181 = DIRECTION ( 'NONE',  ( 0.0000000000000000000, 0.0000000000000000000, 1.000000000000000000 ) ) ;
#182 = PRODUCT_CONTEXT ( 'NONE', #250, 'mechanical' ) ;
#183 = DIRECTION ( 'NONE',  ( -0.0000000000000000000, -0.0000000000000000000, -1.000000000000000000 ) ) ;
#184 = COLOUR_RGB ( '',0.7921568627450980005, 0.8196078431372548767, 0.9333333333333333481 ) ;
#185 = PRODUCT_DEFINITION ( 'UNKNOWN', '', #42, #262 ) ;
#186 = CONICAL_SURFACE ( 'NONE', #77, 0.3749500000000001165, 0.7853981633974501664 ) ;
#187 = DIRECTION ( 'NONE',  ( -1.000000000000000000, 0.0000000000000000000, 0.0000000000000000000 ) ) ;
#188 = DIRECTION ( 'NONE',  ( -0.0000000000000000000, -0.0000000000000000000, -1.000000000000000000 ) ) ;
#189 = FACE_OUTER_BOUND ( 'NONE', #302, .T. ) ;
#190 = DIRECTION ( 'NONE',  ( -1.000000000000000000, 0.0000000000000000000, 0.0000000000000000000 ) ) ;
#191 = AXIS2_PLACEMENT_3D ( 'NONE', #2, #188, #190 ) ;
#192 = CARTESIAN_POINT ( 'NONE',  ( 0.0000000000000000000, 0.0000000000000000000, 2.500000000000000000 ) ) ;
#193 = CARTESIAN_POINT ( 'NONE',  ( -0.3749500000000001165, 4.591813173403002577E-17, 1.125000000000000000 ) ) ;
#194 = LINE ( 'NONE', #331, #179 ) ;
#195 = AXIS2_PLACEMENT_3D ( 'NONE', #346, #268, #317 ) ;
#196 = VERTEX_POINT ( 'NONE', #131 ) ;
#197 = VERTEX_POINT ( 'NONE', #105 ) ;
#198 = ORIENTED_EDGE ( 'NONE', *, *, #155, .T. ) ;
#199 = PRODUCT_RELATED_PRODUCT_CATEGORY ( 'part', '', ( #289 ) ) ;
#200 = ORIENTED_EDGE ( 'NONE', *, *, #13, .F. ) ;
#201 = EDGE_LOOP ( 'NONE', ( #91, #281, #198, #78 ) ) ;
#202 = EDGE_CURVE ( 'NONE', #249, #197, #25, .T. ) ;
#203 = CARTESIAN_POINT ( 'NONE',  ( 0.0000000000000000000, 0.0000000000000000000, 2.500000000000000000 ) ) ;
#204 = VECTOR ( 'NONE', #295, 39.37007874015748143 ) ;
#205 = CARTESIAN_POINT ( 'NONE',  ( 0.0000000000000000000, 0.0000000000000000000, 0.0000000000000000000 ) ) ;
#206 = APPLICATION_CONTEXT ( 'automotive_design' ) ;
#207 = LINE ( 'NONE', #93, #47 ) ;
#208 = DIRECTION ( 'NONE',  ( 0.6560590289905088301, 0.0000000000000000000, 0.7547095802227706818 ) ) ;
#209 = AXIS2_PLACEMENT_3D ( 'NONE', #83, #222, #61 ) ;
#210 = FACE_OUTER_BOUND ( 'NONE', #175, .T. ) ;
#211 = DIRECTION ( 'NONE',  ( 0.0000000000000000000, 0.0000000000000000000, 1.000000000000000000 ) ) ;
#212 = CARTESIAN_POINT ( 'NONE',  ( 0.3749500000000001165, 0.0000000000000000000, 1.125000000000000000 ) ) ;
#213 = EDGE_CURVE ( 'NONE', #275, #111, #51, .T. ) ;
#214 = DIRECTION ( 'NONE',  ( 0.0000000000000000000, 0.0000000000000000000, -1.000000000000000000 ) ) ;
#215 = AXIS2_PLACEMENT_3D ( 'NONE', #157, #163, #243 ) ;
#216 = ORIENTED_EDGE ( 'NONE', *, *, #45, .T. ) ;
#217 = CARTESIAN_POINT ( 'NONE',  ( 0.0000000000000000000, 0.0000000000000000000, 1.125000000000000000 ) ) ;
#218 = DIRECTION ( 'NONE',  ( 0.0000000000000000000, 0.0000000000000000000, 1.000000000000000000 ) ) ;
#219 = ADVANCED_FACE ( 'NONE', ( #6 ), #239, .T. ) ;
#220 = DIRECTION ( 'NONE',  ( -0.0000000000000000000, -0.0000000000000000000, -1.000000000000000000 ) ) ;
#221 = CIRCLE ( 'NONE', #215, 0.3600000000000002642 ) ;
#222 = DIRECTION ( 'NONE',  ( -0.0000000000000000000, -0.0000000000000000000, -1.000000000000000000 ) ) ;
#223 = ORIENTED_EDGE ( 'NONE', *, *, #13, .T. ) ;
#224 = UNCERTAINTY_MEASURE_WITH_UNIT (LENGTH_MEASURE( 1.000000000000000082E-05 ), #247, 'distance_accuracy_value', 'NONE');
#225 =( CONVERSION_BASED_UNIT ( 'INCH', #333 ) LENGTH_UNIT ( ) NAMED_UNIT ( #165 ) );
#226 = ORIENTED_EDGE ( 'NONE', *, *, #313, .F. ) ;
#227 = ORIENTED_EDGE ( 'NONE', *, *, #330, .F. ) ;
#228 = PRESENTATION_LAYER_ASSIGNMENT (  '', '', ( #30 ) ) ;
#229 = CIRCLE ( 'NONE', #112, 0.04900000000000000189 ) ;
#230 = ORIENTED_EDGE ( 'NONE', *, *, #39, .T. ) ;
#231 = CARTESIAN_POINT ( 'NONE',  ( -0.3750000000000000555, 0.0000000000000000000, 2.484999999999999876 ) ) ;
#232 = CARTESIAN_POINT ( 'NONE',  ( 0.0000000000000000000, 0.0000000000000000000, 2.500000000000000000 ) ) ;
#233 = CIRCLE ( 'NONE', #10, 0.3750000000000000555 ) ;
#234 =( CONVERSION_BASED_UNIT ( 'INCH', #141 ) LENGTH_UNIT ( ) NAMED_UNIT ( #256 ) );
#235 = PLANE ( 'NONE',  #26 ) ;
#236 = UNCERTAINTY_MEASURE_WITH_UNIT (LENGTH_MEASURE( 1.000000000000000082E-05 ), #225, 'distance_accuracy_value', 'NONE');
#237 = ADVANCED_FACE ( 'NONE', ( #189 ), #186, .T. ) ;
#238 = DIRECTION ( 'NONE',  ( 1.000000000000000000, 0.0000000000000000000, -0.0000000000000000000 ) ) ;
#239 = CONICAL_SURFACE ( 'NONE', #294, 0.04900000000000000189, 0.7155849933176771094 ) ;
#240 = CARTESIAN_POINT ( 'NONE',  ( 0.0000000000000000000, 0.0000000000000000000, 1.125000000000000000 ) ) ;
#241 =( NAMED_UNIT ( * ) SI_UNIT ( $, .STERADIAN. ) SOLID_ANGLE_UNIT ( ) );
#242 = ORIENTED_EDGE ( 'NONE', *, *, #160, .T. ) ;
#243 = DIRECTION ( 'NONE',  ( 1.000000000000000000, 0.0000000000000000000, 0.0000000000000000000 ) ) ;
#244 = ORIENTED_EDGE ( 'NONE', *, *, #143, .F. ) ;
#245 = PRESENTATION_STYLE_ASSIGNMENT (( #349 ) ) ;
#246 = EDGE_CURVE ( 'NONE', #168, #255, #74, .T. ) ;
#247 =( CONVERSION_BASED_UNIT ( 'INCH', #49 ) LENGTH_UNIT ( ) NAMED_UNIT ( #79 ) );
#248 =( LENGTH_UNIT ( ) NAMED_UNIT ( * ) SI_UNIT ( $, .METRE. ) );
#249 = VERTEX_POINT ( 'NONE', #277 ) ;
#250 = APPLICATION_CONTEXT ( 'automotive_design' ) ;
#251 = ORIENTED_EDGE ( 'NONE', *, *, #347, .F. ) ;
#252 = AXIS2_PLACEMENT_3D ( 'NONE', #67, #181, #288 ) ;
#253 = AXIS2_PLACEMENT_3D ( 'NONE', #192, #270, #53 ) ;
#254 = SURFACE_STYLE_FILL_AREA ( #303 ) ;
#255 = VERTEX_POINT ( 'NONE', #9 ) ;
#256 = DIMENSIONAL_EXPONENTS ( 1.000000000000000000, 0.0000000000000000000, 0.0000000000000000000, 0.0000000000000000000, 0.0000000000000000000, 0.0000000000000000000, 0.0000000000000000000 ) ;
#257 = SURFACE_STYLE_USAGE ( .BOTH. , #172 ) ;
#258 = CARTESIAN_POINT ( 'NONE',  ( 0.3749500000000001165, 0.0000000000000000000, 1.125000000000000000 ) ) ;
#259 = CARTESIAN_POINT ( 'NONE',  ( 0.0000000000000000000, 0.0000000000000000000, 0.0000000000000000000 ) ) ;
#260 = VECTOR ( 'NONE', #27, 39.37007874015748143 ) ;
#261 = CARTESIAN_POINT ( 'NONE',  ( 0.0000000000000000000, 0.0000000000000000000, 0.3749625823336866226 ) ) ;
#262 = PRODUCT_DEFINITION_CONTEXT ( 'detailed design', #206, 'design' ) ;
#263 = CARTESIAN_POINT ( 'NONE',  ( 0.0000000000000000000, 0.0000000000000000000, 2.500000000000000000 ) ) ;
#264 = CONICAL_SURFACE ( 'NONE', #178, 0.3600000000000002642, 0.7853981633974324028 ) ;
#265 = AXIS2_PLACEMENT_3D ( 'NONE', #327, #274, #17 ) ;
#266 = PRODUCT_DEFINITION_SHAPE ( 'NONE', 'NONE',  #185 ) ;
#267 = LINE ( 'NONE', #18, #76 ) ;
#268 = DIRECTION ( 'NONE',  ( -0.0000000000000000000, -0.0000000000000000000, -1.000000000000000000 ) ) ;
#269 = EDGE_CURVE ( 'NONE', #89, #255, #95, .T. ) ;
#270 = DIRECTION ( 'NONE',  ( 0.0000000000000000000, 0.0000000000000000000, -1.000000000000000000 ) ) ;
#271 = ORIENTED_EDGE ( 'NONE', *, *, #276, .F. ) ;
#272 = EDGE_LOOP ( 'NONE', ( #90, #62, #63, #40 ) ) ;
#273 = CARTESIAN_POINT ( 'NONE',  ( 0.0000000000000000000, 0.0000000000000000000, 2.500000000000000000 ) ) ;
#274 = DIRECTION ( 'NONE',  ( 0.0000000000000000000, 0.0000000000000000000, -1.000000000000000000 ) ) ;
#275 = VERTEX_POINT ( 'NONE', #86 ) ;
#276 = EDGE_CURVE ( 'NONE', #28, #329, #229, .T. ) ;
#277 = CARTESIAN_POINT ( 'NONE',  ( -0.3749500000000001165, 4.592119335102788706E-17, 1.125000000000000000 ) ) ;
#278 = ORIENTED_EDGE ( 'NONE', *, *, #45, .F. ) ;
#279 = CYLINDRICAL_SURFACE ( 'NONE', #170, 0.3749500000000000610 ) ;
#280 = VECTOR ( 'NONE', #208, 39.37007874015748143 ) ;
#281 = ORIENTED_EDGE ( 'NONE', *, *, #347, .T. ) ;
#282 = VECTOR ( 'NONE', #326, 39.37007874015748143 ) ;
#283 = DIRECTION ( 'NONE',  ( -1.000000000000000000, 0.0000000000000000000, 0.0000000000000000000 ) ) ;
#284 = ORIENTED_EDGE ( 'NONE', *, *, #307, .F. ) ;
#285 = ORIENTED_EDGE ( 'NONE', *, *, #155, .F. ) ;
#286 = FACE_OUTER_BOUND ( 'NONE', #16, .T. ) ;
#287 = CARTESIAN_POINT ( 'NONE',  ( 0.04900000000000000189, 0.0000000000000000000, 0.0000000000000000000 ) ) ;
#288 = DIRECTION ( 'NONE',  ( 1.000000000000000000, 0.0000000000000000000, 0.0000000000000000000 ) ) ;
#289 = PRODUCT ( 'Micro_SPD-750-082', 'Micro_SPD-750-082', '', ( #182 ) ) ;
#290 = PLANE ( 'NONE',  #338 ) ;
#291 = CYLINDRICAL_SURFACE ( 'NONE', #191, 0.3750000000000000555 ) ;
#292 = DIRECTION ( 'NONE',  ( 0.0000000000000000000, 0.0000000000000000000, 1.000000000000000000 ) ) ;
#293 = ORIENTED_EDGE ( 'NONE', *, *, #177, .T. ) ;
#294 = AXIS2_PLACEMENT_3D ( 'NONE', #110, #218, #128 ) ;
#295 = DIRECTION ( 'NONE',  ( -0.7071067811865487940, 8.659560562354948882E-17, 0.7071067811865462405 ) ) ;
#296 = CARTESIAN_POINT ( 'NONE',  ( -0.3750000000000000555, 0.0000000000000000000, 2.500000000000000000 ) ) ;
#297 = DIRECTION ( 'NONE',  ( 1.000000000000000000, 0.0000000000000000000, 0.0000000000000000000 ) ) ;
#298 = FACE_OUTER_BOUND ( 'NONE', #301, .T. ) ;
#299 = STYLED_ITEM ( 'NONE', ( #15 ), #66 ) ;
#300 =( NAMED_UNIT ( * ) PLANE_ANGLE_UNIT ( ) SI_UNIT ( $, .RADIAN. ) );
#301 = EDGE_LOOP ( 'NONE', ( #12, #242, #87, #169 ) ) ;
#302 = EDGE_LOOP ( 'NONE', ( #284, #324, #340, #138 ) ) ;
#303 = FILL_AREA_STYLE ('',( #137 ) ) ;
#304 = AXIS2_PLACEMENT_3D ( 'NONE', #263, #149, #341 ) ;
#305 = ORIENTED_EDGE ( 'NONE', *, *, #177, .F. ) ;
#306 =( GEOMETRIC_REPRESENTATION_CONTEXT ( 3 ) GLOBAL_UNCERTAINTY_ASSIGNED_CONTEXT ( ( #335 ) ) GLOBAL_UNIT_ASSIGNED_CONTEXT ( ( #234, #145, #96 ) ) REPRESENTATION_CONTEXT ( 'NONE', 'WORKASPACE' ) );
#307 = EDGE_CURVE ( 'NONE', #249, #168, #328, .T. ) ;
#308 = LINE ( 'NONE', #119, #282 ) ;
#309 = ORIENTED_EDGE ( 'NONE', *, *, #246, .T. ) ;
#310 = ORIENTED_EDGE ( 'NONE', *, *, #276, .T. ) ;
#311 = FACE_OUTER_BOUND ( 'NONE', #11, .T. ) ;
#312 = AXIS2_PLACEMENT_3D ( 'NONE', #217, #72, #104 ) ;
#313 = EDGE_CURVE ( 'NONE', #249, #89, #308, .T. ) ;
#314 = DIRECTION ( 'NONE',  ( 0.0000000000000000000, 0.0000000000000000000, 1.000000000000000000 ) ) ;
#315 = APPLICATION_PROTOCOL_DEFINITION ( 'draft international standard', 'automotive_design', 1998, #206 ) ;
#316 = DIRECTION ( 'NONE',  ( -0.0000000000000000000, -0.0000000000000000000, -1.000000000000000000 ) ) ;
#317 = DIRECTION ( 'NONE',  ( 1.000000000000000000, 0.0000000000000000000, 0.0000000000000000000 ) ) ;
#318 = CYLINDRICAL_SURFACE ( 'NONE', #343, 0.3749500000000000610 ) ;
#319 = DIRECTION ( 'NONE',  ( 1.000000000000000000, 0.0000000000000000000, 0.0000000000000000000 ) ) ;
#320 = DIRECTION ( 'NONE',  ( -0.0000000000000000000, -0.0000000000000000000, -1.000000000000000000 ) ) ;
#321 = CIRCLE ( 'NONE', #144, 0.3749500000000000610 ) ;
#322 = AXIS2_PLACEMENT_3D ( 'NONE', #273, #292, #32 ) ;
#323 = FACE_OUTER_BOUND ( 'NONE', #201, .T. ) ;
#324 = ORIENTED_EDGE ( 'NONE', *, *, #202, .T. ) ;
#325 = FACE_OUTER_BOUND ( 'NONE', #136, .T. ) ;
#326 = DIRECTION ( 'NONE',  ( -0.0000000000000000000, -0.0000000000000000000, -1.000000000000000000 ) ) ;
#327 = CARTESIAN_POINT ( 'NONE',  ( 0.0000000000000000000, 0.0000000000000000000, 2.484999999999999876 ) ) ;
#328 = CIRCLE ( 'NONE', #130, 0.3749500000000001165 ) ;
#329 = VERTEX_POINT ( 'NONE', #115 ) ;
#330 = EDGE_CURVE ( 'NONE', #275, #196, #194, .T. ) ;
#331 = CARTESIAN_POINT ( 'NONE',  ( 0.3600000000000002642, 4.408728476930474110E-17, 2.500000000000000000 ) ) ;
#332 = ORIENTED_EDGE ( 'NONE', *, *, #330, .T. ) ;
#333 = LENGTH_MEASURE_WITH_UNIT ( LENGTH_MEASURE( 0.02539999999999999897 ), #248 );
#334 = ORIENTED_EDGE ( 'NONE', *, *, #68, .F. ) ;
#335 = UNCERTAINTY_MEASURE_WITH_UNIT (LENGTH_MEASURE( 1.000000000000000082E-05 ), #234, 'distance_accuracy_value', 'NONE');
#336 = ADVANCED_FACE ( 'NONE', ( #298 ), #279, .T. ) ;
#337 =( LENGTH_UNIT ( ) NAMED_UNIT ( * ) SI_UNIT ( $, .METRE. ) );
#338 = AXIS2_PLACEMENT_3D ( 'NONE', #203, #46, #153 ) ;
#339 = ORIENTED_EDGE ( 'NONE', *, *, #269, .F. ) ;
#340 = ORIENTED_EDGE ( 'NONE', *, *, #58, .T. ) ;
#341 = DIRECTION ( 'NONE',  ( -1.000000000000000000, 0.0000000000000000000, 0.0000000000000000000 ) ) ;
#342 = DIRECTION ( 'NONE',  ( -0.0000000000000000000, -0.0000000000000000000, -1.000000000000000000 ) ) ;
#343 = AXIS2_PLACEMENT_3D ( 'NONE', #126, #345, #41 ) ;
#344 = COLOUR_RGB ( '',0.7921568627450980005, 0.8196078431372548767, 0.9333333333333333481 ) ;
#345 = DIRECTION ( 'NONE',  ( -0.0000000000000000000, -0.0000000000000000000, -1.000000000000000000 ) ) ;
#346 = CARTESIAN_POINT ( 'NONE',  ( 0.0000000000000000000, 0.0000000000000000000, 1.125049999999999883 ) ) ;
#347 = EDGE_CURVE ( 'NONE', #196, #36, #21, .T. ) ;
#348 = CARTESIAN_POINT ( 'NONE',  ( -0.3600000000000002642, 0.0000000000000000000, 2.500000000000000000 ) ) ;
#349 = SURFACE_STYLE_USAGE ( .BOTH. , #29 ) ;
ENDSEC;
END-ISO-10303-21;
