ISO-10303-21;
HEADER;
FILE_DESCRIPTION (( 'STEP AP214' ),
    '1' );
FILE_NAME ('48261.STEP',
    '2023-06-22T21:21:01',
    ( '' ),
    ( '' ),
    'SwSTEP 2.0',
    'SolidWorks 2023',
    '' );
FILE_SCHEMA (( 'AUTOMOTIVE_DESIGN' ));
ENDSEC;

DATA;
#1 = CARTESIAN_POINT ( 'NONE',  ( -0.1875000000000001388, 2.500000000000000000, 0.000000000000000000 ) ) ;
#2 = SURFACE_STYLE_USAGE ( .BOTH. , #83 ) ;
#3 = DIRECTION ( 'NONE',  ( -1.000000000000000000, 0.000000000000000000, 0.000000000000000000 ) ) ;
#4 = PRODUCT_RELATED_PRODUCT_CATEGORY ( 'part', '', ( #89 ) ) ;
#5 = VECTOR ( 'NONE', #91, 39.37007874015748143 ) ;
#6 = MECHANICAL_DESIGN_GEOMETRIC_PRESENTATION_REPRESENTATION (  '', ( #156 ), #229 ) ;
#7 = DIRECTION ( 'NONE',  ( 1.000000000000000000, 4.082155997157843818E-17, 0.000000000000000000 ) ) ;
#8 = PLANE ( 'NONE',  #51 ) ;
#9 =( NAMED_UNIT ( * ) PLANE_ANGLE_UNIT ( ) SI_UNIT ( $, .RADIAN. ) );
#10 = UNCERTAINTY_MEASURE_WITH_UNIT (LENGTH_MEASURE( 1.000000000000000082E-05 ), #268, 'distance_accuracy_value', 'NONE');
#11 = DIRECTION ( 'NONE',  ( -4.082155997157843818E-17, 1.000000000000000000, -0.000000000000000000 ) ) ;
#12 = EDGE_CURVE ( 'NONE', #98, #100, #283, .T. ) ;
#13 = SURFACE_STYLE_USAGE ( .BOTH. , #232 ) ;
#14 = LINE ( 'NONE', #186, #79 ) ;
#15 = DIRECTION ( 'NONE',  ( -1.000000000000000000, -4.082155997157843818E-17, 0.000000000000000000 ) ) ;
#16 = FACE_OUTER_BOUND ( 'NONE', #122, .T. ) ;
#17 =( CONVERSION_BASED_UNIT ( 'INCH', #72 ) LENGTH_UNIT ( ) NAMED_UNIT ( #218 ) );
#18 =( NAMED_UNIT ( * ) PLANE_ANGLE_UNIT ( ) SI_UNIT ( $, .RADIAN. ) );
#19 = UNCERTAINTY_MEASURE_WITH_UNIT (LENGTH_MEASURE( 1.000000000000000082E-05 ), #235, 'distance_accuracy_value', 'NONE');
#20 = SURFACE_SIDE_STYLE ('',( #63 ) ) ;
#21 = CIRCLE ( 'NONE', #236, 0.1875000000000001110 ) ;
#22 = AXIS2_PLACEMENT_3D ( 'NONE', #75, #115, #219 ) ;
#23 =( CONVERSION_BASED_UNIT ( 'INCH', #96 ) LENGTH_UNIT ( ) NAMED_UNIT ( #168 ) );
#24 = LENGTH_MEASURE_WITH_UNIT ( LENGTH_MEASURE( 0.02539999999999999897 ), #147 );
#25 = AXIS2_PLACEMENT_3D ( 'NONE', #180, #215, #176 ) ;
#26 = DIRECTION ( 'NONE',  ( -0.000000000000000000, -1.000000000000000000, -0.000000000000000000 ) ) ;
#27 = PRESENTATION_STYLE_ASSIGNMENT (( #99 ) ) ;
#28 = DIRECTION ( 'NONE',  ( 0.000000000000000000, 0.000000000000000000, -1.000000000000000000 ) ) ;
#29 = ORIENTED_EDGE ( 'NONE', *, *, #144, .F. ) ;
#30 = MECHANICAL_DESIGN_GEOMETRIC_PRESENTATION_REPRESENTATION (  '', ( #164 ), #241 ) ;
#31 = ORIENTED_EDGE ( 'NONE', *, *, #299, .T. ) ;
#32 = CARTESIAN_POINT ( 'NONE',  ( 0.000000000000000000, 0.000000000000000000, 0.000000000000000000 ) ) ;
#33 = ORIENTED_EDGE ( 'NONE', *, *, #70, .F. ) ;
#34 = CARTESIAN_POINT ( 'NONE',  ( 0.1875000000000000555, 2.500000000000000000, 0.000000000000000000 ) ) ;
#35 = SURFACE_STYLE_FILL_AREA ( #159 ) ;
#36 = MECHANICAL_DESIGN_GEOMETRIC_PRESENTATION_REPRESENTATION (  '', ( #231 ), #214 ) ;
#37 = CARTESIAN_POINT ( 'NONE',  ( 0.000000000000000000, 1.000000000000000000, 0.000000000000000000 ) ) ;
#38 = LENGTH_MEASURE_WITH_UNIT ( LENGTH_MEASURE( 0.02539999999999999897 ), #250 );
#39 = FILL_AREA_STYLE ('',( #296 ) ) ;
#40 = FACE_OUTER_BOUND ( 'NONE', #226, .T. ) ;
#41 = PRESENTATION_LAYER_ASSIGNMENT (  '', '', ( #156 ) ) ;
#42 = DIRECTION ( 'NONE',  ( -0.000000000000000000, -1.000000000000000000, -0.000000000000000000 ) ) ;
#43 = APPLICATION_PROTOCOL_DEFINITION ( 'draft international standard', 'automotive_design', 1998, #227 ) ;
#44 = CARTESIAN_POINT ( 'NONE',  ( 0.000000000000000000, 0.000000000000000000, 0.000000000000000000 ) ) ;
#45 =( NAMED_UNIT ( * ) SI_UNIT ( $, .STERADIAN. ) SOLID_ANGLE_UNIT ( ) );
#46 = APPLICATION_PROTOCOL_DEFINITION ( 'draft international standard', 'automotive_design', 1998, #146 ) ;
#47 =( LENGTH_UNIT ( ) NAMED_UNIT ( * ) SI_UNIT ( $, .METRE. ) );
#48 = SURFACE_STYLE_FILL_AREA ( #304 ) ;
#49 = SURFACE_STYLE_USAGE ( .BOTH. , #259 ) ;
#50 = PRESENTATION_LAYER_ASSIGNMENT (  '', '', ( #298 ) ) ;
#51 = AXIS2_PLACEMENT_3D ( 'NONE', #37, #86, #157 ) ;
#52 = DIRECTION ( 'NONE',  ( -4.082155997157843818E-17, 1.000000000000000000, -0.000000000000000000 ) ) ;
#53 = PRODUCT_DEFINITION ( 'UNKNOWN', '', #125, #90 ) ;
#54 = ORIENTED_EDGE ( 'NONE', *, *, #58, .T. ) ;
#55 = VERTEX_POINT ( 'NONE', #306 ) ;
#56 = ORIENTED_EDGE ( 'NONE', *, *, #299, .F. ) ;
#57 = AXIS2_PLACEMENT_3D ( 'NONE', #271, #64, #15 ) ;
#58 = EDGE_CURVE ( 'NONE', #100, #98, #248, .T. ) ;
#59 = PRESENTATION_STYLE_ASSIGNMENT (( #2 ) ) ;
#60 = ORIENTED_EDGE ( 'NONE', *, *, #269, .T. ) ;
#61 = PLANE ( 'NONE',  #225 ) ;
#62 = SURFACE_SIDE_STYLE ('',( #35 ) ) ;
#63 = SURFACE_STYLE_FILL_AREA ( #152 ) ;
#64 = DIRECTION ( 'NONE',  ( -4.082155997157843818E-17, 1.000000000000000000, 0.000000000000000000 ) ) ;
#65 =( NAMED_UNIT ( * ) SI_UNIT ( $, .STERADIAN. ) SOLID_ANGLE_UNIT ( ) );
#66 = CARTESIAN_POINT ( 'NONE',  ( 0.000000000000000000, 0.000000000000000000, 0.000000000000000000 ) ) ;
#67 = STYLED_ITEM ( 'NONE', ( #252 ), #82 ) ;
#68 = PLANE ( 'NONE',  #143 ) ;
#69 = DIRECTION ( 'NONE',  ( 1.000000000000000000, 0.000000000000000000, 0.000000000000000000 ) ) ;
#70 = EDGE_CURVE ( 'NONE', #104, #287, #169, .T. ) ;
#71 = FILL_AREA_STYLE_COLOUR ( '', #132 ) ;
#72 = LENGTH_MEASURE_WITH_UNIT ( LENGTH_MEASURE( 0.02539999999999999897 ), #47 );
#73 = SURFACE_STYLE_FILL_AREA ( #286 ) ;
#74 = CARTESIAN_POINT ( 'NONE',  ( 0.000000000000000000, 0.000000000000000000, 0.000000000000000000 ) ) ;
#75 = CARTESIAN_POINT ( 'NONE',  ( 0.000000000000000000, 1.000000000000000000, 0.000000000000000000 ) ) ;
#76 = ADVANCED_FACE ( 'NONE', ( #174 ), #178, .T. ) ;
#77 = MANIFOLD_SOLID_BREP ( 'Revolve - Cutting Edge', #109 ) ;
#78 = ORIENTED_EDGE ( 'NONE', *, *, #269, .F. ) ;
#79 = VECTOR ( 'NONE', #276, 39.37007874015748143 ) ;
#80 = DIRECTION ( 'NONE',  ( -4.082155997157843818E-17, 1.000000000000000000, -0.000000000000000000 ) ) ;
#81 = CARTESIAN_POINT ( 'NONE',  ( 0.000000000000000000, 0.000000000000000000, 0.000000000000000000 ) ) ;
#82 = ADVANCED_FACE ( 'NONE', ( #277 ), #290, .T. ) ;
#83 = SURFACE_SIDE_STYLE ('',( #265 ) ) ;
#84 =( NAMED_UNIT ( * ) SI_UNIT ( $, .STERADIAN. ) SOLID_ANGLE_UNIT ( ) );
#85 = PLANE ( 'NONE',  #57 ) ;
#86 = DIRECTION ( 'NONE',  ( 0.000000000000000000, 1.000000000000000000, 0.000000000000000000 ) ) ;
#87 = AXIS2_PLACEMENT_3D ( 'NONE', #74, #189, #69 ) ;
#88 = ADVANCED_BREP_SHAPE_REPRESENTATION ( '48261', ( #77, #278, #87 ), #308 ) ;
#89 = PRODUCT ( '48261', '48261', '', ( #113 ) ) ;
#90 = PRODUCT_DEFINITION_CONTEXT ( 'detailed design', #146, 'design' ) ;
#91 = DIRECTION ( 'NONE',  ( -4.082155997157843818E-17, 1.000000000000000000, -0.000000000000000000 ) ) ;
#92 = EDGE_CURVE ( 'NONE', #287, #172, #21, .T. ) ;
#93 = AXIS2_PLACEMENT_3D ( 'NONE', #32, #42, #162 ) ;
#94 = ADVANCED_FACE ( 'NONE', ( #40 ), #85, .F. ) ;
#95 = CARTESIAN_POINT ( 'NONE',  ( 0.000000000000000000, 1.000000000000000000, 0.000000000000000000 ) ) ;
#96 = LENGTH_MEASURE_WITH_UNIT ( LENGTH_MEASURE( 0.02539999999999999897 ), #117 );
#97 = DIMENSIONAL_EXPONENTS ( 1.000000000000000000, 0.000000000000000000, 0.000000000000000000, 0.000000000000000000, 0.000000000000000000, 0.000000000000000000, 0.000000000000000000 ) ;
#98 = VERTEX_POINT ( 'NONE', #129 ) ;
#99 = SURFACE_STYLE_USAGE ( .BOTH. , #238 ) ;
#100 = VERTEX_POINT ( 'NONE', #185 ) ;
#101 =( NAMED_UNIT ( * ) PLANE_ANGLE_UNIT ( ) SI_UNIT ( $, .RADIAN. ) );
#102 = DIRECTION ( 'NONE',  ( -0.000000000000000000, -1.000000000000000000, -0.000000000000000000 ) ) ;
#103 = ORIENTED_EDGE ( 'NONE', *, *, #149, .T. ) ;
#104 = VERTEX_POINT ( 'NONE', #210 ) ;
#105 = PRESENTATION_LAYER_ASSIGNMENT (  '', '', ( #67 ) ) ;
#106 =( GEOMETRIC_REPRESENTATION_CONTEXT ( 3 ) GLOBAL_UNCERTAINTY_ASSIGNED_CONTEXT ( ( #19 ) ) GLOBAL_UNIT_ASSIGNED_CONTEXT ( ( #235, #18, #84 ) ) REPRESENTATION_CONTEXT ( 'NONE', 'WORKASPACE' ) );
#107 = FILL_AREA_STYLE ('',( #205 ) ) ;
#108 = FACE_OUTER_BOUND ( 'NONE', #303, .T. ) ;
#109 = CLOSED_SHELL ( 'NONE', ( #216, #123, #82, #253 ) ) ;
#110 = EDGE_CURVE ( 'NONE', #126, #172, #138, .T. ) ;
#111 = CARTESIAN_POINT ( 'NONE',  ( -6.123233995736766036E-17, 2.500000000000000000, 0.000000000000000000 ) ) ;
#112 = DIRECTION ( 'NONE',  ( -4.082155997157843818E-17, 1.000000000000000000, -0.000000000000000000 ) ) ;
#113 = PRODUCT_CONTEXT ( 'NONE', #227, 'mechanical' ) ;
#114 =( NAMED_UNIT ( * ) PLANE_ANGLE_UNIT ( ) SI_UNIT ( $, .RADIAN. ) );
#115 = DIRECTION ( 'NONE',  ( -0.000000000000000000, -1.000000000000000000, -0.000000000000000000 ) ) ;
#116 = DIMENSIONAL_EXPONENTS ( 1.000000000000000000, 0.000000000000000000, 0.000000000000000000, 0.000000000000000000, 0.000000000000000000, 0.000000000000000000, 0.000000000000000000 ) ;
#117 =( LENGTH_UNIT ( ) NAMED_UNIT ( * ) SI_UNIT ( $, .METRE. ) );
#118 = AXIS2_PLACEMENT_3D ( 'NONE', #262, #195, #201 ) ;
#119 = DIMENSIONAL_EXPONENTS ( 1.000000000000000000, 0.000000000000000000, 0.000000000000000000, 0.000000000000000000, 0.000000000000000000, 0.000000000000000000, 0.000000000000000000 ) ;
#120 = FACE_OUTER_BOUND ( 'NONE', #196, .T. ) ;
#121 = ORIENTED_EDGE ( 'NONE', *, *, #12, .T. ) ;
#122 = EDGE_LOOP ( 'NONE', ( #121, #54 ) ) ;
#123 = ADVANCED_FACE ( 'NONE', ( #108 ), #8, .T. ) ;
#124 = VERTEX_POINT ( 'NONE', #133 ) ;
#125 = PRODUCT_DEFINITION_FORMATION_WITH_SPECIFIED_SOURCE ( 'ANY', '', #89, .NOT_KNOWN. ) ;
#126 = VERTEX_POINT ( 'NONE', #137 ) ;
#127 = UNCERTAINTY_MEASURE_WITH_UNIT (LENGTH_MEASURE( 1.000000000000000082E-05 ), #190, 'distance_accuracy_value', 'NONE');
#128 =( LENGTH_UNIT ( ) NAMED_UNIT ( * ) SI_UNIT ( $, .METRE. ) );
#129 = CARTESIAN_POINT ( 'NONE',  ( 0.000000000000000000, 0.000000000000000000, -0.1875000000000000278 ) ) ;
#130 = FILL_AREA_STYLE_COLOUR ( '', #179 ) ;
#131 = CLOSED_SHELL ( 'NONE', ( #76, #94, #274, #197 ) ) ;
#132 = COLOUR_RGB ( '',0.7921568627450980005, 0.8196078431372548767, 0.9333333333333333481 ) ;
#133 = CARTESIAN_POINT ( 'NONE',  ( 0.000000000000000000, 1.000000000000000000, -0.1875000000000000555 ) ) ;
#134 = CARTESIAN_POINT ( 'NONE',  ( 0.1875000000000000278, 2.500000000000000000, 2.296212748401288342E-17 ) ) ;
#135 = DIRECTION ( 'NONE',  ( -4.082155997157843818E-17, 1.000000000000000000, -0.000000000000000000 ) ) ;
#136 = SURFACE_STYLE_FILL_AREA ( #39 ) ;
#137 = CARTESIAN_POINT ( 'NONE',  ( 0.1875000000000000555, 1.000000000000000000, 2.296212748401288342E-17 ) ) ;
#138 = LINE ( 'NONE', #134, #5 ) ;
#139 =( CONVERSION_BASED_UNIT ( 'INCH', #211 ) LENGTH_UNIT ( ) NAMED_UNIT ( #116 ) );
#140 = PRODUCT_DEFINITION_SHAPE ( 'NONE', 'NONE',  #53 ) ;
#141 = DIRECTION ( 'NONE',  ( 4.082155997157843818E-17, -1.000000000000000000, 0.000000000000000000 ) ) ;
#142 = STYLED_ITEM ( 'NONE', ( #145 ), #77 ) ;
#143 = AXIS2_PLACEMENT_3D ( 'NONE', #44, #239, #285 ) ;
#144 = EDGE_CURVE ( 'NONE', #126, #104, #273, .T. ) ;
#145 = PRESENTATION_STYLE_ASSIGNMENT (( #49 ) ) ;
#146 = APPLICATION_CONTEXT ( 'automotive_design' ) ;
#147 =( LENGTH_UNIT ( ) NAMED_UNIT ( * ) SI_UNIT ( $, .METRE. ) );
#148 = ORIENTED_EDGE ( 'NONE', *, *, #301, .T. ) ;
#149 = EDGE_CURVE ( 'NONE', #55, #100, #14, .T. ) ;
#150 = ORIENTED_EDGE ( 'NONE', *, *, #12, .F. ) ;
#151 = EDGE_LOOP ( 'NONE', ( #31, #103, #150, #224 ) ) ;
#152 = FILL_AREA_STYLE ('',( #130 ) ) ;
#153 = FILL_AREA_STYLE_COLOUR ( '', #264 ) ;
#154 = PRESENTATION_STYLE_ASSIGNMENT (( #212 ) ) ;
#155 =( GEOMETRIC_REPRESENTATION_CONTEXT ( 3 ) GLOBAL_UNCERTAINTY_ASSIGNED_CONTEXT ( ( #209 ) ) GLOBAL_UNIT_ASSIGNED_CONTEXT ( ( #230, #9, #65 ) ) REPRESENTATION_CONTEXT ( 'NONE', 'WORKASPACE' ) );
#156 = STYLED_ITEM ( 'NONE', ( #154 ), #253 ) ;
#157 = DIRECTION ( 'NONE',  ( 0.000000000000000000, -0.000000000000000000, 1.000000000000000000 ) ) ;
#158 = DIRECTION ( 'NONE',  ( 0.000000000000000000, 0.000000000000000000, -1.000000000000000000 ) ) ;
#159 = FILL_AREA_STYLE ('',( #181 ) ) ;
#160 = AXIS2_PLACEMENT_3D ( 'NONE', #81, #26, #28 ) ;
#161 = CIRCLE ( 'NONE', #25, 0.1875000000000001110 ) ;
#162 = DIRECTION ( 'NONE',  ( 0.000000000000000000, 0.000000000000000000, -1.000000000000000000 ) ) ;
#163 = LINE ( 'NONE', #284, #198 ) ;
#164 = STYLED_ITEM ( 'NONE', ( #165 ), #123 ) ;
#165 = PRESENTATION_STYLE_ASSIGNMENT (( #13 ) ) ;
#166 = EDGE_CURVE ( 'NONE', #172, #287, #161, .T. ) ;
#167 =( NAMED_UNIT ( * ) PLANE_ANGLE_UNIT ( ) SI_UNIT ( $, .RADIAN. ) );
#168 = DIMENSIONAL_EXPONENTS ( 1.000000000000000000, 0.000000000000000000, 0.000000000000000000, 0.000000000000000000, 0.000000000000000000, 0.000000000000000000, 0.000000000000000000 ) ;
#169 = LINE ( 'NONE', #1, #307 ) ;
#170 = CARTESIAN_POINT ( 'NONE',  ( -6.123233995736766036E-17, 2.500000000000000000, 0.000000000000000000 ) ) ;
#171 = PRESENTATION_LAYER_ASSIGNMENT (  '', '', ( #231 ) ) ;
#172 = VERTEX_POINT ( 'NONE', #246 ) ;
#173 = DIMENSIONAL_EXPONENTS ( 1.000000000000000000, 0.000000000000000000, 0.000000000000000000, 0.000000000000000000, 0.000000000000000000, 0.000000000000000000, 0.000000000000000000 ) ;
#174 = FACE_OUTER_BOUND ( 'NONE', #305, .T. ) ;
#175 = ORIENTED_EDGE ( 'NONE', *, *, #144, .T. ) ;
#176 = DIRECTION ( 'NONE',  ( -1.000000000000000000, 0.000000000000000000, 0.000000000000000000 ) ) ;
#177 = AXIS2_PLACEMENT_3D ( 'NONE', #289, #102, #199 ) ;
#178 = CYLINDRICAL_SURFACE ( 'NONE', #118, 0.1875000000000000833 ) ;
#179 = COLOUR_RGB ( '',1.000000000000000000, 0.000000000000000000, 0.000000000000000000 ) ;
#180 = CARTESIAN_POINT ( 'NONE',  ( -6.123233995736766036E-17, 2.500000000000000000, 0.000000000000000000 ) ) ;
#181 = FILL_AREA_STYLE_COLOUR ( '', #192 ) ;
#182 = DIRECTION ( 'NONE',  ( -1.000000000000000000, 0.000000000000000000, 0.000000000000000000 ) ) ;
#183 =( NAMED_UNIT ( * ) PLANE_ANGLE_UNIT ( ) SI_UNIT ( $, .RADIAN. ) );
#184 = MECHANICAL_DESIGN_GEOMETRIC_PRESENTATION_REPRESENTATION (  '', ( #142 ), #202 ) ;
#185 = CARTESIAN_POINT ( 'NONE',  ( 2.296212748401287726E-17, 0.000000000000000000, 0.1875000000000000278 ) ) ;
#186 = CARTESIAN_POINT ( 'NONE',  ( 2.296212748401288034E-17, 0.000000000000000000, 0.1875000000000000555 ) ) ;
#187 = FACE_OUTER_BOUND ( 'NONE', #151, .T. ) ;
#188 = AXIS2_PLACEMENT_3D ( 'NONE', #95, #256, #300 ) ;
#189 = DIRECTION ( 'NONE',  ( 0.000000000000000000, 0.000000000000000000, 1.000000000000000000 ) ) ;
#190 =( CONVERSION_BASED_UNIT ( 'INCH', #24 ) LENGTH_UNIT ( ) NAMED_UNIT ( #97 ) );
#191 = DIRECTION ( 'NONE',  ( -0.000000000000000000, -1.000000000000000000, -0.000000000000000000 ) ) ;
#192 = COLOUR_RGB ( '',1.000000000000000000, 0.000000000000000000, 0.000000000000000000 ) ;
#193 = DIRECTION ( 'NONE',  ( -1.000000000000000000, 0.000000000000000000, 0.000000000000000000 ) ) ;
#194 = MECHANICAL_DESIGN_GEOMETRIC_PRESENTATION_REPRESENTATION (  '', ( #298 ), #106 ) ;
#195 = DIRECTION ( 'NONE',  ( -4.082155997157843818E-17, 1.000000000000000000, -0.000000000000000000 ) ) ;
#196 = EDGE_LOOP ( 'NONE', ( #309, #175, #242, #223 ) ) ;
#197 = ADVANCED_FACE ( 'NONE', ( #234 ), #61, .F. ) ;
#198 = VECTOR ( 'NONE', #191, 39.37007874015748143 ) ;
#199 = DIRECTION ( 'NONE',  ( 0.000000000000000000, 0.000000000000000000, -1.000000000000000000 ) ) ;
#200 = ORIENTED_EDGE ( 'NONE', *, *, #92, .T. ) ;
#201 = DIRECTION ( 'NONE',  ( -1.000000000000000000, 0.000000000000000000, 0.000000000000000000 ) ) ;
#202 =( GEOMETRIC_REPRESENTATION_CONTEXT ( 3 ) GLOBAL_UNCERTAINTY_ASSIGNED_CONTEXT ( ( #10 ) ) GLOBAL_UNIT_ASSIGNED_CONTEXT ( ( #268, #183, #293 ) ) REPRESENTATION_CONTEXT ( 'NONE', 'WORKASPACE' ) );
#203 = CARTESIAN_POINT ( 'NONE',  ( 0.000000000000000000, 1.000000000000000000, 0.000000000000000000 ) ) ;
#204 = COLOUR_RGB ( '',1.000000000000000000, 0.000000000000000000, 0.000000000000000000 ) ;
#205 = FILL_AREA_STYLE_COLOUR ( '', #204 ) ;
#206 = DIRECTION ( 'NONE',  ( -0.000000000000000000, -1.000000000000000000, -0.000000000000000000 ) ) ;
#207 = SURFACE_STYLE_USAGE ( .BOTH. , #62 ) ;
#208 = PRESENTATION_LAYER_ASSIGNMENT (  '', '', ( #164 ) ) ;
#209 = UNCERTAINTY_MEASURE_WITH_UNIT (LENGTH_MEASURE( 1.000000000000000082E-05 ), #230, 'distance_accuracy_value', 'NONE');
#210 = CARTESIAN_POINT ( 'NONE',  ( -0.1875000000000000555, 1.000000000000000000, 0.000000000000000000 ) ) ;
#211 = LENGTH_MEASURE_WITH_UNIT ( LENGTH_MEASURE( 0.02539999999999999897 ), #128 );
#212 = SURFACE_STYLE_USAGE ( .BOTH. , #20 ) ;
#213 = UNCERTAINTY_MEASURE_WITH_UNIT (LENGTH_MEASURE( 1.000000000000000082E-05 ), #139, 'distance_accuracy_value', 'NONE');
#214 =( GEOMETRIC_REPRESENTATION_CONTEXT ( 3 ) GLOBAL_UNCERTAINTY_ASSIGNED_CONTEXT ( ( #127 ) ) GLOBAL_UNIT_ASSIGNED_CONTEXT ( ( #190, #281, #45 ) ) REPRESENTATION_CONTEXT ( 'NONE', 'WORKASPACE' ) );
#215 = DIRECTION ( 'NONE',  ( -4.082155997157843818E-17, 1.000000000000000000, -0.000000000000000000 ) ) ;
#216 = ADVANCED_FACE ( 'NONE', ( #187 ), #291, .T. ) ;
#217 = CARTESIAN_POINT ( 'NONE',  ( -0.1875000000000001943, 2.500000000000000000, 0.000000000000000000 ) ) ;
#218 = DIMENSIONAL_EXPONENTS ( 1.000000000000000000, 0.000000000000000000, 0.000000000000000000, 0.000000000000000000, 0.000000000000000000, 0.000000000000000000, 0.000000000000000000 ) ;
#219 = DIRECTION ( 'NONE',  ( 0.000000000000000000, 0.000000000000000000, -1.000000000000000000 ) ) ;
#220 = CIRCLE ( 'NONE', #188, 0.1875000000000000555 ) ;
#221 = ORIENTED_EDGE ( 'NONE', *, *, #92, .F. ) ;
#222 = CYLINDRICAL_SURFACE ( 'NONE', #254, 0.1875000000000000833 ) ;
#223 = ORIENTED_EDGE ( 'NONE', *, *, #166, .F. ) ;
#224 = ORIENTED_EDGE ( 'NONE', *, *, #301, .F. ) ;
#225 = AXIS2_PLACEMENT_3D ( 'NONE', #34, #141, #7 ) ;
#226 = EDGE_LOOP ( 'NONE', ( #247, #29 ) ) ;
#227 = APPLICATION_CONTEXT ( 'automotive_design' ) ;
#228 = ORIENTED_EDGE ( 'NONE', *, *, #251, .T. ) ;
#229 =( GEOMETRIC_REPRESENTATION_CONTEXT ( 3 ) GLOBAL_UNCERTAINTY_ASSIGNED_CONTEXT ( ( #213 ) ) GLOBAL_UNIT_ASSIGNED_CONTEXT ( ( #139, #114, #280 ) ) REPRESENTATION_CONTEXT ( 'NONE', 'WORKASPACE' ) );
#230 =( CONVERSION_BASED_UNIT ( 'INCH', #38 ) LENGTH_UNIT ( ) NAMED_UNIT ( #173 ) );
#231 = STYLED_ITEM ( 'NONE', ( #27 ), #278 ) ;
#232 = SURFACE_SIDE_STYLE ('',( #136 ) ) ;
#233 = LENGTH_MEASURE_WITH_UNIT ( LENGTH_MEASURE( 0.02539999999999999897 ), #292 );
#234 = FACE_OUTER_BOUND ( 'NONE', #266, .T. ) ;
#235 =( CONVERSION_BASED_UNIT ( 'INCH', #267 ) LENGTH_UNIT ( ) NAMED_UNIT ( #282 ) );
#236 = AXIS2_PLACEMENT_3D ( 'NONE', #111, #11, #294 ) ;
#237 = SHAPE_DEFINITION_REPRESENTATION ( #140, #88 ) ;
#238 = SURFACE_SIDE_STYLE ('',( #48 ) ) ;
#239 = DIRECTION ( 'NONE',  ( 0.000000000000000000, -1.000000000000000000, -0.000000000000000000 ) ) ;
#240 =( NAMED_UNIT ( * ) SI_UNIT ( $, .STERADIAN. ) SOLID_ANGLE_UNIT ( ) );
#241 =( GEOMETRIC_REPRESENTATION_CONTEXT ( 3 ) GLOBAL_UNCERTAINTY_ASSIGNED_CONTEXT ( ( #275 ) ) GLOBAL_UNIT_ASSIGNED_CONTEXT ( ( #17, #101, #258 ) ) REPRESENTATION_CONTEXT ( 'NONE', 'WORKASPACE' ) );
#242 = ORIENTED_EDGE ( 'NONE', *, *, #70, .T. ) ;
#243 = ORIENTED_EDGE ( 'NONE', *, *, #166, .T. ) ;
#244 = EDGE_LOOP ( 'NONE', ( #261, #60, #148, #263 ) ) ;
#245 = ORIENTED_EDGE ( 'NONE', *, *, #110, .T. ) ;
#246 = CARTESIAN_POINT ( 'NONE',  ( 0.1875000000000000555, 2.500000000000000000, 2.296212748401288342E-17 ) ) ;
#247 = ORIENTED_EDGE ( 'NONE', *, *, #251, .F. ) ;
#248 = CIRCLE ( 'NONE', #177, 0.1875000000000000278 ) ;
#249 = AXIS2_PLACEMENT_3D ( 'NONE', #203, #135, #3 ) ;
#250 =( LENGTH_UNIT ( ) NAMED_UNIT ( * ) SI_UNIT ( $, .METRE. ) );
#251 = EDGE_CURVE ( 'NONE', #104, #126, #302, .T. ) ;
#252 = PRESENTATION_STYLE_ASSIGNMENT (( #207 ) ) ;
#253 = ADVANCED_FACE ( 'NONE', ( #16 ), #68, .T. ) ;
#254 = AXIS2_PLACEMENT_3D ( 'NONE', #170, #52, #193 ) ;
#255 = CARTESIAN_POINT ( 'NONE',  ( 0.000000000000000000, 1.000000000000000000, 0.000000000000000000 ) ) ;
#256 = DIRECTION ( 'NONE',  ( -0.000000000000000000, -1.000000000000000000, -0.000000000000000000 ) ) ;
#257 = AXIS2_PLACEMENT_3D ( 'NONE', #255, #112, #182 ) ;
#258 =( NAMED_UNIT ( * ) SI_UNIT ( $, .STERADIAN. ) SOLID_ANGLE_UNIT ( ) );
#259 = SURFACE_SIDE_STYLE ('',( #73 ) ) ;
#260 = UNCERTAINTY_MEASURE_WITH_UNIT (LENGTH_MEASURE( 1.000000000000000082E-05 ), #23, 'distance_accuracy_value', 'NONE');
#261 = ORIENTED_EDGE ( 'NONE', *, *, #149, .F. ) ;
#262 = CARTESIAN_POINT ( 'NONE',  ( -6.123233995736766036E-17, 2.500000000000000000, 0.000000000000000000 ) ) ;
#263 = ORIENTED_EDGE ( 'NONE', *, *, #58, .F. ) ;
#264 = COLOUR_RGB ( '',0.7921568627450980005, 0.8196078431372548767, 0.9333333333333333481 ) ;
#265 = SURFACE_STYLE_FILL_AREA ( #107 ) ;
#266 = EDGE_LOOP ( 'NONE', ( #200, #243 ) ) ;
#267 = LENGTH_MEASURE_WITH_UNIT ( LENGTH_MEASURE( 0.02539999999999999897 ), #270 );
#268 =( CONVERSION_BASED_UNIT ( 'INCH', #233 ) LENGTH_UNIT ( ) NAMED_UNIT ( #119 ) );
#269 = EDGE_CURVE ( 'NONE', #55, #124, #220, .T. ) ;
#270 =( LENGTH_UNIT ( ) NAMED_UNIT ( * ) SI_UNIT ( $, .METRE. ) );
#271 = CARTESIAN_POINT ( 'NONE',  ( 1.562249773606102102E-34, 1.000000000000000000, 0.000000000000000000 ) ) ;
#272 = COLOUR_RGB ( '',1.000000000000000000, 0.000000000000000000, 0.000000000000000000 ) ;
#273 = CIRCLE ( 'NONE', #249, 0.1875000000000000555 ) ;
#274 = ADVANCED_FACE ( 'NONE', ( #120 ), #222, .T. ) ;
#275 = UNCERTAINTY_MEASURE_WITH_UNIT (LENGTH_MEASURE( 1.000000000000000082E-05 ), #17, 'distance_accuracy_value', 'NONE');
#276 = DIRECTION ( 'NONE',  ( -0.000000000000000000, -1.000000000000000000, -0.000000000000000000 ) ) ;
#277 = FACE_OUTER_BOUND ( 'NONE', #244, .T. ) ;
#278 = MANIFOLD_SOLID_BREP ( 'Revolve - Tool Body (Straight Shanked)', #131 ) ;
#279 = MECHANICAL_DESIGN_GEOMETRIC_PRESENTATION_REPRESENTATION (  '', ( #67 ), #155 ) ;
#280 =( NAMED_UNIT ( * ) SI_UNIT ( $, .STERADIAN. ) SOLID_ANGLE_UNIT ( ) );
#281 =( NAMED_UNIT ( * ) PLANE_ANGLE_UNIT ( ) SI_UNIT ( $, .RADIAN. ) );
#282 = DIMENSIONAL_EXPONENTS ( 1.000000000000000000, 0.000000000000000000, 0.000000000000000000, 0.000000000000000000, 0.000000000000000000, 0.000000000000000000, 0.000000000000000000 ) ;
#283 = CIRCLE ( 'NONE', #160, 0.1875000000000000278 ) ;
#284 = CARTESIAN_POINT ( 'NONE',  ( 0.000000000000000000, 0.000000000000000000, -0.1875000000000000555 ) ) ;
#285 = DIRECTION ( 'NONE',  ( 0.000000000000000000, 0.000000000000000000, -1.000000000000000000 ) ) ;
#286 = FILL_AREA_STYLE ('',( #153 ) ) ;
#287 = VERTEX_POINT ( 'NONE', #217 ) ;
#288 = CIRCLE ( 'NONE', #22, 0.1875000000000000555 ) ;
#289 = CARTESIAN_POINT ( 'NONE',  ( 0.000000000000000000, 0.000000000000000000, 0.000000000000000000 ) ) ;
#290 = CYLINDRICAL_SURFACE ( 'NONE', #295, 0.1875000000000000555 ) ;
#291 = CYLINDRICAL_SURFACE ( 'NONE', #93, 0.1875000000000000555 ) ;
#292 =( LENGTH_UNIT ( ) NAMED_UNIT ( * ) SI_UNIT ( $, .METRE. ) );
#293 =( NAMED_UNIT ( * ) SI_UNIT ( $, .STERADIAN. ) SOLID_ANGLE_UNIT ( ) );
#294 = DIRECTION ( 'NONE',  ( -1.000000000000000000, 0.000000000000000000, 0.000000000000000000 ) ) ;
#295 = AXIS2_PLACEMENT_3D ( 'NONE', #66, #206, #158 ) ;
#296 = FILL_AREA_STYLE_COLOUR ( '', #272 ) ;
#297 = PRESENTATION_LAYER_ASSIGNMENT (  '', '', ( #142 ) ) ;
#298 = STYLED_ITEM ( 'NONE', ( #59 ), #216 ) ;
#299 = EDGE_CURVE ( 'NONE', #124, #55, #288, .T. ) ;
#300 = DIRECTION ( 'NONE',  ( 0.000000000000000000, 0.000000000000000000, -1.000000000000000000 ) ) ;
#301 = EDGE_CURVE ( 'NONE', #124, #98, #163, .T. ) ;
#302 = CIRCLE ( 'NONE', #257, 0.1875000000000000555 ) ;
#303 = EDGE_LOOP ( 'NONE', ( #56, #78 ) ) ;
#304 = FILL_AREA_STYLE ('',( #71 ) ) ;
#305 = EDGE_LOOP ( 'NONE', ( #228, #245, #221, #33 ) ) ;
#306 = CARTESIAN_POINT ( 'NONE',  ( 2.296212748401288034E-17, 1.000000000000000000, 0.1875000000000000555 ) ) ;
#307 = VECTOR ( 'NONE', #80, 39.37007874015748143 ) ;
#308 =( GEOMETRIC_REPRESENTATION_CONTEXT ( 3 ) GLOBAL_UNCERTAINTY_ASSIGNED_CONTEXT ( ( #260 ) ) GLOBAL_UNIT_ASSIGNED_CONTEXT ( ( #23, #167, #240 ) ) REPRESENTATION_CONTEXT ( 'NONE', 'WORKASPACE' ) );
#309 = ORIENTED_EDGE ( 'NONE', *, *, #110, .F. ) ;
ENDSEC;
END-ISO-10303-21;
