ISO-10303-21;
HEADER;
FILE_DESCRIPTION (( 'STEP AP214' ),
    '1' );
FILE_NAME ('Micro_SFBM-003-0X.STEP',
    '2021-09-03T16:34:45',
    ( '' ),
    ( '' ),
    'SwSTEP 2.0',
    'SolidWorks 2020',
    '' );
FILE_SCHEMA (( 'AUTOMOTIVE_DESIGN' ));
ENDSEC;

DATA;
#1 = FACE_OUTER_BOUND ( 'NONE', #185, .T. ) ;
#2 = ADVANCED_BREP_SHAPE_REPRESENTATION ( 'Micro_SFBM-003-0X', ( #226, #258 ), #363 ) ;
#3 =( NAMED_UNIT ( * ) PLANE_ANGLE_UNIT ( ) SI_UNIT ( $, .RADIAN. ) );
#4 = DIRECTION ( 'NONE',  ( -0.0000000000000000000, -0.0000000000000000000, -1.000000000000000000 ) ) ;
#5 = DIRECTION ( 'NONE',  ( -1.000000000000000000, 0.0000000000000000000, 0.0000000000000000000 ) ) ;
#6 = ORIENTED_EDGE ( 'NONE', *, *, #97, .F. ) ;
#7 = ORIENTED_EDGE ( 'NONE', *, *, #70, .T. ) ;
#8 =( LENGTH_UNIT ( ) NAMED_UNIT ( * ) SI_UNIT ( $, .METRE. ) );
#9 = SURFACE_SIDE_STYLE ('',( #118 ) ) ;
#10 = AXIS2_PLACEMENT_3D ( 'NONE', #308, #50, #161 ) ;
#11 = AXIS2_PLACEMENT_3D ( 'NONE', #303, #372, #209 ) ;
#12 = ORIENTED_EDGE ( 'NONE', *, *, #340, .T. ) ;
#13 = CARTESIAN_POINT ( 'NONE',  ( 0.0000000000000000000, 0.0000000000000000000, 0.0000000000000000000 ) ) ;
#14 = UNCERTAINTY_MEASURE_WITH_UNIT (LENGTH_MEASURE( 1.000000000000000082E-05 ), #254, 'distance_accuracy_value', 'NONE');
#15 = VERTEX_POINT ( 'NONE', #86 ) ;
#16 = AXIS2_PLACEMENT_3D ( 'NONE', #357, #30, #264 ) ;
#17 = VERTEX_POINT ( 'NONE', #107 ) ;
#18 = DIRECTION ( 'NONE',  ( -0.0000000000000000000, 0.0000000000000000000, -1.000000000000000000 ) ) ;
#19 = CARTESIAN_POINT ( 'NONE',  ( 0.0000000000000000000, 0.0000000000000000000, 2.244094000000000033 ) ) ;
#20 = DIRECTION ( 'NONE',  ( 0.0000000000000000000, 0.0000000000000000000, 1.000000000000000000 ) ) ;
#21 = ORIENTED_EDGE ( 'NONE', *, *, #327, .F. ) ;
#22 = CARTESIAN_POINT ( 'NONE',  ( 0.007874000000000002525, 0.0000000000000000000, 0.01574800000000000158 ) ) ;
#23 = CARTESIAN_POINT ( 'NONE',  ( 0.0000000000000000000, 0.0000000000000000000, 2.244094000000000033 ) ) ;
#24 = VECTOR ( 'NONE', #166, 39.37007874015748854 ) ;
#25 = DIRECTION ( 'NONE',  ( -0.0000000000000000000, -0.0000000000000000000, -1.000000000000000000 ) ) ;
#26 = AXIS2_PLACEMENT_3D ( 'NONE', #84, #162, #188 ) ;
#27 = FACE_OUTER_BOUND ( 'NONE', #128, .T. ) ;
#28 = DIRECTION ( 'NONE',  ( -0.0000000000000000000, -0.0000000000000000000, -1.000000000000000000 ) ) ;
#29 = DIRECTION ( 'NONE',  ( -0.0000000000000000000, -0.0000000000000000000, -1.000000000000000000 ) ) ;
#30 = DIRECTION ( 'NONE',  ( -0.0000000000000000000, -0.0000000000000000000, -1.000000000000000000 ) ) ;
#31 = CYLINDRICAL_SURFACE ( 'NONE', #82, 0.007874000000000002525 ) ;
#32 = VECTOR ( 'NONE', #231, 39.37007874015748854 ) ;
#33 = FACE_OUTER_BOUND ( 'NONE', #54, .T. ) ;
#34 = MECHANICAL_DESIGN_GEOMETRIC_PRESENTATION_REPRESENTATION (  '', ( #275 ), #205 ) ;
#35 = FACE_OUTER_BOUND ( 'NONE', #141, .T. ) ;
#36 = CARTESIAN_POINT ( 'NONE',  ( 0.1181100000000000066, 1.446430334472939084E-17, 2.244094000000000033 ) ) ;
#37 =( CONVERSION_BASED_UNIT ( 'INCH', #64 ) LENGTH_UNIT ( ) NAMED_UNIT ( #106 ) );
#38 = AXIS2_PLACEMENT_3D ( 'NONE', #13, #219, #78 ) ;
#39 = EDGE_CURVE ( 'NONE', #96, #243, #124, .T. ) ;
#40 = EDGE_CURVE ( 'NONE', #116, #96, #249, .T. ) ;
#41 = CIRCLE ( 'NONE', #239, 0.005904909450000010197 ) ;
#42 = VECTOR ( 'NONE', #191, 39.37007874015748143 ) ;
#43 = ORIENTED_EDGE ( 'NONE', *, *, #352, .T. ) ;
#44 = ORIENTED_EDGE ( 'NONE', *, *, #217, .F. ) ;
#45 = VERTEX_POINT ( 'NONE', #51 ) ;
#46 = FACE_OUTER_BOUND ( 'NONE', #238, .T. ) ;
#47 = DIRECTION ( 'NONE',  ( 1.000000000000000000, 0.0000000000000000000, 0.0000000000000000000 ) ) ;
#48 = EDGE_CURVE ( 'NONE', #330, #344, #214, .T. ) ;
#49 = ORIENTED_EDGE ( 'NONE', *, *, #154, .F. ) ;
#50 = DIRECTION ( 'NONE',  ( -0.0000000000000000000, -0.0000000000000000000, -1.000000000000000000 ) ) ;
#51 = CARTESIAN_POINT ( 'NONE',  ( -0.1031100000000002570, 0.0000000000000000000, 2.244094000000000033 ) ) ;
#52 = SURFACE_STYLE_USAGE ( .BOTH. , #250 ) ;
#53 = ADVANCED_FACE ( 'NONE', ( #190 ), #90, .T. ) ;
#54 = EDGE_LOOP ( 'NONE', ( #69, #179, #125, #215 ) ) ;
#55 = CIRCLE ( 'NONE', #210, 0.007874000000000002525 ) ;
#56 = CARTESIAN_POINT ( 'NONE',  ( -0.1181100000000000066, 0.0000000000000000000, 0.01574800000000002934 ) ) ;
#57 = CARTESIAN_POINT ( 'NONE',  ( 0.1031100000000002570, 1.262733314600838667E-17, 2.244094000000000033 ) ) ;
#58 = LENGTH_MEASURE_WITH_UNIT ( LENGTH_MEASURE( 0.02539999999999999897 ), #108 );
#59 = CARTESIAN_POINT ( 'NONE',  ( -0.005904909450000010197, 0.0000000000000000000, 0.01574799999999999811 ) ) ;
#60 = DIRECTION ( 'NONE',  ( -1.000000000000000000, 0.0000000000000000000, 0.0000000000000000000 ) ) ;
#61 = DIRECTION ( 'NONE',  ( -0.7071067811865358044, 0.0000000000000000000, -0.7071067811865590080 ) ) ;
#62 = AXIS2_PLACEMENT_3D ( 'NONE', #80, #129, #189 ) ;
#63 = SURFACE_STYLE_FILL_AREA ( #321 ) ;
#64 = LENGTH_MEASURE_WITH_UNIT ( LENGTH_MEASURE( 0.02539999999999999897 ), #8 );
#65 = CONICAL_SURFACE ( 'NONE', #322, 0.1031100000000002570, 0.7853981633974318477 ) ;
#66 = EDGE_LOOP ( 'NONE', ( #235, #299, #21, #302 ) ) ;
#67 = VECTOR ( 'NONE', #119, 39.37007874015748143 ) ;
#68 = EDGE_LOOP ( 'NONE', ( #213, #252, #279, #6 ) ) ;
#69 = ORIENTED_EDGE ( 'NONE', *, *, #261, .F. ) ;
#70 = EDGE_CURVE ( 'NONE', #15, #304, #41, .T. ) ;
#71 = CARTESIAN_POINT ( 'NONE',  ( 0.0000000000000000000, 0.0000000000000000000, 2.229093999999999465 ) ) ;
#72 = ORIENTED_EDGE ( 'NONE', *, *, #306, .T. ) ;
#73 = VECTOR ( 'NONE', #251, 39.37007874015748143 ) ;
#74 = CARTESIAN_POINT ( 'NONE',  ( -0.007874000000000002525, 0.0000000000000000000, 0.01574800000000000158 ) ) ;
#75 = DIRECTION ( 'NONE',  ( -1.000000000000000000, 0.0000000000000000000, 0.0000000000000000000 ) ) ;
#76 = EDGE_CURVE ( 'NONE', #17, #45, #326, .T. ) ;
#77 = ORIENTED_EDGE ( 'NONE', *, *, #310, .F. ) ;
#78 = DIRECTION ( 'NONE',  ( -1.000000000000000000, 0.0000000000000000000, 0.0000000000000000000 ) ) ;
#79 = DIRECTION ( 'NONE',  ( -1.000000000000000000, 0.0000000000000000000, 0.0000000000000000000 ) ) ;
#80 = CARTESIAN_POINT ( 'NONE',  ( 0.0000000000000000000, 0.0000000000000000000, 0.0000000000000000000 ) ) ;
#81 = DIRECTION ( 'NONE',  ( 1.000000000000000000, 0.0000000000000000000, 0.0000000000000000000 ) ) ;
#82 = AXIS2_PLACEMENT_3D ( 'NONE', #373, #355, #164 ) ;
#83 = FACE_OUTER_BOUND ( 'NONE', #94, .T. ) ;
#84 = CARTESIAN_POINT ( 'NONE',  ( 0.0000000000000000000, 0.0000000000000000000, 2.244094000000000033 ) ) ;
#85 = FACE_OUTER_BOUND ( 'NONE', #356, .T. ) ;
#86 = CARTESIAN_POINT ( 'NONE',  ( 0.005904909450000010197, 7.231428457197470251E-19, 0.0000000000000000000 ) ) ;
#87 = CARTESIAN_POINT ( 'NONE',  ( 0.0000000000000000000, 0.0000000000000000000, 0.0000000000000000000 ) ) ;
#88 = CIRCLE ( 'NONE', #177, 0.1181100000000000066 ) ;
#89 = PLANE ( 'NONE',  #314 ) ;
#90 = CONICAL_SURFACE ( 'NONE', #26, 0.1031100000000002570, 0.7853981633974318477 ) ;
#91 = CIRCLE ( 'NONE', #364, 0.1031100000000002570 ) ;
#92 = ADVANCED_FACE ( 'NONE', ( #1 ), #193, .T. ) ;
#93 = ADVANCED_FACE ( 'NONE', ( #378 ), #31, .T. ) ;
#94 = EDGE_LOOP ( 'NONE', ( #153, #334, #204, #208 ) ) ;
#95 = EDGE_LOOP ( 'NONE', ( #263, #371, #149, #44 ) ) ;
#96 = VERTEX_POINT ( 'NONE', #103 ) ;
#97 = EDGE_CURVE ( 'NONE', #134, #183, #280, .T. ) ;
#98 = DIRECTION ( 'NONE',  ( 1.000000000000000000, 0.0000000000000000000, 0.0000000000000000000 ) ) ;
#99 = VERTEX_POINT ( 'NONE', #312 ) ;
#100 = DIRECTION ( 'NONE',  ( 0.0000000000000000000, 0.0000000000000000000, -1.000000000000000000 ) ) ;
#101 = EDGE_CURVE ( 'NONE', #116, #304, #143, .T. ) ;
#102 = COLOUR_RGB ( '',0.7921568627450980005, 0.8196078431372548767, 0.9333333333333333481 ) ;
#103 = CARTESIAN_POINT ( 'NONE',  ( -0.007874000000000000790, 0.0000000000000000000, 0.004580732562604473979 ) ) ;
#104 = AXIS2_PLACEMENT_3D ( 'NONE', #130, #245, #79 ) ;
#105 = DIRECTION ( 'NONE',  ( 0.0000000000000000000, 0.0000000000000000000, -1.000000000000000000 ) ) ;
#106 = DIMENSIONAL_EXPONENTS ( 1.000000000000000000, 0.0000000000000000000, 0.0000000000000000000, 0.0000000000000000000, 0.0000000000000000000, 0.0000000000000000000, 0.0000000000000000000 ) ;
#107 = CARTESIAN_POINT ( 'NONE',  ( 0.1031100000000002570, 1.354581824536888722E-17, 2.244094000000000033 ) ) ;
#108 =( LENGTH_UNIT ( ) NAMED_UNIT ( * ) SI_UNIT ( $, .METRE. ) );
#109 = FACE_BOUND ( 'NONE', #359, .T. ) ;
#110 = CARTESIAN_POINT ( 'NONE',  ( -0.005904909450000010197, 0.0000000000000000000, 0.01574799999999999811 ) ) ;
#111 = DIRECTION ( 'NONE',  ( -1.000000000000000000, 0.0000000000000000000, 0.0000000000000000000 ) ) ;
#112 = AXIS2_PLACEMENT_3D ( 'NONE', #142, #256, #5 ) ;
#113 = APPLICATION_CONTEXT ( 'automotive_design' ) ;
#114 = LINE ( 'NONE', #36, #67 ) ;
#115 = APPLICATION_PROTOCOL_DEFINITION ( 'draft international standard', 'automotive_design', 1998, #113 ) ;
#116 = VERTEX_POINT ( 'NONE', #110 ) ;
#117 = CARTESIAN_POINT ( 'NONE',  ( 0.0000000000000000000, 0.0000000000000000000, 0.01574800000000002934 ) ) ;
#118 = SURFACE_STYLE_FILL_AREA ( #285 ) ;
#119 = DIRECTION ( 'NONE',  ( -0.0000000000000000000, -0.0000000000000000000, -1.000000000000000000 ) ) ;
#120 = EDGE_CURVE ( 'NONE', #344, #330, #55, .T. ) ;
#121 = AXIS2_PLACEMENT_3D ( 'NONE', #22, #18, #127 ) ;
#122 = SURFACE_STYLE_USAGE ( .BOTH. , #9 ) ;
#123 = EDGE_CURVE ( 'NONE', #17, #228, #315, .T. ) ;
#124 = CIRCLE ( 'NONE', #104, 0.007874000000000000790 ) ;
#125 = ORIENTED_EDGE ( 'NONE', *, *, #101, .T. ) ;
#126 = DIRECTION ( 'NONE',  ( 1.000000000000000000, 0.0000000000000000000, 0.0000000000000000000 ) ) ;
#127 = DIRECTION ( 'NONE',  ( -1.000000000000000000, 0.0000000000000000000, 0.0000000000000000000 ) ) ;
#128 = EDGE_LOOP ( 'NONE', ( #329, #253, #12, #301 ) ) ;
#129 = DIRECTION ( 'NONE',  ( -0.0000000000000000000, -0.0000000000000000000, -1.000000000000000000 ) ) ;
#130 = CARTESIAN_POINT ( 'NONE',  ( 0.0000000000000000000, 0.0000000000000000000, 0.004580732562604473979 ) ) ;
#131 = CARTESIAN_POINT ( 'NONE',  ( 0.1181100000000000066, 1.446430334472939084E-17, 0.01574800000000002934 ) ) ;
#132 = CIRCLE ( 'NONE', #362, 0.1181100000000000066 ) ;
#133 = CARTESIAN_POINT ( 'NONE',  ( 0.0000000000000000000, 0.0000000000000000000, 0.0000000000000000000 ) ) ;
#134 = VERTEX_POINT ( 'NONE', #286 ) ;
#135 = DIMENSIONAL_EXPONENTS ( 1.000000000000000000, 0.0000000000000000000, 0.0000000000000000000, 0.0000000000000000000, 0.0000000000000000000, 0.0000000000000000000, 0.0000000000000000000 ) ;
#136 = VECTOR ( 'NONE', #28, 39.37007874015748143 ) ;
#137 = DIRECTION ( 'NONE',  ( -1.000000000000000000, 0.0000000000000000000, 0.0000000000000000000 ) ) ;
#138 = CYLINDRICAL_SURFACE ( 'NONE', #282, 0.007874000000000002525 ) ;
#139 = ORIENTED_EDGE ( 'NONE', *, *, #332, .T. ) ;
#140 = LINE ( 'NONE', #199, #42 ) ;
#141 = EDGE_LOOP ( 'NONE', ( #72, #194 ) ) ;
#142 = CARTESIAN_POINT ( 'NONE',  ( 0.0000000000000000000, 0.0000000000000000000, 0.0000000000000000000 ) ) ;
#143 = LINE ( 'NONE', #283, #136 ) ;
#144 = CARTESIAN_POINT ( 'NONE',  ( 0.1181100000000000066, 1.446430334472939084E-17, 2.229093999999999465 ) ) ;
#145 = PLANE ( 'NONE',  #374 ) ;
#146 = EDGE_CURVE ( 'NONE', #45, #134, #255, .T. ) ;
#147 = ADVANCED_FACE ( 'NONE', ( #35 ), #145, .T. ) ;
#148 = CIRCLE ( 'NONE', #232, 0.1181100000000000066 ) ;
#149 = ORIENTED_EDGE ( 'NONE', *, *, #39, .F. ) ;
#150 = AXIS2_PLACEMENT_3D ( 'NONE', #277, #311, #240 ) ;
#151 = MECHANICAL_DESIGN_GEOMETRIC_PRESENTATION_REPRESENTATION (  '', ( #192 ), #341 ) ;
#152 = ORIENTED_EDGE ( 'NONE', *, *, #352, .F. ) ;
#153 = ORIENTED_EDGE ( 'NONE', *, *, #186, .F. ) ;
#154 = EDGE_CURVE ( 'NONE', #317, #183, #148, .T. ) ;
#155 = ORIENTED_EDGE ( 'NONE', *, *, #217, .T. ) ;
#156 = PLANE ( 'NONE',  #121 ) ;
#157 = VECTOR ( 'NONE', #195, 39.37007874015748143 ) ;
#158 = DIRECTION ( 'NONE',  ( -1.000000000000000000, 0.0000000000000000000, 0.0000000000000000000 ) ) ;
#159 = CARTESIAN_POINT ( 'NONE',  ( 0.005904909450000010197, 7.231428457197470251E-19, 0.0000000000000000000 ) ) ;
#160 = CARTESIAN_POINT ( 'NONE',  ( 0.0000000000000000000, 0.0000000000000000000, 0.01574800000000000158 ) ) ;
#161 = DIRECTION ( 'NONE',  ( -1.000000000000000000, 0.0000000000000000000, 0.0000000000000000000 ) ) ;
#162 = DIRECTION ( 'NONE',  ( 0.0000000000000000000, 0.0000000000000000000, -1.000000000000000000 ) ) ;
#163 = UNCERTAINTY_MEASURE_WITH_UNIT (LENGTH_MEASURE( 1.000000000000000082E-05 ), #37, 'distance_accuracy_value', 'NONE');
#164 = DIRECTION ( 'NONE',  ( -1.000000000000000000, 0.0000000000000000000, 0.0000000000000000000 ) ) ;
#165 = FILL_AREA_STYLE_COLOUR ( '', #102 ) ;
#166 = DIRECTION ( 'NONE',  ( 0.7071067811865358044, 8.659560562354788645E-17, -0.7071067811865590080 ) ) ;
#167 =( NAMED_UNIT ( * ) SI_UNIT ( $, .STERADIAN. ) SOLID_ANGLE_UNIT ( ) );
#168 = CARTESIAN_POINT ( 'NONE',  ( 0.0000000000000000000, 0.0000000000000000000, 0.0000000000000000000 ) ) ;
#169 = DIRECTION ( 'NONE',  ( -1.000000000000000000, 0.0000000000000000000, 0.0000000000000000000 ) ) ;
#170 = DIRECTION ( 'NONE',  ( 0.0000000000000000000, 0.0000000000000000000, 1.000000000000000000 ) ) ;
#171 = AXIS2_PLACEMENT_3D ( 'NONE', #276, #244, #184 ) ;
#172 = EDGE_LOOP ( 'NONE', ( #206, #270, #345, #152 ) ) ;
#173 = EDGE_CURVE ( 'NONE', #344, #243, #140, .T. ) ;
#174 = FACE_OUTER_BOUND ( 'NONE', #272, .T. ) ;
#175 = PRODUCT_RELATED_PRODUCT_CATEGORY ( 'part', '', ( #348 ) ) ;
#176 =( NAMED_UNIT ( * ) SI_UNIT ( $, .STERADIAN. ) SOLID_ANGLE_UNIT ( ) );
#177 = AXIS2_PLACEMENT_3D ( 'NONE', #71, #105, #126 ) ;
#178 = EDGE_CURVE ( 'NONE', #228, #317, #114, .T. ) ;
#179 = ORIENTED_EDGE ( 'NONE', *, *, #369, .T. ) ;
#180 = CIRCLE ( 'NONE', #10, 0.005904909450000010197 ) ;
#181 = CIRCLE ( 'NONE', #171, 0.1181100000000000066 ) ;
#182 = ORIENTED_EDGE ( 'NONE', *, *, #123, .T. ) ;
#183 = VERTEX_POINT ( 'NONE', #56 ) ;
#184 = DIRECTION ( 'NONE',  ( -1.000000000000000000, 0.0000000000000000000, 0.0000000000000000000 ) ) ;
#185 = EDGE_LOOP ( 'NONE', ( #196, #43, #338, #49 ) ) ;
#186 = EDGE_CURVE ( 'NONE', #99, #243, #361, .T. ) ;
#187 = DIRECTION ( 'NONE',  ( -0.0000000000000000000, -0.0000000000000000000, -1.000000000000000000 ) ) ;
#188 = DIRECTION ( 'NONE',  ( -1.000000000000000000, 0.0000000000000000000, 0.0000000000000000000 ) ) ;
#189 = DIRECTION ( 'NONE',  ( -1.000000000000000000, 0.0000000000000000000, 0.0000000000000000000 ) ) ;
#190 = FACE_OUTER_BOUND ( 'NONE', #172, .T. ) ;
#191 = DIRECTION ( 'NONE',  ( -0.0000000000000000000, -0.0000000000000000000, -1.000000000000000000 ) ) ;
#192 = STYLED_ITEM ( 'NONE', ( #281 ), #226 ) ;
#193 = CYLINDRICAL_SURFACE ( 'NONE', #221, 0.1181100000000000066 ) ;
#194 = ORIENTED_EDGE ( 'NONE', *, *, #76, .T. ) ;
#195 = DIRECTION ( 'NONE',  ( -0.0000000000000000000, -0.0000000000000000000, -1.000000000000000000 ) ) ;
#196 = ORIENTED_EDGE ( 'NONE', *, *, #178, .F. ) ;
#197 = CARTESIAN_POINT ( 'NONE',  ( 0.0000000000000000000, 0.0000000000000000000, 2.244094000000000033 ) ) ;
#198 = ORIENTED_EDGE ( 'NONE', *, *, #120, .F. ) ;
#199 = CARTESIAN_POINT ( 'NONE',  ( 0.007874000000000002525, 9.642868896486262361E-19, 0.0000000000000000000 ) ) ;
#200 = PRESENTATION_LAYER_ASSIGNMENT (  '', '', ( #192 ) ) ;
#201 = CARTESIAN_POINT ( 'NONE',  ( -0.007874000000000002525, 0.0000000000000000000, 0.0000000000000000000 ) ) ;
#202 = ADVANCED_FACE ( 'NONE', ( #174 ), #89, .F. ) ;
#203 = PRODUCT_DEFINITION ( 'UNKNOWN', '', #211, #337 ) ;
#204 = ORIENTED_EDGE ( 'NONE', *, *, #40, .T. ) ;
#205 =( GEOMETRIC_REPRESENTATION_CONTEXT ( 3 ) GLOBAL_UNCERTAINTY_ASSIGNED_CONTEXT ( ( #14 ) ) GLOBAL_UNIT_ASSIGNED_CONTEXT ( ( #254, #293, #316 ) ) REPRESENTATION_CONTEXT ( 'NONE', 'WORKASPACE' ) );
#206 = ORIENTED_EDGE ( 'NONE', *, *, #123, .F. ) ;
#207 = LINE ( 'NONE', #159, #73 ) ;
#208 = ORIENTED_EDGE ( 'NONE', *, *, #39, .T. ) ;
#209 = DIRECTION ( 'NONE',  ( -1.000000000000000000, 0.0000000000000000000, 0.0000000000000000000 ) ) ;
#210 = AXIS2_PLACEMENT_3D ( 'NONE', #259, #351, #111 ) ;
#211 = PRODUCT_DEFINITION_FORMATION_WITH_SPECIFIED_SOURCE ( 'ANY', '', #348, .NOT_KNOWN. ) ;
#212 = CARTESIAN_POINT ( 'NONE',  ( 0.0000000000000000000, 0.0000000000000000000, 0.0000000000000000000 ) ) ;
#213 = ORIENTED_EDGE ( 'NONE', *, *, #310, .T. ) ;
#214 = CIRCLE ( 'NONE', #323, 0.007874000000000002525 ) ;
#215 = ORIENTED_EDGE ( 'NONE', *, *, #70, .F. ) ;
#216 = CARTESIAN_POINT ( 'NONE',  ( -0.1181100000000000066, 0.0000000000000000000, 2.244094000000000033 ) ) ;
#217 = EDGE_CURVE ( 'NONE', #330, #96, #218, .T. ) ;
#218 = LINE ( 'NONE', #201, #157 ) ;
#219 = DIRECTION ( 'NONE',  ( -0.0000000000000000000, -0.0000000000000000000, -1.000000000000000000 ) ) ;
#220 = ORIENTED_EDGE ( 'NONE', *, *, #48, .F. ) ;
#221 = AXIS2_PLACEMENT_3D ( 'NONE', #289, #29, #75 ) ;
#222 = DIRECTION ( 'NONE',  ( -0.0000000000000000000, -0.0000000000000000000, -1.000000000000000000 ) ) ;
#223 = PRODUCT_DEFINITION_SHAPE ( 'NONE', 'NONE',  #203 ) ;
#224 = FACE_OUTER_BOUND ( 'NONE', #66, .T. ) ;
#225 = PRODUCT_CONTEXT ( 'NONE', #113, 'mechanical' ) ;
#226 = MANIFOLD_SOLID_BREP ( 'Cut-Revolve1', #236 ) ;
#227 = DIMENSIONAL_EXPONENTS ( 1.000000000000000000, 0.0000000000000000000, 0.0000000000000000000, 0.0000000000000000000, 0.0000000000000000000, 0.0000000000000000000, 0.0000000000000000000 ) ;
#228 = VERTEX_POINT ( 'NONE', #144 ) ;
#229 = DIRECTION ( 'NONE',  ( 0.0000000000000000000, 0.0000000000000000000, 1.000000000000000000 ) ) ;
#230 = PRESENTATION_STYLE_ASSIGNMENT (( #122 ) ) ;
#231 = DIRECTION ( 'NONE',  ( 0.1736481776669373533, 2.126576849575857580E-17, -0.9848077530122067991 ) ) ;
#232 = AXIS2_PLACEMENT_3D ( 'NONE', #117, #25, #137 ) ;
#233 = ADVANCED_FACE ( 'NONE', ( #83 ), #300, .F. ) ;
#234 = ADVANCED_FACE ( 'NONE', ( #224 ), #287, .T. ) ;
#235 = ORIENTED_EDGE ( 'NONE', *, *, #266, .T. ) ;
#236 = CLOSED_SHELL ( 'NONE', ( #294, #234, #296, #237, #324, #92, #147, #53, #343, #233, #248, #93, #202 ) ) ;
#237 = ADVANCED_FACE ( 'NONE', ( #85 ), #65, .T. ) ;
#238 = EDGE_LOOP ( 'NONE', ( #139, #365 ) ) ;
#239 = AXIS2_PLACEMENT_3D ( 'NONE', #133, #4, #278 ) ;
#240 = DIRECTION ( 'NONE',  ( -1.000000000000000000, 0.0000000000000000000, 0.0000000000000000000 ) ) ;
#241 = ORIENTED_EDGE ( 'NONE', *, *, #120, .T. ) ;
#242 = CARTESIAN_POINT ( 'NONE',  ( 0.007874000000000002525, 9.642868896486262361E-19, 0.01574800000000000158 ) ) ;
#243 = VERTEX_POINT ( 'NONE', #290 ) ;
#244 = DIRECTION ( 'NONE',  ( -0.0000000000000000000, -0.0000000000000000000, -1.000000000000000000 ) ) ;
#245 = DIRECTION ( 'NONE',  ( -0.0000000000000000000, -0.0000000000000000000, -1.000000000000000000 ) ) ;
#246 = AXIS2_PLACEMENT_3D ( 'NONE', #336, #379, #339 ) ;
#247 = FACE_OUTER_BOUND ( 'NONE', #68, .T. ) ;
#248 = ADVANCED_FACE ( 'NONE', ( #33 ), #260, .T. ) ;
#249 = LINE ( 'NONE', #59, #375 ) ;
#250 = SURFACE_SIDE_STYLE ('',( #63 ) ) ;
#251 = DIRECTION ( 'NONE',  ( -0.0000000000000000000, -0.0000000000000000000, -1.000000000000000000 ) ) ;
#252 = ORIENTED_EDGE ( 'NONE', *, *, #178, .T. ) ;
#253 = ORIENTED_EDGE ( 'NONE', *, *, #186, .T. ) ;
#254 =( CONVERSION_BASED_UNIT ( 'INCH', #325 ) LENGTH_UNIT ( ) NAMED_UNIT ( #227 ) );
#255 = LINE ( 'NONE', #291, #366 ) ;
#256 = DIRECTION ( 'NONE',  ( -0.0000000000000000000, -0.0000000000000000000, -1.000000000000000000 ) ) ;
#257 = DIRECTION ( 'NONE',  ( 1.000000000000000000, 0.0000000000000000000, 0.0000000000000000000 ) ) ;
#258 = AXIS2_PLACEMENT_3D ( 'NONE', #168, #288, #257 ) ;
#259 = CARTESIAN_POINT ( 'NONE',  ( 0.0000000000000000000, 0.0000000000000000000, 0.01574800000000000158 ) ) ;
#260 = CYLINDRICAL_SURFACE ( 'NONE', #38, 0.005904909450000010197 ) ;
#261 = EDGE_CURVE ( 'NONE', #99, #15, #207, .T. ) ;
#262 = CARTESIAN_POINT ( 'NONE',  ( 0.0000000000000000000, 0.0000000000000000000, 2.244094000000000033 ) ) ;
#263 = ORIENTED_EDGE ( 'NONE', *, *, #48, .T. ) ;
#264 = DIRECTION ( 'NONE',  ( -1.000000000000000000, 0.0000000000000000000, 0.0000000000000000000 ) ) ;
#265 = FILL_AREA_STYLE_COLOUR ( '', #298 ) ;
#266 = EDGE_CURVE ( 'NONE', #116, #99, #267, .T. ) ;
#267 = CIRCLE ( 'NONE', #150, 0.005904909450000010197 ) ;
#268 = CONICAL_SURFACE ( 'NONE', #246, 0.005904909450000010197, 0.1745329251994400810 ) ;
#269 = ORIENTED_EDGE ( 'NONE', *, *, #340, .F. ) ;
#270 = ORIENTED_EDGE ( 'NONE', *, *, #306, .F. ) ;
#271 = DIRECTION ( 'NONE',  ( -0.0000000000000000000, -0.0000000000000000000, -1.000000000000000000 ) ) ;
#272 = EDGE_LOOP ( 'NONE', ( #307, #7 ) ) ;
#273 = ORIENTED_EDGE ( 'NONE', *, *, #173, .F. ) ;
#274 = CIRCLE ( 'NONE', #62, 0.005904909450000010197 ) ;
#275 = STYLED_ITEM ( 'NONE', ( #230 ), #2 ) ;
#276 = CARTESIAN_POINT ( 'NONE',  ( 0.0000000000000000000, 0.0000000000000000000, 0.01574800000000002934 ) ) ;
#277 = CARTESIAN_POINT ( 'NONE',  ( 0.0000000000000000000, 0.0000000000000000000, 0.01574799999999999811 ) ) ;
#278 = DIRECTION ( 'NONE',  ( -1.000000000000000000, 0.0000000000000000000, 0.0000000000000000000 ) ) ;
#279 = ORIENTED_EDGE ( 'NONE', *, *, #332, .F. ) ;
#280 = LINE ( 'NONE', #216, #353 ) ;
#281 = PRESENTATION_STYLE_ASSIGNMENT (( #52 ) ) ;
#282 = AXIS2_PLACEMENT_3D ( 'NONE', #212, #271, #305 ) ;
#283 = CARTESIAN_POINT ( 'NONE',  ( -0.005904909450000010197, 0.0000000000000000000, 0.0000000000000000000 ) ) ;
#284 = CARTESIAN_POINT ( 'NONE',  ( 0.005904909450000010197, 7.231428457197470251E-19, 0.01574799999999999811 ) ) ;
#285 = FILL_AREA_STYLE ('',( #265 ) ) ;
#286 = CARTESIAN_POINT ( 'NONE',  ( -0.1181100000000000066, 0.0000000000000000000, 2.229093999999999465 ) ) ;
#287 = CYLINDRICAL_SURFACE ( 'NONE', #112, 0.005904909450000010197 ) ;
#288 = DIRECTION ( 'NONE',  ( 0.0000000000000000000, 0.0000000000000000000, 1.000000000000000000 ) ) ;
#289 = CARTESIAN_POINT ( 'NONE',  ( 0.0000000000000000000, 0.0000000000000000000, 2.244094000000000033 ) ) ;
#290 = CARTESIAN_POINT ( 'NONE',  ( 0.007874000000000000790, 9.642868896486262361E-19, 0.004580732562604473979 ) ) ;
#291 = CARTESIAN_POINT ( 'NONE',  ( -0.1031100000000002570, 0.0000000000000000000, 2.244094000000000033 ) ) ;
#292 = DIRECTION ( 'NONE',  ( 1.000000000000000000, 0.0000000000000000000, -0.0000000000000000000 ) ) ;
#293 =( NAMED_UNIT ( * ) PLANE_ANGLE_UNIT ( ) SI_UNIT ( $, .RADIAN. ) );
#294 = ADVANCED_FACE ( 'NONE', ( #367 ), #138, .T. ) ;
#295 = PRESENTATION_LAYER_ASSIGNMENT (  '', '', ( #275 ) ) ;
#296 = ADVANCED_FACE ( 'NONE', ( #27 ), #268, .F. ) ;
#297 = CIRCLE ( 'NONE', #11, 0.007874000000000000790 ) ;
#298 = COLOUR_RGB ( '',0.7921568627450980005, 0.8196078431372548767, 0.9333333333333333481 ) ;
#299 = ORIENTED_EDGE ( 'NONE', *, *, #261, .T. ) ;
#300 = CONICAL_SURFACE ( 'NONE', #16, 0.005904909450000010197, 0.1745329251994400810 ) ;
#301 = ORIENTED_EDGE ( 'NONE', *, *, #40, .F. ) ;
#302 = ORIENTED_EDGE ( 'NONE', *, *, #101, .F. ) ;
#303 = CARTESIAN_POINT ( 'NONE',  ( 0.0000000000000000000, 0.0000000000000000000, 0.004580732562604473979 ) ) ;
#304 = VERTEX_POINT ( 'NONE', #377 ) ;
#305 = DIRECTION ( 'NONE',  ( -1.000000000000000000, 0.0000000000000000000, 0.0000000000000000000 ) ) ;
#306 = EDGE_CURVE ( 'NONE', #45, #17, #91, .T. ) ;
#307 = ORIENTED_EDGE ( 'NONE', *, *, #327, .T. ) ;
#308 = CARTESIAN_POINT ( 'NONE',  ( 0.0000000000000000000, 0.0000000000000000000, 0.01574799999999999811 ) ) ;
#309 = DIRECTION ( 'NONE',  ( -0.1736481776669373533, 0.0000000000000000000, -0.9848077530122067991 ) ) ;
#310 = EDGE_CURVE ( 'NONE', #134, #228, #88, .T. ) ;
#311 = DIRECTION ( 'NONE',  ( -0.0000000000000000000, -0.0000000000000000000, -1.000000000000000000 ) ) ;
#312 = CARTESIAN_POINT ( 'NONE',  ( 0.005904909450000010197, 8.437148676841865343E-19, 0.01574799999999999811 ) ) ;
#313 =( NAMED_UNIT ( * ) PLANE_ANGLE_UNIT ( ) SI_UNIT ( $, .RADIAN. ) );
#314 = AXIS2_PLACEMENT_3D ( 'NONE', #87, #229, #360 ) ;
#315 = LINE ( 'NONE', #57, #24 ) ;
#316 =( NAMED_UNIT ( * ) SI_UNIT ( $, .STERADIAN. ) SOLID_ANGLE_UNIT ( ) );
#317 = VERTEX_POINT ( 'NONE', #131 ) ;
#318 = DIRECTION ( 'NONE',  ( 0.0000000000000000000, 0.0000000000000000000, -1.000000000000000000 ) ) ;
#319 = SHAPE_DEFINITION_REPRESENTATION ( #223, #2 ) ;
#320 = ORIENTED_EDGE ( 'NONE', *, *, #146, .F. ) ;
#321 = FILL_AREA_STYLE ('',( #165 ) ) ;
#322 = AXIS2_PLACEMENT_3D ( 'NONE', #197, #318, #60 ) ;
#323 = AXIS2_PLACEMENT_3D ( 'NONE', #160, #222, #169 ) ;
#324 = ADVANCED_FACE ( 'NONE', ( #247 ), #342, .T. ) ;
#325 = LENGTH_MEASURE_WITH_UNIT ( LENGTH_MEASURE( 0.02539999999999999897 ), #354 );
#326 = CIRCLE ( 'NONE', #331, 0.1031100000000002570 ) ;
#327 = EDGE_CURVE ( 'NONE', #304, #15, #274, .T. ) ;
#328 = UNCERTAINTY_MEASURE_WITH_UNIT (LENGTH_MEASURE( 1.000000000000000082E-05 ), #349, 'distance_accuracy_value', 'NONE');
#329 = ORIENTED_EDGE ( 'NONE', *, *, #369, .F. ) ;
#330 = VERTEX_POINT ( 'NONE', #74 ) ;
#331 = AXIS2_PLACEMENT_3D ( 'NONE', #23, #20, #81 ) ;
#332 = EDGE_CURVE ( 'NONE', #183, #317, #181, .T. ) ;
#333 = ORIENTED_EDGE ( 'NONE', *, *, #76, .F. ) ;
#334 = ORIENTED_EDGE ( 'NONE', *, *, #266, .F. ) ;
#335 = APPLICATION_CONTEXT ( 'automotive_design' ) ;
#336 = CARTESIAN_POINT ( 'NONE',  ( 0.0000000000000000000, 0.0000000000000000000, 0.01574799999999999811 ) ) ;
#337 = PRODUCT_DEFINITION_CONTEXT ( 'detailed design', #335, 'design' ) ;
#338 = ORIENTED_EDGE ( 'NONE', *, *, #97, .T. ) ;
#339 = DIRECTION ( 'NONE',  ( -1.000000000000000000, 0.0000000000000000000, 0.0000000000000000000 ) ) ;
#340 = EDGE_CURVE ( 'NONE', #243, #96, #297, .T. ) ;
#341 =( GEOMETRIC_REPRESENTATION_CONTEXT ( 3 ) GLOBAL_UNCERTAINTY_ASSIGNED_CONTEXT ( ( #328 ) ) GLOBAL_UNIT_ASSIGNED_CONTEXT ( ( #349, #313, #167 ) ) REPRESENTATION_CONTEXT ( 'NONE', 'WORKASPACE' ) );
#342 = CYLINDRICAL_SURFACE ( 'NONE', #376, 0.1181100000000000066 ) ;
#343 = ADVANCED_FACE ( 'NONE', ( #109, #46 ), #156, .T. ) ;
#344 = VERTEX_POINT ( 'NONE', #242 ) ;
#345 = ORIENTED_EDGE ( 'NONE', *, *, #146, .T. ) ;
#346 = DIRECTION ( 'NONE',  ( 0.0000000000000000000, 0.0000000000000000000, 1.000000000000000000 ) ) ;
#347 = DIRECTION ( 'NONE',  ( -0.0000000000000000000, -0.0000000000000000000, -1.000000000000000000 ) ) ;
#348 = PRODUCT ( 'Micro_SFBM-003-0X', 'Micro_SFBM-003-0X', '', ( #225 ) ) ;
#349 =( CONVERSION_BASED_UNIT ( 'INCH', #58 ) LENGTH_UNIT ( ) NAMED_UNIT ( #135 ) );
#350 = CARTESIAN_POINT ( 'NONE',  ( 0.0000000000000000000, 0.0000000000000000000, 2.244094000000000033 ) ) ;
#351 = DIRECTION ( 'NONE',  ( -0.0000000000000000000, -0.0000000000000000000, -1.000000000000000000 ) ) ;
#352 = EDGE_CURVE ( 'NONE', #228, #134, #132, .T. ) ;
#353 = VECTOR ( 'NONE', #347, 39.37007874015748143 ) ;
#354 =( LENGTH_UNIT ( ) NAMED_UNIT ( * ) SI_UNIT ( $, .METRE. ) );
#355 = DIRECTION ( 'NONE',  ( -0.0000000000000000000, -0.0000000000000000000, -1.000000000000000000 ) ) ;
#356 = EDGE_LOOP ( 'NONE', ( #333, #182, #77, #320 ) ) ;
#357 = CARTESIAN_POINT ( 'NONE',  ( 0.0000000000000000000, 0.0000000000000000000, 0.01574799999999999811 ) ) ;
#358 = APPLICATION_PROTOCOL_DEFINITION ( 'draft international standard', 'automotive_design', 1998, #335 ) ;
#359 = EDGE_LOOP ( 'NONE', ( #220, #198 ) ) ;
#360 = DIRECTION ( 'NONE',  ( 1.000000000000000000, 0.0000000000000000000, -0.0000000000000000000 ) ) ;
#361 = LINE ( 'NONE', #284, #32 ) ;
#362 = AXIS2_PLACEMENT_3D ( 'NONE', #370, #100, #98 ) ;
#363 =( GEOMETRIC_REPRESENTATION_CONTEXT ( 3 ) GLOBAL_UNCERTAINTY_ASSIGNED_CONTEXT ( ( #163 ) ) GLOBAL_UNIT_ASSIGNED_CONTEXT ( ( #37, #3, #176 ) ) REPRESENTATION_CONTEXT ( 'NONE', 'WORKASPACE' ) );
#364 = AXIS2_PLACEMENT_3D ( 'NONE', #19, #346, #47 ) ;
#365 = ORIENTED_EDGE ( 'NONE', *, *, #154, .T. ) ;
#366 = VECTOR ( 'NONE', #61, 39.37007874015748854 ) ;
#367 = FACE_OUTER_BOUND ( 'NONE', #95, .T. ) ;
#368 = EDGE_LOOP ( 'NONE', ( #273, #241, #155, #269 ) ) ;
#369 = EDGE_CURVE ( 'NONE', #99, #116, #180, .T. ) ;
#370 = CARTESIAN_POINT ( 'NONE',  ( 0.0000000000000000000, 0.0000000000000000000, 2.229093999999999465 ) ) ;
#371 = ORIENTED_EDGE ( 'NONE', *, *, #173, .T. ) ;
#372 = DIRECTION ( 'NONE',  ( -0.0000000000000000000, -0.0000000000000000000, -1.000000000000000000 ) ) ;
#373 = CARTESIAN_POINT ( 'NONE',  ( 0.0000000000000000000, 0.0000000000000000000, 0.0000000000000000000 ) ) ;
#374 = AXIS2_PLACEMENT_3D ( 'NONE', #262, #170, #292 ) ;
#375 = VECTOR ( 'NONE', #309, 39.37007874015748854 ) ;
#376 = AXIS2_PLACEMENT_3D ( 'NONE', #350, #187, #158 ) ;
#377 = CARTESIAN_POINT ( 'NONE',  ( -0.005904909450000010197, 0.0000000000000000000, 0.0000000000000000000 ) ) ;
#378 = FACE_OUTER_BOUND ( 'NONE', #368, .T. ) ;
#379 = DIRECTION ( 'NONE',  ( -0.0000000000000000000, -0.0000000000000000000, -1.000000000000000000 ) ) ;
ENDSEC;
END-ISO-10303-21;
