ISO-10303-21;
HEADER;
FILE_DESCRIPTION (( 'STEP AP214' ),
    '1' );
FILE_NAME ('59564.STEP',
    '2023-07-24T15:11:21',
    ( '' ),
    ( '' ),
    'SwSTEP 2.0',
    'SolidWorks 2023',
    '' );
FILE_SCHEMA (( 'AUTOMOTIVE_DESIGN' ));
ENDSEC;

DATA;
#1 = AXIS2_PLACEMENT_3D ( 'NONE', #235, #355, #326 ) ;
#2 = DIRECTION ( 'NONE',  ( 0.000000000000000000, 0.000000000000000000, 1.000000000000000000 ) ) ;
#3 = ORIENTED_EDGE ( 'NONE', *, *, #74, .T. ) ;
#4 = VERTEX_POINT ( 'NONE', #101 ) ;
#5 = DIRECTION ( 'NONE',  ( 0.000000000000000000, 0.000000000000000000, -1.000000000000000000 ) ) ;
#6 = EDGE_LOOP ( 'NONE', ( #120, #10, #95, #345 ) ) ;
#7 = ADVANCED_FACE ( 'NONE', ( #300 ), #242, .T. ) ;
#8 = AXIS2_PLACEMENT_3D ( 'NONE', #128, #212, #221 ) ;
#9 = CARTESIAN_POINT ( 'NONE',  ( 4.987329993433318819E-15, 50.00000000000000000, 0.000000000000000000 ) ) ;
#10 = ORIENTED_EDGE ( 'NONE', *, *, #159, .T. ) ;
#11 = DIRECTION ( 'NONE',  ( -1.000000000000000000, 0.000000000000000000, 0.000000000000000000 ) ) ;
#12 = PRESENTATION_LAYER_ASSIGNMENT (  '', '', ( #113 ) ) ;
#13 = CYLINDRICAL_SURFACE ( 'NONE', #224, 10.00000000000000000 ) ;
#14 = DIRECTION ( 'NONE',  ( -1.000000000000000000, 0.000000000000000000, 0.000000000000000000 ) ) ;
#15 = CARTESIAN_POINT ( 'NONE',  ( 0.000000000000000000, 0.5000000000000000000, -10.00000000000000000 ) ) ;
#16 = UNCERTAINTY_MEASURE_WITH_UNIT (LENGTH_MEASURE( 1.000000000000000082E-05 ), #246, 'distance_accuracy_value', 'NONE');
#17 = CARTESIAN_POINT ( 'NONE',  ( 0.000000000000000000, 0.000000000000000000, 0.000000000000000000 ) ) ;
#18 = SURFACE_STYLE_FILL_AREA ( #154 ) ;
#19 =( GEOMETRIC_REPRESENTATION_CONTEXT ( 3 ) GLOBAL_UNCERTAINTY_ASSIGNED_CONTEXT ( ( #99 ) ) GLOBAL_UNIT_ASSIGNED_CONTEXT ( ( #109, #188, #215 ) ) REPRESENTATION_CONTEXT ( 'NONE', 'WORKASPACE' ) );
#20 = CARTESIAN_POINT ( 'NONE',  ( 1.224646799147353256E-15, 0.5000000000000000000, 10.00000000000000000 ) ) ;
#21 = CARTESIAN_POINT ( 'NONE',  ( 0.000000000000000000, 0.000000000000000000, 0.000000000000000000 ) ) ;
#22 = CARTESIAN_POINT ( 'NONE',  ( 1.194030629168669469E-15, 0.000000000000000000, 9.500000000000000000 ) ) ;
#23 = CARTESIAN_POINT ( 'NONE',  ( 1.224646799147353256E-15, 50.00000000000000000, 10.00000000000000000 ) ) ;
#24 = PRESENTATION_LAYER_ASSIGNMENT (  '', '', ( #89 ) ) ;
#25 = VECTOR ( 'NONE', #205, 1000.000000000000000 ) ;
#26 = DIRECTION ( 'NONE',  ( -1.000000000000000000, 0.000000000000000000, 0.000000000000000000 ) ) ;
#27 = STYLED_ITEM ( 'NONE', ( #206 ), #254 ) ;
#28 =( NAMED_UNIT ( * ) PLANE_ANGLE_UNIT ( ) SI_UNIT ( $, .RADIAN. ) );
#29 = PRESENTATION_STYLE_ASSIGNMENT (( #218 ) ) ;
#30 = ADVANCED_BREP_SHAPE_REPRESENTATION ( '59564', ( #315, #62, #36 ), #237 ) ;
#31 = DIRECTION ( 'NONE',  ( 0.000000000000000000, 0.000000000000000000, -1.000000000000000000 ) ) ;
#32 = AXIS2_PLACEMENT_3D ( 'NONE', #33, #90, #320 ) ;
#33 = CARTESIAN_POINT ( 'NONE',  ( 0.000000000000000000, 50.00000000000000000, 0.000000000000000000 ) ) ;
#34 = DIRECTION ( 'NONE',  ( -1.252807796048505441E-16, 1.000000000000000000, 0.000000000000000000 ) ) ;
#35 = ORIENTED_EDGE ( 'NONE', *, *, #270, .T. ) ;
#36 = AXIS2_PLACEMENT_3D ( 'NONE', #21, #2, #106 ) ;
#37 = DIRECTION ( 'NONE',  ( -1.000000000000000000, 0.000000000000000000, 0.000000000000000000 ) ) ;
#38 = VERTEX_POINT ( 'NONE', #23 ) ;
#39 = CARTESIAN_POINT ( 'NONE',  ( 0.000000000000000000, 0.000000000000000000, 0.000000000000000000 ) ) ;
#40 = UNCERTAINTY_MEASURE_WITH_UNIT (LENGTH_MEASURE( 1.000000000000000082E-05 ), #272, 'distance_accuracy_value', 'NONE');
#41 = SURFACE_STYLE_USAGE ( .BOTH. , #357 ) ;
#42 = AXIS2_PLACEMENT_3D ( 'NONE', #78, #51, #280 ) ;
#43 = DIRECTION ( 'NONE',  ( 0.000000000000000000, 0.000000000000000000, -1.000000000000000000 ) ) ;
#44 = PRESENTATION_STYLE_ASSIGNMENT (( #125 ) ) ;
#45 = PRODUCT_DEFINITION_SHAPE ( 'NONE', 'NONE',  #297 ) ;
#46 = SURFACE_SIDE_STYLE ('',( #207 ) ) ;
#47 = AXIS2_PLACEMENT_3D ( 'NONE', #144, #34, #193 ) ;
#48 = FILL_AREA_STYLE_COLOUR ( '', #208 ) ;
#49 = DIRECTION ( 'NONE',  ( 0.000000000000000000, 0.000000000000000000, -1.000000000000000000 ) ) ;
#50 =( NAMED_UNIT ( * ) PLANE_ANGLE_UNIT ( ) SI_UNIT ( $, .RADIAN. ) );
#51 = DIRECTION ( 'NONE',  ( -1.000000000000000000, 0.000000000000000000, 0.000000000000000000 ) ) ;
#52 =( NAMED_UNIT ( * ) SI_UNIT ( $, .STERADIAN. ) SOLID_ANGLE_UNIT ( ) );
#53 = SURFACE_SIDE_STYLE ('',( #275 ) ) ;
#54 = MECHANICAL_DESIGN_GEOMETRIC_PRESENTATION_REPRESENTATION (  '', ( #278 ), #342 ) ;
#55 = DIRECTION ( 'NONE',  ( 0.000000000000000000, 0.000000000000000000, -1.000000000000000000 ) ) ;
#56 = CARTESIAN_POINT ( 'NONE',  ( 0.000000000000000000, 50.00000000000000000, 0.000000000000000000 ) ) ;
#57 = DIRECTION ( 'NONE',  ( -0.000000000000000000, -1.000000000000000000, -0.000000000000000000 ) ) ;
#58 = CYLINDRICAL_SURFACE ( 'NONE', #189, 10.00000000000000000 ) ;
#59 = AXIS2_PLACEMENT_3D ( 'NONE', #111, #86, #26 ) ;
#60 = ORIENTED_EDGE ( 'NONE', *, *, #350, .F. ) ;
#61 = ORIENTED_EDGE ( 'NONE', *, *, #358, .F. ) ;
#62 = MANIFOLD_SOLID_BREP ( 'Revolve - Tool Body (Straight Shanked)', #256 ) ;
#63 = EDGE_CURVE ( 'NONE', #262, #4, #105, .T. ) ;
#64 = VERTEX_POINT ( 'NONE', #366 ) ;
#65 = CLOSED_SHELL ( 'NONE', ( #219, #145, #173, #140, #7, #254 ) ) ;
#66 = AXIS2_PLACEMENT_3D ( 'NONE', #146, #227, #31 ) ;
#67 =( GEOMETRIC_REPRESENTATION_CONTEXT ( 3 ) GLOBAL_UNCERTAINTY_ASSIGNED_CONTEXT ( ( #202 ) ) GLOBAL_UNIT_ASSIGNED_CONTEXT ( ( #135, #50, #102 ) ) REPRESENTATION_CONTEXT ( 'NONE', 'WORKASPACE' ) );
#68 = EDGE_LOOP ( 'NONE', ( #152, #171, #174, #321 ) ) ;
#69 = EDGE_CURVE ( 'NONE', #198, #233, #362, .T. ) ;
#70 =( NAMED_UNIT ( * ) PLANE_ANGLE_UNIT ( ) SI_UNIT ( $, .RADIAN. ) );
#71 = DIRECTION ( 'NONE',  ( -1.000000000000000000, 0.000000000000000000, 0.000000000000000000 ) ) ;
#72 = VECTOR ( 'NONE', #82, 1000.000000000000000 ) ;
#73 = PRESENTATION_LAYER_ASSIGNMENT (  '', '', ( #100 ) ) ;
#74 = EDGE_CURVE ( 'NONE', #38, #234, #336, .T. ) ;
#75 =( NAMED_UNIT ( * ) SI_UNIT ( $, .STERADIAN. ) SOLID_ANGLE_UNIT ( ) );
#76 = DIRECTION ( 'NONE',  ( 0.000000000000000000, -1.000000000000000000, -0.000000000000000000 ) ) ;
#77 = AXIS2_PLACEMENT_3D ( 'NONE', #222, #57, #305 ) ;
#78 = CARTESIAN_POINT ( 'NONE',  ( 0.000000000000000000, 0.5000000000000000000, -9.500000000000000000 ) ) ;
#79 = FILL_AREA_STYLE_COLOUR ( '', #301 ) ;
#80 = ADVANCED_FACE ( 'NONE', ( #307 ), #312, .T. ) ;
#81 = TOROIDAL_SURFACE ( 'NONE', #66, 9.500000000000000000, 0.5000000000000002220 ) ;
#82 = DIRECTION ( 'NONE',  ( -1.252807796048505441E-16, 1.000000000000000000, -0.000000000000000000 ) ) ;
#83 = PRESENTATION_LAYER_ASSIGNMENT (  '', '', ( #27 ) ) ;
#84 = FILL_AREA_STYLE_COLOUR ( '', #151 ) ;
#85 = EDGE_CURVE ( 'NONE', #38, #319, #273, .T. ) ;
#86 = DIRECTION ( 'NONE',  ( -1.252807796048505441E-16, 1.000000000000000000, -0.000000000000000000 ) ) ;
#87 = APPLICATION_PROTOCOL_DEFINITION ( 'draft international standard', 'automotive_design', 1998, #285 ) ;
#88 = ORIENTED_EDGE ( 'NONE', *, *, #91, .T. ) ;
#89 = STYLED_ITEM ( 'NONE', ( #335 ), #7 ) ;
#90 = DIRECTION ( 'NONE',  ( 0.000000000000000000, 1.000000000000000000, 0.000000000000000000 ) ) ;
#91 = EDGE_CURVE ( 'NONE', #234, #262, #175, .T. ) ;
#92 = UNCERTAINTY_MEASURE_WITH_UNIT (LENGTH_MEASURE( 1.000000000000000082E-05 ), #332, 'distance_accuracy_value', 'NONE');
#93 = ORIENTED_EDGE ( 'NONE', *, *, #287, .T. ) ;
#94 = AXIS2_PLACEMENT_3D ( 'NONE', #17, #129, #55 ) ;
#95 = ORIENTED_EDGE ( 'NONE', *, *, #299, .F. ) ;
#96 = FILL_AREA_STYLE_COLOUR ( '', #243 ) ;
#97 = FACE_OUTER_BOUND ( 'NONE', #121, .T. ) ;
#98 = CARTESIAN_POINT ( 'NONE',  ( -4.408728476930469278E-15, 124.9999999999999858, 0.000000000000000000 ) ) ;
#99 = UNCERTAINTY_MEASURE_WITH_UNIT (LENGTH_MEASURE( 1.000000000000000082E-05 ), #109, 'distance_accuracy_value', 'NONE');
#100 = STYLED_ITEM ( 'NONE', ( #282 ), #315 ) ;
#101 = CARTESIAN_POINT ( 'NONE',  ( 0.000000000000000000, 0.000000000000000000, -9.500000000000000000 ) ) ;
#102 =( NAMED_UNIT ( * ) SI_UNIT ( $, .STERADIAN. ) SOLID_ANGLE_UNIT ( ) );
#103 =( LENGTH_UNIT ( ) NAMED_UNIT ( * ) SI_UNIT ( .MILLI., .METRE. ) );
#104 = PRESENTATION_LAYER_ASSIGNMENT (  '', '', ( #123 ) ) ;
#105 = CIRCLE ( 'NONE', #42, 0.5000000000000004441 ) ;
#106 = DIRECTION ( 'NONE',  ( 1.000000000000000000, 0.000000000000000000, 0.000000000000000000 ) ) ;
#107 = CIRCLE ( 'NONE', #348, 9.999999999999996447 ) ;
#108 = CARTESIAN_POINT ( 'NONE',  ( -10.00000000000000533, 124.9999999999999858, 0.000000000000000000 ) ) ;
#109 =( LENGTH_UNIT ( ) NAMED_UNIT ( * ) SI_UNIT ( .MILLI., .METRE. ) );
#110 = SURFACE_SIDE_STYLE ('',( #250 ) ) ;
#111 = CARTESIAN_POINT ( 'NONE',  ( -4.408728476930469278E-15, 124.9999999999999858, 0.000000000000000000 ) ) ;
#112 = DIRECTION ( 'NONE',  ( 0.000000000000000000, 0.000000000000000000, -1.000000000000000000 ) ) ;
#113 = STYLED_ITEM ( 'NONE', ( #44 ), #173 ) ;
#114 = CARTESIAN_POINT ( 'NONE',  ( 1.224646799147353256E-15, 0.000000000000000000, 10.00000000000000000 ) ) ;
#115 = CARTESIAN_POINT ( 'NONE',  ( 0.000000000000000000, 0.5000000000000000000, 0.000000000000000000 ) ) ;
#116 = ORIENTED_EDGE ( 'NONE', *, *, #184, .T. ) ;
#117 = APPLICATION_CONTEXT ( 'automotive_design' ) ;
#118 = CARTESIAN_POINT ( 'NONE',  ( 0.000000000000000000, 0.000000000000000000, 0.000000000000000000 ) ) ;
#119 = CIRCLE ( 'NONE', #223, 0.5000000000000004441 ) ;
#120 = ORIENTED_EDGE ( 'NONE', *, *, #309, .T. ) ;
#121 = EDGE_LOOP ( 'NONE', ( #172, #349 ) ) ;
#122 = ORIENTED_EDGE ( 'NONE', *, *, #299, .T. ) ;
#123 = STYLED_ITEM ( 'NONE', ( #308 ), #145 ) ;
#124 = CARTESIAN_POINT ( 'NONE',  ( -10.00000000000001066, 124.9999999999999858, 0.000000000000000000 ) ) ;
#125 = SURFACE_STYLE_USAGE ( .BOTH. , #127 ) ;
#126 = EDGE_LOOP ( 'NONE', ( #61, #264 ) ) ;
#127 = SURFACE_SIDE_STYLE ('',( #155 ) ) ;
#128 = CARTESIAN_POINT ( 'NONE',  ( 10.00000000000000000, 124.9999999999999858, 0.000000000000000000 ) ) ;
#129 = DIRECTION ( 'NONE',  ( -0.000000000000000000, -1.000000000000000000, -0.000000000000000000 ) ) ;
#130 = SURFACE_STYLE_USAGE ( .BOTH. , #183 ) ;
#131 = VECTOR ( 'NONE', #194, 1000.000000000000000 ) ;
#132 = AXIS2_PLACEMENT_3D ( 'NONE', #98, #240, #11 ) ;
#133 = FACE_OUTER_BOUND ( 'NONE', #126, .T. ) ;
#134 = PRESENTATION_STYLE_ASSIGNMENT (( #344 ) ) ;
#135 =( LENGTH_UNIT ( ) NAMED_UNIT ( * ) SI_UNIT ( .MILLI., .METRE. ) );
#136 = SHAPE_DEFINITION_REPRESENTATION ( #45, #30 ) ;
#137 =( NAMED_UNIT ( * ) SI_UNIT ( $, .STERADIAN. ) SOLID_ANGLE_UNIT ( ) );
#138 = AXIS2_PLACEMENT_3D ( 'NONE', #39, #76, #271 ) ;
#139 = CIRCLE ( 'NONE', #203, 10.00000000000000000 ) ;
#140 = ADVANCED_FACE ( 'NONE', ( #167 ), #81, .T. ) ;
#141 =( NAMED_UNIT ( * ) PLANE_ANGLE_UNIT ( ) SI_UNIT ( $, .RADIAN. ) );
#142 =( NAMED_UNIT ( * ) PLANE_ANGLE_UNIT ( ) SI_UNIT ( $, .RADIAN. ) );
#143 =( LENGTH_UNIT ( ) NAMED_UNIT ( * ) SI_UNIT ( .MILLI., .METRE. ) );
#144 = CARTESIAN_POINT ( 'NONE',  ( 4.987329993433320396E-15, 50.00000000000000000, 0.000000000000000000 ) ) ;
#145 = ADVANCED_FACE ( 'NONE', ( #277 ), #329, .T. ) ;
#146 = CARTESIAN_POINT ( 'NONE',  ( 0.000000000000000000, 0.5000000000000000000, 0.000000000000000000 ) ) ;
#147 = SURFACE_STYLE_USAGE ( .BOTH. , #110 ) ;
#148 = EDGE_LOOP ( 'NONE', ( #259, #3, #288, #60 ) ) ;
#149 = DIRECTION ( 'NONE',  ( -0.000000000000000000, -1.000000000000000000, -0.000000000000000000 ) ) ;
#150 = MECHANICAL_DESIGN_GEOMETRIC_PRESENTATION_REPRESENTATION (  '', ( #236 ), #201 ) ;
#151 = COLOUR_RGB ( '',0.7921568627450980005, 0.8196078431372548767, 0.9333333333333333481 ) ;
#152 = ORIENTED_EDGE ( 'NONE', *, *, #74, .F. ) ;
#153 = ORIENTED_EDGE ( 'NONE', *, *, #281, .F. ) ;
#154 = FILL_AREA_STYLE ('',( #160 ) ) ;
#155 = SURFACE_STYLE_FILL_AREA ( #304 ) ;
#156 = MECHANICAL_DESIGN_GEOMETRIC_PRESENTATION_REPRESENTATION (  '', ( #100 ), #19 ) ;
#157 = UNCERTAINTY_MEASURE_WITH_UNIT (LENGTH_MEASURE( 1.000000000000000082E-05 ), #103, 'distance_accuracy_value', 'NONE');
#158 = CARTESIAN_POINT ( 'NONE',  ( 0.000000000000000000, 50.00000000000000000, -10.00000000000000000 ) ) ;
#159 = EDGE_CURVE ( 'NONE', #234, #324, #119, .T. ) ;
#160 = FILL_AREA_STYLE_COLOUR ( '', #230 ) ;
#161 = SURFACE_STYLE_USAGE ( .BOTH. , #46 ) ;
#162 = PRESENTATION_LAYER_ASSIGNMENT (  '', '', ( #236 ) ) ;
#163 = CIRCLE ( 'NONE', #1, 10.00000000000000533 ) ;
#164 = FILL_AREA_STYLE_COLOUR ( '', #364 ) ;
#165 = DIRECTION ( 'NONE',  ( 1.000000000000000000, 0.000000000000000000, -1.224646799147353207E-16 ) ) ;
#166 =( NAMED_UNIT ( * ) SI_UNIT ( $, .STERADIAN. ) SOLID_ANGLE_UNIT ( ) );
#167 = FACE_OUTER_BOUND ( 'NONE', #322, .T. ) ;
#168 = PRESENTATION_LAYER_ASSIGNMENT (  '', '', ( #278 ) ) ;
#169 = LINE ( 'NONE', #226, #180 ) ;
#170 = AXIS2_PLACEMENT_3D ( 'NONE', #245, #213, #190 ) ;
#171 = ORIENTED_EDGE ( 'NONE', *, *, #85, .T. ) ;
#172 = ORIENTED_EDGE ( 'NONE', *, *, #276, .T. ) ;
#173 = ADVANCED_FACE ( 'NONE', ( #363 ), #292, .T. ) ;
#174 = ORIENTED_EDGE ( 'NONE', *, *, #350, .T. ) ;
#175 = CIRCLE ( 'NONE', #257, 10.00000000000000000 ) ;
#176 = ORIENTED_EDGE ( 'NONE', *, *, #260, .T. ) ;
#177 = ORIENTED_EDGE ( 'NONE', *, *, #184, .F. ) ;
#178 = UNCERTAINTY_MEASURE_WITH_UNIT (LENGTH_MEASURE( 1.000000000000000082E-05 ), #143, 'distance_accuracy_value', 'NONE');
#179 = COLOUR_RGB ( '',0.7921568627450980005, 0.8196078431372548767, 0.9333333333333333481 ) ;
#180 = VECTOR ( 'NONE', #149, 1000.000000000000000 ) ;
#181 = CARTESIAN_POINT ( 'NONE',  ( -4.408728476930469278E-15, 124.9999999999999858, 0.000000000000000000 ) ) ;
#182 = CARTESIAN_POINT ( 'NONE',  ( 4.987329993433318819E-15, 50.00000000000000000, 0.000000000000000000 ) ) ;
#183 = SURFACE_SIDE_STYLE ('',( #18 ) ) ;
#184 = EDGE_CURVE ( 'NONE', #199, #64, #211, .T. ) ;
#185 = ORIENTED_EDGE ( 'NONE', *, *, #270, .F. ) ;
#186 =( NAMED_UNIT ( * ) SI_UNIT ( $, .STERADIAN. ) SOLID_ANGLE_UNIT ( ) );
#187 = PRESENTATION_LAYER_ASSIGNMENT (  '', '', ( #317 ) ) ;
#188 =( NAMED_UNIT ( * ) PLANE_ANGLE_UNIT ( ) SI_UNIT ( $, .RADIAN. ) );
#189 = AXIS2_PLACEMENT_3D ( 'NONE', #181, #269, #14 ) ;
#190 = DIRECTION ( 'NONE',  ( 0.000000000000000000, 0.000000000000000000, -1.000000000000000000 ) ) ;
#191 = SURFACE_STYLE_USAGE ( .BOTH. , #53 ) ;
#192 = SURFACE_STYLE_FILL_AREA ( #251 ) ;
#193 = DIRECTION ( 'NONE',  ( -1.000000000000000000, -1.252807796048505441E-16, 0.000000000000000000 ) ) ;
#194 = DIRECTION ( 'NONE',  ( -0.000000000000000000, -1.000000000000000000, -0.000000000000000000 ) ) ;
#195 = DIRECTION ( 'NONE',  ( -0.000000000000000000, -1.000000000000000000, -0.000000000000000000 ) ) ;
#196 = ORIENTED_EDGE ( 'NONE', *, *, #287, .F. ) ;
#197 = AXIS2_PLACEMENT_3D ( 'NONE', #182, #200, #71 ) ;
#198 = VERTEX_POINT ( 'NONE', #210 ) ;
#199 = VERTEX_POINT ( 'NONE', #325 ) ;
#200 = DIRECTION ( 'NONE',  ( -1.252807796048505441E-16, 1.000000000000000000, -0.000000000000000000 ) ) ;
#201 =( GEOMETRIC_REPRESENTATION_CONTEXT ( 3 ) GLOBAL_UNCERTAINTY_ASSIGNED_CONTEXT ( ( #178 ) ) GLOBAL_UNIT_ASSIGNED_CONTEXT ( ( #143, #142, #137 ) ) REPRESENTATION_CONTEXT ( 'NONE', 'WORKASPACE' ) );
#202 = UNCERTAINTY_MEASURE_WITH_UNIT (LENGTH_MEASURE( 1.000000000000000082E-05 ), #135, 'distance_accuracy_value', 'NONE');
#203 = AXIS2_PLACEMENT_3D ( 'NONE', #115, #306, #253 ) ;
#204 = ORIENTED_EDGE ( 'NONE', *, *, #69, .T. ) ;
#205 = DIRECTION ( 'NONE',  ( -1.252807796048505441E-16, 1.000000000000000000, -0.000000000000000000 ) ) ;
#206 = PRESENTATION_STYLE_ASSIGNMENT (( #41 ) ) ;
#207 = SURFACE_STYLE_FILL_AREA ( #298 ) ;
#208 = COLOUR_RGB ( '',1.000000000000000000, 0.000000000000000000, 0.000000000000000000 ) ;
#209 = PRODUCT_DEFINITION_FORMATION_WITH_SPECIFIED_SOURCE ( 'ANY', '', #310, .NOT_KNOWN. ) ;
#210 = CARTESIAN_POINT ( 'NONE',  ( -9.999999999999991118, 50.00000000000000000, 0.000000000000000000 ) ) ;
#211 = LINE ( 'NONE', #296, #25 ) ;
#212 = DIRECTION ( 'NONE',  ( 1.252807796048505441E-16, -1.000000000000000000, 0.000000000000000000 ) ) ;
#213 = DIRECTION ( 'NONE',  ( -0.000000000000000000, -1.000000000000000000, -0.000000000000000000 ) ) ;
#214 = MECHANICAL_DESIGN_GEOMETRIC_PRESENTATION_REPRESENTATION (  '', ( #113 ), #294 ) ;
#215 =( NAMED_UNIT ( * ) SI_UNIT ( $, .STERADIAN. ) SOLID_ANGLE_UNIT ( ) );
#216 = CIRCLE ( 'NONE', #197, 9.999999999999996447 ) ;
#217 = FILL_AREA_STYLE_COLOUR ( '', #365 ) ;
#218 = SURFACE_STYLE_USAGE ( .BOTH. , #255 ) ;
#219 = ADVANCED_FACE ( 'NONE', ( #241 ), #13, .T. ) ;
#220 = FILL_AREA_STYLE ('',( #48 ) ) ;
#221 = DIRECTION ( 'NONE',  ( 1.000000000000000000, 1.252807796048505441E-16, 0.000000000000000000 ) ) ;
#222 = CARTESIAN_POINT ( 'NONE',  ( 0.000000000000000000, 50.00000000000000000, 0.000000000000000000 ) ) ;
#223 = AXIS2_PLACEMENT_3D ( 'NONE', #258, #165, #247 ) ;
#224 = AXIS2_PLACEMENT_3D ( 'NONE', #274, #354, #43 ) ;
#225 = DIRECTION ( 'NONE',  ( -0.000000000000000000, -1.000000000000000000, -0.000000000000000000 ) ) ;
#226 = CARTESIAN_POINT ( 'NONE',  ( 0.000000000000000000, 0.000000000000000000, -10.00000000000000000 ) ) ;
#227 = DIRECTION ( 'NONE',  ( -0.000000000000000000, -1.000000000000000000, -0.000000000000000000 ) ) ;
#228 = ORIENTED_EDGE ( 'NONE', *, *, #276, .F. ) ;
#229 = MECHANICAL_DESIGN_GEOMETRIC_PRESENTATION_REPRESENTATION (  '', ( #89 ), #353 ) ;
#230 = COLOUR_RGB ( '',1.000000000000000000, 0.000000000000000000, 0.000000000000000000 ) ;
#231 = DIRECTION ( 'NONE',  ( -0.000000000000000000, -1.000000000000000000, -0.000000000000000000 ) ) ;
#232 = CIRCLE ( 'NONE', #132, 10.00000000000000533 ) ;
#233 = VERTEX_POINT ( 'NONE', #124 ) ;
#234 = VERTEX_POINT ( 'NONE', #20 ) ;
#235 = CARTESIAN_POINT ( 'NONE',  ( -4.408728476930469278E-15, 124.9999999999999858, 0.000000000000000000 ) ) ;
#236 = STYLED_ITEM ( 'NONE', ( #29 ), #62 ) ;
#237 =( GEOMETRIC_REPRESENTATION_CONTEXT ( 3 ) GLOBAL_UNCERTAINTY_ASSIGNED_CONTEXT ( ( #331 ) ) GLOBAL_UNIT_ASSIGNED_CONTEXT ( ( #266, #70, #52 ) ) REPRESENTATION_CONTEXT ( 'NONE', 'WORKASPACE' ) );
#238 =( NAMED_UNIT ( * ) PLANE_ANGLE_UNIT ( ) SI_UNIT ( $, .RADIAN. ) );
#239 = PLANE ( 'NONE',  #32 ) ;
#240 = DIRECTION ( 'NONE',  ( -1.252807796048505441E-16, 1.000000000000000000, -0.000000000000000000 ) ) ;
#241 = FACE_OUTER_BOUND ( 'NONE', #148, .T. ) ;
#242 = CYLINDRICAL_SURFACE ( 'NONE', #94, 10.00000000000000000 ) ;
#243 = COLOUR_RGB ( '',1.000000000000000000, 0.000000000000000000, 0.000000000000000000 ) ;
#244 = ORIENTED_EDGE ( 'NONE', *, *, #159, .F. ) ;
#245 = CARTESIAN_POINT ( 'NONE',  ( 0.000000000000000000, 0.5000000000000000000, 0.000000000000000000 ) ) ;
#246 =( LENGTH_UNIT ( ) NAMED_UNIT ( * ) SI_UNIT ( .MILLI., .METRE. ) );
#247 = DIRECTION ( 'NONE',  ( -1.224646799147353454E-16, 0.000000000000000000, -1.000000000000000000 ) ) ;
#248 = PLANE ( 'NONE',  #47 ) ;
#249 = FILL_AREA_STYLE ('',( #339 ) ) ;
#250 = SURFACE_STYLE_FILL_AREA ( #311 ) ;
#251 = FILL_AREA_STYLE ('',( #79 ) ) ;
#252 = FACE_OUTER_BOUND ( 'NONE', #291, .T. ) ;
#253 = DIRECTION ( 'NONE',  ( 0.000000000000000000, 0.000000000000000000, -1.000000000000000000 ) ) ;
#254 = ADVANCED_FACE ( 'NONE', ( #133 ), #239, .T. ) ;
#255 = SURFACE_SIDE_STYLE ('',( #341 ) ) ;
#256 = CLOSED_SHELL ( 'NONE', ( #370, #337, #80, #286 ) ) ;
#257 = AXIS2_PLACEMENT_3D ( 'NONE', #283, #225, #49 ) ;
#258 = CARTESIAN_POINT ( 'NONE',  ( 1.163414459189985485E-15, 0.5000000000000000000, 9.500000000000000000 ) ) ;
#259 = ORIENTED_EDGE ( 'NONE', *, *, #358, .T. ) ;
#260 = EDGE_CURVE ( 'NONE', #199, #198, #107, .T. ) ;
#261 = ORIENTED_EDGE ( 'NONE', *, *, #260, .F. ) ;
#262 = VERTEX_POINT ( 'NONE', #15 ) ;
#263 = UNCERTAINTY_MEASURE_WITH_UNIT (LENGTH_MEASURE( 1.000000000000000082E-05 ), #338, 'distance_accuracy_value', 'NONE');
#264 = ORIENTED_EDGE ( 'NONE', *, *, #85, .F. ) ;
#265 = ORIENTED_EDGE ( 'NONE', *, *, #69, .F. ) ;
#266 =( LENGTH_UNIT ( ) NAMED_UNIT ( * ) SI_UNIT ( .MILLI., .METRE. ) );
#267 = CIRCLE ( 'NONE', #279, 9.500000000000000000 ) ;
#268 =( NAMED_UNIT ( * ) PLANE_ANGLE_UNIT ( ) SI_UNIT ( $, .RADIAN. ) );
#269 = DIRECTION ( 'NONE',  ( -1.252807796048505441E-16, 1.000000000000000000, -0.000000000000000000 ) ) ;
#270 = EDGE_CURVE ( 'NONE', #198, #199, #216, .T. ) ;
#271 = DIRECTION ( 'NONE',  ( 0.000000000000000000, 0.000000000000000000, -1.000000000000000000 ) ) ;
#272 =( LENGTH_UNIT ( ) NAMED_UNIT ( * ) SI_UNIT ( .MILLI., .METRE. ) );
#273 = CIRCLE ( 'NONE', #77, 10.00000000000000000 ) ;
#274 = CARTESIAN_POINT ( 'NONE',  ( 0.000000000000000000, 0.000000000000000000, 0.000000000000000000 ) ) ;
#275 = SURFACE_STYLE_FILL_AREA ( #220 ) ;
#276 = EDGE_CURVE ( 'NONE', #233, #64, #232, .T. ) ;
#277 = FACE_OUTER_BOUND ( 'NONE', #6, .T. ) ;
#278 = STYLED_ITEM ( 'NONE', ( #356 ), #219 ) ;
#279 = AXIS2_PLACEMENT_3D ( 'NONE', #340, #346, #5 ) ;
#280 = DIRECTION ( 'NONE',  ( 0.000000000000000000, 0.000000000000000000, 1.000000000000000000 ) ) ;
#281 = EDGE_CURVE ( 'NONE', #64, #233, #163, .T. ) ;
#282 = PRESENTATION_STYLE_ASSIGNMENT (( #147 ) ) ;
#283 = CARTESIAN_POINT ( 'NONE',  ( 0.000000000000000000, 0.5000000000000000000, 0.000000000000000000 ) ) ;
#284 =( GEOMETRIC_REPRESENTATION_CONTEXT ( 3 ) GLOBAL_UNCERTAINTY_ASSIGNED_CONTEXT ( ( #16 ) ) GLOBAL_UNIT_ASSIGNED_CONTEXT ( ( #246, #28, #166 ) ) REPRESENTATION_CONTEXT ( 'NONE', 'WORKASPACE' ) );
#285 = APPLICATION_CONTEXT ( 'automotive_design' ) ;
#286 = ADVANCED_FACE ( 'NONE', ( #97 ), #328, .F. ) ;
#287 = EDGE_CURVE ( 'NONE', #324, #4, #267, .T. ) ;
#288 = ORIENTED_EDGE ( 'NONE', *, *, #309, .F. ) ;
#289 =( GEOMETRIC_REPRESENTATION_CONTEXT ( 3 ) GLOBAL_UNCERTAINTY_ASSIGNED_CONTEXT ( ( #263 ) ) GLOBAL_UNIT_ASSIGNED_CONTEXT ( ( #338, #141, #334 ) ) REPRESENTATION_CONTEXT ( 'NONE', 'WORKASPACE' ) );
#290 = DIRECTION ( 'NONE',  ( -1.252807796048505441E-16, 1.000000000000000000, -0.000000000000000000 ) ) ;
#291 = EDGE_LOOP ( 'NONE', ( #185, #261 ) ) ;
#292 = PLANE ( 'NONE',  #138 ) ;
#293 = SURFACE_STYLE_FILL_AREA ( #327 ) ;
#294 =( GEOMETRIC_REPRESENTATION_CONTEXT ( 3 ) GLOBAL_UNCERTAINTY_ASSIGNED_CONTEXT ( ( #40 ) ) GLOBAL_UNIT_ASSIGNED_CONTEXT ( ( #272, #268, #361 ) ) REPRESENTATION_CONTEXT ( 'NONE', 'WORKASPACE' ) );
#295 = CIRCLE ( 'NONE', #343, 9.500000000000000000 ) ;
#296 = CARTESIAN_POINT ( 'NONE',  ( 9.999999999999994671, 124.9999999999999858, 1.224646799147353256E-15 ) ) ;
#297 = PRODUCT_DEFINITION ( 'UNKNOWN', '', #209, #360 ) ;
#298 = FILL_AREA_STYLE ('',( #164 ) ) ;
#299 = EDGE_CURVE ( 'NONE', #4, #324, #295, .T. ) ;
#300 = FACE_OUTER_BOUND ( 'NONE', #68, .T. ) ;
#301 = COLOUR_RGB ( '',1.000000000000000000, 0.000000000000000000, 0.000000000000000000 ) ;
#302 = PRODUCT_RELATED_PRODUCT_CATEGORY ( 'part', '', ( #310 ) ) ;
#303 = PRODUCT_CONTEXT ( 'NONE', #285, 'mechanical' ) ;
#304 = FILL_AREA_STYLE ('',( #217 ) ) ;
#305 = DIRECTION ( 'NONE',  ( 0.000000000000000000, 0.000000000000000000, -1.000000000000000000 ) ) ;
#306 = DIRECTION ( 'NONE',  ( -0.000000000000000000, -1.000000000000000000, -0.000000000000000000 ) ) ;
#307 = FACE_OUTER_BOUND ( 'NONE', #347, .T. ) ;
#308 = PRESENTATION_STYLE_ASSIGNMENT (( #191 ) ) ;
#309 = EDGE_CURVE ( 'NONE', #262, #234, #139, .T. ) ;
#310 = PRODUCT ( '59564', '59564', '', ( #303 ) ) ;
#311 = FILL_AREA_STYLE ('',( #84 ) ) ;
#312 = CYLINDRICAL_SURFACE ( 'NONE', #59, 10.00000000000000000 ) ;
#313 = FACE_OUTER_BOUND ( 'NONE', #352, .T. ) ;
#314 = ORIENTED_EDGE ( 'NONE', *, *, #63, .T. ) ;
#315 = MANIFOLD_SOLID_BREP ( 'Revolve - Cutting Edge', #65 ) ;
#316 = MECHANICAL_DESIGN_GEOMETRIC_PRESENTATION_REPRESENTATION (  '', ( #123 ), #289 ) ;
#317 = STYLED_ITEM ( 'NONE', ( #134 ), #140 ) ;
#318 = CIRCLE ( 'NONE', #330, 10.00000000000000000 ) ;
#319 = VERTEX_POINT ( 'NONE', #158 ) ;
#320 = DIRECTION ( 'NONE',  ( 0.000000000000000000, -0.000000000000000000, 1.000000000000000000 ) ) ;
#321 = ORIENTED_EDGE ( 'NONE', *, *, #91, .F. ) ;
#322 = EDGE_LOOP ( 'NONE', ( #244, #88, #314, #196 ) ) ;
#323 = MECHANICAL_DESIGN_GEOMETRIC_PRESENTATION_REPRESENTATION (  '', ( #27 ), #67 ) ;
#324 = VERTEX_POINT ( 'NONE', #22 ) ;
#325 = CARTESIAN_POINT ( 'NONE',  ( 10.00000000000000355, 50.00000000000000000, 1.224646799147353848E-15 ) ) ;
#326 = DIRECTION ( 'NONE',  ( -1.000000000000000000, 0.000000000000000000, 0.000000000000000000 ) ) ;
#327 = FILL_AREA_STYLE ('',( #96 ) ) ;
#328 = PLANE ( 'NONE',  #8 ) ;
#329 = TOROIDAL_SURFACE ( 'NONE', #170, 9.500000000000000000, 0.5000000000000002220 ) ;
#330 = AXIS2_PLACEMENT_3D ( 'NONE', #56, #195, #369 ) ;
#331 = UNCERTAINTY_MEASURE_WITH_UNIT (LENGTH_MEASURE( 1.000000000000000082E-05 ), #266, 'distance_accuracy_value', 'NONE');
#332 =( LENGTH_UNIT ( ) NAMED_UNIT ( * ) SI_UNIT ( .MILLI., .METRE. ) );
#333 =( NAMED_UNIT ( * ) PLANE_ANGLE_UNIT ( ) SI_UNIT ( $, .RADIAN. ) );
#334 =( NAMED_UNIT ( * ) SI_UNIT ( $, .STERADIAN. ) SOLID_ANGLE_UNIT ( ) );
#335 = PRESENTATION_STYLE_ASSIGNMENT (( #161 ) ) ;
#336 = LINE ( 'NONE', #114, #131 ) ;
#337 = ADVANCED_FACE ( 'NONE', ( #252 ), #248, .F. ) ;
#338 =( LENGTH_UNIT ( ) NAMED_UNIT ( * ) SI_UNIT ( .MILLI., .METRE. ) );
#339 = FILL_AREA_STYLE_COLOUR ( '', #179 ) ;
#340 = CARTESIAN_POINT ( 'NONE',  ( 0.000000000000000000, 0.000000000000000000, 0.000000000000000000 ) ) ;
#341 = SURFACE_STYLE_FILL_AREA ( #249 ) ;
#342 =( GEOMETRIC_REPRESENTATION_CONTEXT ( 3 ) GLOBAL_UNCERTAINTY_ASSIGNED_CONTEXT ( ( #157 ) ) GLOBAL_UNIT_ASSIGNED_CONTEXT ( ( #103, #333, #186 ) ) REPRESENTATION_CONTEXT ( 'NONE', 'WORKASPACE' ) );
#343 = AXIS2_PLACEMENT_3D ( 'NONE', #118, #231, #112 ) ;
#344 = SURFACE_STYLE_USAGE ( .BOTH. , #368 ) ;
#345 = ORIENTED_EDGE ( 'NONE', *, *, #63, .F. ) ;
#346 = DIRECTION ( 'NONE',  ( -0.000000000000000000, -1.000000000000000000, -0.000000000000000000 ) ) ;
#347 = EDGE_LOOP ( 'NONE', ( #177, #176, #204, #153 ) ) ;
#348 = AXIS2_PLACEMENT_3D ( 'NONE', #9, #290, #37 ) ;
#349 = ORIENTED_EDGE ( 'NONE', *, *, #281, .T. ) ;
#350 = EDGE_CURVE ( 'NONE', #319, #262, #169, .T. ) ;
#351 = EDGE_LOOP ( 'NONE', ( #122, #93 ) ) ;
#352 = EDGE_LOOP ( 'NONE', ( #35, #116, #228, #265 ) ) ;
#353 =( GEOMETRIC_REPRESENTATION_CONTEXT ( 3 ) GLOBAL_UNCERTAINTY_ASSIGNED_CONTEXT ( ( #92 ) ) GLOBAL_UNIT_ASSIGNED_CONTEXT ( ( #332, #238, #75 ) ) REPRESENTATION_CONTEXT ( 'NONE', 'WORKASPACE' ) );
#354 = DIRECTION ( 'NONE',  ( -0.000000000000000000, -1.000000000000000000, -0.000000000000000000 ) ) ;
#355 = DIRECTION ( 'NONE',  ( -1.252807796048505441E-16, 1.000000000000000000, -0.000000000000000000 ) ) ;
#356 = PRESENTATION_STYLE_ASSIGNMENT (( #130 ) ) ;
#357 = SURFACE_SIDE_STYLE ('',( #293 ) ) ;
#358 = EDGE_CURVE ( 'NONE', #319, #38, #318, .T. ) ;
#359 = MECHANICAL_DESIGN_GEOMETRIC_PRESENTATION_REPRESENTATION (  '', ( #317 ), #284 ) ;
#360 = PRODUCT_DEFINITION_CONTEXT ( 'detailed design', #117, 'design' ) ;
#361 =( NAMED_UNIT ( * ) SI_UNIT ( $, .STERADIAN. ) SOLID_ANGLE_UNIT ( ) );
#362 = LINE ( 'NONE', #108, #72 ) ;
#363 = FACE_OUTER_BOUND ( 'NONE', #351, .T. ) ;
#364 = COLOUR_RGB ( '',1.000000000000000000, 0.000000000000000000, 0.000000000000000000 ) ;
#365 = COLOUR_RGB ( '',1.000000000000000000, 0.000000000000000000, 0.000000000000000000 ) ;
#366 = CARTESIAN_POINT ( 'NONE',  ( 10.00000000000000000, 124.9999999999999858, 1.224646799147353454E-15 ) ) ;
#367 = APPLICATION_PROTOCOL_DEFINITION ( 'draft international standard', 'automotive_design', 1998, #117 ) ;
#368 = SURFACE_SIDE_STYLE ('',( #192 ) ) ;
#369 = DIRECTION ( 'NONE',  ( 0.000000000000000000, 0.000000000000000000, -1.000000000000000000 ) ) ;
#370 = ADVANCED_FACE ( 'NONE', ( #313 ), #58, .T. ) ;
ENDSEC;
END-ISO-10303-21;
