ISO-10303-21;
HEADER;
FILE_DESCRIPTION (( 'STEP AP214' ),
    '1' );
FILE_NAME ('06138.STEP',
    '2023-07-05T16:00:46',
    ( '' ),
    ( '' ),
    'SwSTEP 2.0',
    'SolidWorks 2023',
    '' );
FILE_SCHEMA (( 'AUTOMOTIVE_DESIGN' ));
ENDSEC;

DATA;
#1 =( GEOMETRIC_REPRESENTATION_CONTEXT ( 3 ) GLOBAL_UNCERTAINTY_ASSIGNED_CONTEXT ( ( #192 ) ) GLOBAL_UNIT_ASSIGNED_CONTEXT ( ( #53, #256, #216 ) ) REPRESENTATION_CONTEXT ( 'NONE', 'WORKASPACE' ) );
#2 = DIRECTION ( 'NONE',  ( -1.228345323885430886E-16, 1.000000000000000000, 0.000000000000000000 ) ) ;
#3 = DIRECTION ( 'NONE',  ( -1.228345323885430886E-16, 1.000000000000000000, -0.000000000000000000 ) ) ;
#4 = CLOSED_SHELL ( 'NONE', ( #118, #122, #261 ) ) ;
#5 = FACE_OUTER_BOUND ( 'NONE', #240, .T. ) ;
#6 = AXIS2_PLACEMENT_3D ( 'NONE', #169, #123, #142 ) ;
#7 = EDGE_CURVE ( 'NONE', #218, #214, #154, .T. ) ;
#8 = DIRECTION ( 'NONE',  ( -1.228345323885430886E-16, 1.000000000000000000, -0.000000000000000000 ) ) ;
#9 = CARTESIAN_POINT ( 'NONE',  ( 2.304996744654222029E-16, 0.1249999999999996253, 0.000000000000000000 ) ) ;
#10 = DIMENSIONAL_EXPONENTS ( 1.000000000000000000, 0.000000000000000000, 0.000000000000000000, 0.000000000000000000, 0.000000000000000000, 0.000000000000000000, 0.000000000000000000 ) ;
#11 = EDGE_LOOP ( 'NONE', ( #179, #237 ) ) ;
#12 = MECHANICAL_DESIGN_GEOMETRIC_PRESENTATION_REPRESENTATION (  '', ( #98 ), #117 ) ;
#13 = UNCERTAINTY_MEASURE_WITH_UNIT (LENGTH_MEASURE( 1.000000000000000082E-05 ), #174, 'distance_accuracy_value', 'NONE');
#14 = DIMENSIONAL_EXPONENTS ( 1.000000000000000000, 0.000000000000000000, 0.000000000000000000, 0.000000000000000000, 0.000000000000000000, 0.000000000000000000, 0.000000000000000000 ) ;
#15 = CARTESIAN_POINT ( 'NONE',  ( 0.1249999999999999584, 2.500000000000000000, 0.000000000000000000 ) ) ;
#16 = FILL_AREA_STYLE_COLOUR ( '', #42 ) ;
#17 = COLOUR_RGB ( '',0.7921568627450980005, 0.8196078431372548767, 0.9333333333333333481 ) ;
#18 = EDGE_CURVE ( 'NONE', #78, #263, #208, .T. ) ;
#19 = AXIS2_PLACEMENT_3D ( 'NONE', #158, #8, #239 ) ;
#20 = EDGE_CURVE ( 'NONE', #89, #185, #227, .T. ) ;
#21 = SURFACE_STYLE_USAGE ( .BOTH. , #65 ) ;
#22 = PRESENTATION_LAYER_ASSIGNMENT (  '', '', ( #47 ) ) ;
#23 = CARTESIAN_POINT ( 'NONE',  ( 0.000000000000000000, 0.1249999999999995559, 0.000000000000000000 ) ) ;
#24 = APPLICATION_CONTEXT ( 'automotive_design' ) ;
#25 = SURFACE_STYLE_USAGE ( .BOTH. , #150 ) ;
#26 = PRODUCT_DEFINITION_CONTEXT ( 'detailed design', #54, 'design' ) ;
#27 = LENGTH_MEASURE_WITH_UNIT ( LENGTH_MEASURE( 0.02539999999999999897 ), #29 );
#28 = MECHANICAL_DESIGN_GEOMETRIC_PRESENTATION_REPRESENTATION (  '', ( #56 ), #110 ) ;
#29 =( LENGTH_UNIT ( ) NAMED_UNIT ( * ) SI_UNIT ( $, .METRE. ) );
#30 = ORIENTED_EDGE ( 'NONE', *, *, #125, .F. ) ;
#31 = PRESENTATION_LAYER_ASSIGNMENT (  '', '', ( #98 ) ) ;
#32 = ORIENTED_EDGE ( 'NONE', *, *, #125, .T. ) ;
#33 = AXIS2_PLACEMENT_3D ( 'NONE', #87, #190, #104 ) ;
#34 =( NAMED_UNIT ( * ) SI_UNIT ( $, .STERADIAN. ) SOLID_ANGLE_UNIT ( ) );
#35 = LINE ( 'NONE', #145, #105 ) ;
#36 = DIRECTION ( 'NONE',  ( -1.228345323885430886E-16, 1.000000000000000000, -0.000000000000000000 ) ) ;
#37 = ORIENTED_EDGE ( 'NONE', *, *, #18, .T. ) ;
#38 = ORIENTED_EDGE ( 'NONE', *, *, #188, .F. ) ;
#39 = DIMENSIONAL_EXPONENTS ( 1.000000000000000000, 0.000000000000000000, 0.000000000000000000, 0.000000000000000000, 0.000000000000000000, 0.000000000000000000, 0.000000000000000000 ) ;
#40 = MECHANICAL_DESIGN_GEOMETRIC_PRESENTATION_REPRESENTATION (  '', ( #52 ), #106 ) ;
#41 = DIRECTION ( 'NONE',  ( -1.000000000000000000, 0.000000000000000000, 0.000000000000000000 ) ) ;
#42 = COLOUR_RGB ( '',1.000000000000000000, 0.000000000000000000, 0.000000000000000000 ) ;
#43 = VECTOR ( 'NONE', #45, 39.37007874015748854 ) ;
#44 = CARTESIAN_POINT ( 'NONE',  ( -6.123233995736766036E-17, 2.500000000000000000, 0.000000000000000000 ) ) ;
#45 = DIRECTION ( 'NONE',  ( 8.659560562354947649E-17, 0.7071067811865462405, -0.7071067811865486830 ) ) ;
#46 = DIRECTION ( 'NONE',  ( 0.000000000000000000, 0.000000000000000000, 1.000000000000000000 ) ) ;
#47 = STYLED_ITEM ( 'NONE', ( #161 ), #261 ) ;
#48 = PRESENTATION_STYLE_ASSIGNMENT (( #151 ) ) ;
#49 = CYLINDRICAL_SURFACE ( 'NONE', #19, 0.1249999999999999029 ) ;
#50 = CARTESIAN_POINT ( 'NONE',  ( 0.000000000000000000, 0.000000000000000000, 0.000000000000000000 ) ) ;
#51 = SURFACE_SIDE_STYLE ('',( #231 ) ) ;
#52 = STYLED_ITEM ( 'NONE', ( #153 ), #202 ) ;
#53 =( CONVERSION_BASED_UNIT ( 'INCH', #213 ) LENGTH_UNIT ( ) NAMED_UNIT ( #39 ) );
#54 = APPLICATION_CONTEXT ( 'automotive_design' ) ;
#55 = CARTESIAN_POINT ( 'NONE',  ( 0.000000000000000000, 0.1249999999999995559, 0.1249999999999999861 ) ) ;
#56 = STYLED_ITEM ( 'NONE', ( #243 ), #108 ) ;
#57 = ORIENTED_EDGE ( 'NONE', *, *, #61, .T. ) ;
#58 = CONICAL_SURFACE ( 'NONE', #196, 39.37007874015762354, 0.7853981633974500554 ) ;
#59 = CARTESIAN_POINT ( 'NONE',  ( -6.123233995736766036E-17, 2.500000000000000000, 0.000000000000000000 ) ) ;
#60 = DIRECTION ( 'NONE',  ( -1.000000000000000000, -1.365923996832134074E-16, 0.000000000000000000 ) ) ;
#61 = EDGE_CURVE ( 'NONE', #218, #185, #35, .T. ) ;
#62 = CARTESIAN_POINT ( 'NONE',  ( 0.000000000000000000, 0.000000000000000000, 0.000000000000000000 ) ) ;
#63 = PRODUCT_DEFINITION ( 'UNKNOWN', '', #86, #26 ) ;
#64 = VECTOR ( 'NONE', #228, 39.37007874015748854 ) ;
#65 = SURFACE_SIDE_STYLE ('',( #167 ) ) ;
#66 = PRODUCT_DEFINITION_SHAPE ( 'NONE', 'NONE',  #63 ) ;
#67 = LINE ( 'NONE', #50, #64 ) ;
#68 =( CONVERSION_BASED_UNIT ( 'INCH', #27 ) LENGTH_UNIT ( ) NAMED_UNIT ( #10 ) );
#69 = PLANE ( 'NONE',  #201 ) ;
#70 = DIRECTION ( 'NONE',  ( 0.000000000000000000, 1.000000000000000000, 0.000000000000000000 ) ) ;
#71 = COLOUR_RGB ( '',1.000000000000000000, 0.000000000000000000, 0.000000000000000000 ) ;
#72 = CARTESIAN_POINT ( 'NONE',  ( 0.000000000000000000, 0.1249999999999995559, 0.000000000000000000 ) ) ;
#73 = ORIENTED_EDGE ( 'NONE', *, *, #229, .T. ) ;
#74 = EDGE_CURVE ( 'NONE', #235, #78, #97, .T. ) ;
#75 = ORIENTED_EDGE ( 'NONE', *, *, #101, .F. ) ;
#76 = DIRECTION ( 'NONE',  ( 0.000000000000000000, 0.000000000000000000, 1.000000000000000000 ) ) ;
#77 = DIRECTION ( 'NONE',  ( -1.000000000000000000, 0.000000000000000000, 0.000000000000000000 ) ) ;
#78 = VERTEX_POINT ( 'NONE', #164 ) ;
#79 = DIRECTION ( 'NONE',  ( 0.000000000000000000, 0.000000000000000000, -1.000000000000000000 ) ) ;
#80 = AXIS2_PLACEMENT_3D ( 'NONE', #212, #91, #79 ) ;
#81 = FACE_OUTER_BOUND ( 'NONE', #111, .T. ) ;
#82 =( CONVERSION_BASED_UNIT ( 'INCH', #264 ) LENGTH_UNIT ( ) NAMED_UNIT ( #217 ) );
#83 = AXIS2_PLACEMENT_3D ( 'NONE', #15, #173, #224 ) ;
#84 = CIRCLE ( 'NONE', #33, 0.1249999999999997641 ) ;
#85 = FILL_AREA_STYLE ('',( #130 ) ) ;
#86 = PRODUCT_DEFINITION_FORMATION_WITH_SPECIFIED_SOURCE ( 'ANY', '', #149, .NOT_KNOWN. ) ;
#87 = CARTESIAN_POINT ( 'NONE',  ( 2.304996744654222029E-16, 0.1249999999999996253, 0.000000000000000000 ) ) ;
#88 = FILL_AREA_STYLE_COLOUR ( '', #172 ) ;
#89 = VERTEX_POINT ( 'NONE', #124 ) ;
#90 =( NAMED_UNIT ( * ) SI_UNIT ( $, .STERADIAN. ) SOLID_ANGLE_UNIT ( ) );
#91 = DIRECTION ( 'NONE',  ( -0.000000000000000000, -1.000000000000000000, -0.000000000000000000 ) ) ;
#92 = DIRECTION ( 'NONE',  ( -1.228345323885430886E-16, 1.000000000000000000, -0.000000000000000000 ) ) ;
#93 = ADVANCED_BREP_SHAPE_REPRESENTATION ( '06138', ( #108, #202, #6 ), #1 ) ;
#94 = AXIS2_PLACEMENT_3D ( 'NONE', #44, #128, #41 ) ;
#95 = ORIENTED_EDGE ( 'NONE', *, *, #7, .T. ) ;
#96 = SURFACE_STYLE_USAGE ( .BOTH. , #112 ) ;
#97 = LINE ( 'NONE', #62, #43 ) ;
#98 = STYLED_ITEM ( 'NONE', ( #225 ), #118 ) ;
#99 = SURFACE_STYLE_USAGE ( .BOTH. , #143 ) ;
#100 =( NAMED_UNIT ( * ) PLANE_ANGLE_UNIT ( ) SI_UNIT ( $, .RADIAN. ) );
#101 = EDGE_CURVE ( 'NONE', #185, #89, #146, .T. ) ;
#102 = PRESENTATION_LAYER_ASSIGNMENT (  '', '', ( #219 ) ) ;
#103 = LINE ( 'NONE', #230, #253 ) ;
#104 = DIRECTION ( 'NONE',  ( -1.000000000000000000, -1.365923996832134074E-16, 0.000000000000000000 ) ) ;
#105 = VECTOR ( 'NONE', #242, 39.37007874015748143 ) ;
#106 =( GEOMETRIC_REPRESENTATION_CONTEXT ( 3 ) GLOBAL_UNCERTAINTY_ASSIGNED_CONTEXT ( ( #183 ) ) GLOBAL_UNIT_ASSIGNED_CONTEXT ( ( #68, #176, #34 ) ) REPRESENTATION_CONTEXT ( 'NONE', 'WORKASPACE' ) );
#107 = DIRECTION ( 'NONE',  ( 0.000000000000000000, -0.000000000000000000, 1.000000000000000000 ) ) ;
#108 = MANIFOLD_SOLID_BREP ( 'Revolve - Cutting Edge', #4 ) ;
#109 = EDGE_LOOP ( 'NONE', ( #38, #157, #37 ) ) ;
#110 =( GEOMETRIC_REPRESENTATION_CONTEXT ( 3 ) GLOBAL_UNCERTAINTY_ASSIGNED_CONTEXT ( ( #116 ) ) GLOBAL_UNIT_ASSIGNED_CONTEXT ( ( #82, #100, #221 ) ) REPRESENTATION_CONTEXT ( 'NONE', 'WORKASPACE' ) );
#111 = EDGE_LOOP ( 'NONE', ( #198, #141 ) ) ;
#112 = SURFACE_SIDE_STYLE ('',( #197 ) ) ;
#113 = ADVANCED_FACE ( 'NONE', ( #81 ), #203, .F. ) ;
#114 = CARTESIAN_POINT ( 'NONE',  ( -0.1249999999999995143, 0.1249999999999996114, 0.000000000000000000 ) ) ;
#115 = ORIENTED_EDGE ( 'NONE', *, *, #74, .F. ) ;
#116 = UNCERTAINTY_MEASURE_WITH_UNIT (LENGTH_MEASURE( 1.000000000000000082E-05 ), #82, 'distance_accuracy_value', 'NONE');
#117 =( GEOMETRIC_REPRESENTATION_CONTEXT ( 3 ) GLOBAL_UNCERTAINTY_ASSIGNED_CONTEXT ( ( #238 ) ) GLOBAL_UNIT_ASSIGNED_CONTEXT ( ( #222, #120, #186 ) ) REPRESENTATION_CONTEXT ( 'NONE', 'WORKASPACE' ) );
#118 = ADVANCED_FACE ( 'NONE', ( #170 ), #205, .T. ) ;
#119 = AXIS2_PLACEMENT_3D ( 'NONE', #59, #36, #77 ) ;
#120 =( NAMED_UNIT ( * ) PLANE_ANGLE_UNIT ( ) SI_UNIT ( $, .RADIAN. ) );
#121 = SURFACE_STYLE_FILL_AREA ( #126 ) ;
#122 = ADVANCED_FACE ( 'NONE', ( #194 ), #69, .T. ) ;
#123 = DIRECTION ( 'NONE',  ( 0.000000000000000000, 0.000000000000000000, 1.000000000000000000 ) ) ;
#124 = CARTESIAN_POINT ( 'NONE',  ( 0.1249999999999999445, 2.500000000000000000, 1.530808498934190893E-17 ) ) ;
#125 = EDGE_CURVE ( 'NONE', #214, #89, #103, .T. ) ;
#126 = FILL_AREA_STYLE ('',( #223 ) ) ;
#127 = SHAPE_DEFINITION_REPRESENTATION ( #66, #93 ) ;
#128 = DIRECTION ( 'NONE',  ( -1.228345323885430886E-16, 1.000000000000000000, -0.000000000000000000 ) ) ;
#129 = FACE_OUTER_BOUND ( 'NONE', #11, .T. ) ;
#130 = FILL_AREA_STYLE_COLOUR ( '', #71 ) ;
#131 =( LENGTH_UNIT ( ) NAMED_UNIT ( * ) SI_UNIT ( $, .METRE. ) );
#132 = CARTESIAN_POINT ( 'NONE',  ( 0.000000000000000000, 0.000000000000000000, 0.000000000000000000 ) ) ;
#133 = CARTESIAN_POINT ( 'NONE',  ( 0.000000000000000000, 39.37007874015748143, 0.000000000000000000 ) ) ;
#134 =( NAMED_UNIT ( * ) PLANE_ANGLE_UNIT ( ) SI_UNIT ( $, .RADIAN. ) );
#135 =( GEOMETRIC_REPRESENTATION_CONTEXT ( 3 ) GLOBAL_UNCERTAINTY_ASSIGNED_CONTEXT ( ( #13 ) ) GLOBAL_UNIT_ASSIGNED_CONTEXT ( ( #174, #226, #250 ) ) REPRESENTATION_CONTEXT ( 'NONE', 'WORKASPACE' ) );
#136 = ORIENTED_EDGE ( 'NONE', *, *, #20, .F. ) ;
#137 = UNCERTAINTY_MEASURE_WITH_UNIT (LENGTH_MEASURE( 1.000000000000000082E-05 ), #184, 'distance_accuracy_value', 'NONE');
#138 =( LENGTH_UNIT ( ) NAMED_UNIT ( * ) SI_UNIT ( $, .METRE. ) );
#139 = ORIENTED_EDGE ( 'NONE', *, *, #61, .F. ) ;
#140 = COLOUR_RGB ( '',0.7921568627450980005, 0.8196078431372548767, 0.9333333333333333481 ) ;
#141 = ORIENTED_EDGE ( 'NONE', *, *, #20, .T. ) ;
#142 = DIRECTION ( 'NONE',  ( 1.000000000000000000, 0.000000000000000000, 0.000000000000000000 ) ) ;
#143 = SURFACE_SIDE_STYLE ('',( #121 ) ) ;
#144 = FILL_AREA_STYLE ('',( #16 ) ) ;
#145 = CARTESIAN_POINT ( 'NONE',  ( -0.1249999999999999584, 2.500000000000000000, 0.000000000000000000 ) ) ;
#146 = CIRCLE ( 'NONE', #94, 0.1250000000000000278 ) ;
#147 = EDGE_CURVE ( 'NONE', #214, #218, #84, .T. ) ;
#148 =( LENGTH_UNIT ( ) NAMED_UNIT ( * ) SI_UNIT ( $, .METRE. ) );
#149 = PRODUCT ( '06138', '06138', '', ( #165 ) ) ;
#150 = SURFACE_SIDE_STYLE ('',( #207 ) ) ;
#151 = SURFACE_STYLE_USAGE ( .BOTH. , #51 ) ;
#152 = DIRECTION ( 'NONE',  ( -1.000000000000000000, -1.228345323885430886E-16, 0.000000000000000000 ) ) ;
#153 = PRESENTATION_STYLE_ASSIGNMENT (( #25 ) ) ;
#154 = CIRCLE ( 'NONE', #171, 0.1249999999999997641 ) ;
#155 = PRESENTATION_LAYER_ASSIGNMENT (  '', '', ( #52 ) ) ;
#156 = FACE_OUTER_BOUND ( 'NONE', #182, .T. ) ;
#157 = ORIENTED_EDGE ( 'NONE', *, *, #74, .T. ) ;
#158 = CARTESIAN_POINT ( 'NONE',  ( -6.123233995736766036E-17, 2.500000000000000000, 0.000000000000000000 ) ) ;
#159 = ORIENTED_EDGE ( 'NONE', *, *, #18, .F. ) ;
#160 = CLOSED_SHELL ( 'NONE', ( #246, #166, #215, #113 ) ) ;
#161 = PRESENTATION_STYLE_ASSIGNMENT (( #96 ) ) ;
#162 = EDGE_LOOP ( 'NONE', ( #115, #195, #73 ) ) ;
#163 = CIRCLE ( 'NONE', #232, 0.1249999999999999861 ) ;
#164 = CARTESIAN_POINT ( 'NONE',  ( 1.530808498934191509E-17, 0.1249999999999995559, -0.1249999999999999861 ) ) ;
#165 = PRODUCT_CONTEXT ( 'NONE', #24, 'mechanical' ) ;
#166 = ADVANCED_FACE ( 'NONE', ( #129 ), #249, .F. ) ;
#167 = SURFACE_STYLE_FILL_AREA ( #144 ) ;
#168 = APPLICATION_PROTOCOL_DEFINITION ( 'draft international standard', 'automotive_design', 1998, #54 ) ;
#169 = CARTESIAN_POINT ( 'NONE',  ( 0.000000000000000000, 0.000000000000000000, 0.000000000000000000 ) ) ;
#170 = FACE_OUTER_BOUND ( 'NONE', #109, .T. ) ;
#171 = AXIS2_PLACEMENT_3D ( 'NONE', #9, #92, #60 ) ;
#172 = COLOUR_RGB ( '',1.000000000000000000, 0.000000000000000000, 0.000000000000000000 ) ;
#173 = DIRECTION ( 'NONE',  ( 1.228345323885430886E-16, -1.000000000000000000, 0.000000000000000000 ) ) ;
#174 =( CONVERSION_BASED_UNIT ( 'INCH', #204 ) LENGTH_UNIT ( ) NAMED_UNIT ( #262 ) );
#175 = CARTESIAN_POINT ( 'NONE',  ( 2.304996744654222029E-16, 0.1249999999999995559, 0.000000000000000000 ) ) ;
#176 =( NAMED_UNIT ( * ) PLANE_ANGLE_UNIT ( ) SI_UNIT ( $, .RADIAN. ) );
#177 = CARTESIAN_POINT ( 'NONE',  ( -6.123233995736766036E-17, 2.500000000000000000, 0.000000000000000000 ) ) ;
#178 = FILL_AREA_STYLE ('',( #88 ) ) ;
#179 = ORIENTED_EDGE ( 'NONE', *, *, #7, .F. ) ;
#180 = MECHANICAL_DESIGN_GEOMETRIC_PRESENTATION_REPRESENTATION (  '', ( #47 ), #220 ) ;
#181 = DIRECTION ( 'NONE',  ( 0.000000000000000000, 0.000000000000000000, -1.000000000000000000 ) ) ;
#182 = EDGE_LOOP ( 'NONE', ( #30, #210, #57, #136 ) ) ;
#183 = UNCERTAINTY_MEASURE_WITH_UNIT (LENGTH_MEASURE( 1.000000000000000082E-05 ), #68, 'distance_accuracy_value', 'NONE');
#184 =( CONVERSION_BASED_UNIT ( 'INCH', #258 ) LENGTH_UNIT ( ) NAMED_UNIT ( #14 ) );
#185 = VERTEX_POINT ( 'NONE', #248 ) ;
#186 =( NAMED_UNIT ( * ) SI_UNIT ( $, .STERADIAN. ) SOLID_ANGLE_UNIT ( ) );
#187 = APPLICATION_PROTOCOL_DEFINITION ( 'draft international standard', 'automotive_design', 1998, #24 ) ;
#188 = EDGE_CURVE ( 'NONE', #235, #263, #67, .T. ) ;
#189 =( LENGTH_UNIT ( ) NAMED_UNIT ( * ) SI_UNIT ( $, .METRE. ) );
#190 = DIRECTION ( 'NONE',  ( -1.228345323885430886E-16, 1.000000000000000000, -0.000000000000000000 ) ) ;
#191 = FILL_AREA_STYLE ('',( #206 ) ) ;
#192 = UNCERTAINTY_MEASURE_WITH_UNIT (LENGTH_MEASURE( 1.000000000000000082E-05 ), #53, 'distance_accuracy_value', 'NONE');
#193 = AXIS2_PLACEMENT_3D ( 'NONE', #175, #2, #152 ) ;
#194 = FACE_OUTER_BOUND ( 'NONE', #255, .T. ) ;
#195 = ORIENTED_EDGE ( 'NONE', *, *, #188, .T. ) ;
#196 = AXIS2_PLACEMENT_3D ( 'NONE', #133, #233, #76 ) ;
#197 = SURFACE_STYLE_FILL_AREA ( #178 ) ;
#198 = ORIENTED_EDGE ( 'NONE', *, *, #101, .T. ) ;
#199 = ORIENTED_EDGE ( 'NONE', *, *, #229, .F. ) ;
#200 = AXIS2_PLACEMENT_3D ( 'NONE', #245, #70, #46 ) ;
#201 = AXIS2_PLACEMENT_3D ( 'NONE', #23, #251, #107 ) ;
#202 = MANIFOLD_SOLID_BREP ( 'Revolve - Tool Body (Pointed)', #160 ) ;
#203 = PLANE ( 'NONE',  #83 ) ;
#204 = LENGTH_MEASURE_WITH_UNIT ( LENGTH_MEASURE( 0.02539999999999999897 ), #131 );
#205 = CONICAL_SURFACE ( 'NONE', #200, 39.37007874015762354, 0.7853981633974500554 ) ;
#206 = FILL_AREA_STYLE_COLOUR ( '', #140 ) ;
#207 = SURFACE_STYLE_FILL_AREA ( #191 ) ;
#208 = CIRCLE ( 'NONE', #80, 0.1249999999999999861 ) ;
#209 = CARTESIAN_POINT ( 'NONE',  ( 0.1249999999999999584, 0.1249999999999996392, 1.530808498934190893E-17 ) ) ;
#210 = ORIENTED_EDGE ( 'NONE', *, *, #147, .T. ) ;
#211 = PRESENTATION_LAYER_ASSIGNMENT (  '', '', ( #56 ) ) ;
#212 = CARTESIAN_POINT ( 'NONE',  ( 0.000000000000000000, 0.1249999999999995559, 0.000000000000000000 ) ) ;
#213 = LENGTH_MEASURE_WITH_UNIT ( LENGTH_MEASURE( 0.02539999999999999897 ), #234 );
#214 = VERTEX_POINT ( 'NONE', #209 ) ;
#215 = ADVANCED_FACE ( 'NONE', ( #156 ), #49, .T. ) ;
#216 =( NAMED_UNIT ( * ) SI_UNIT ( $, .STERADIAN. ) SOLID_ANGLE_UNIT ( ) );
#217 = DIMENSIONAL_EXPONENTS ( 1.000000000000000000, 0.000000000000000000, 0.000000000000000000, 0.000000000000000000, 0.000000000000000000, 0.000000000000000000, 0.000000000000000000 ) ;
#218 = VERTEX_POINT ( 'NONE', #114 ) ;
#219 = STYLED_ITEM ( 'NONE', ( #48 ), #122 ) ;
#220 =( GEOMETRIC_REPRESENTATION_CONTEXT ( 3 ) GLOBAL_UNCERTAINTY_ASSIGNED_CONTEXT ( ( #137 ) ) GLOBAL_UNIT_ASSIGNED_CONTEXT ( ( #184, #134, #90 ) ) REPRESENTATION_CONTEXT ( 'NONE', 'WORKASPACE' ) );
#221 =( NAMED_UNIT ( * ) SI_UNIT ( $, .STERADIAN. ) SOLID_ANGLE_UNIT ( ) );
#222 =( CONVERSION_BASED_UNIT ( 'INCH', #247 ) LENGTH_UNIT ( ) NAMED_UNIT ( #241 ) );
#223 = FILL_AREA_STYLE_COLOUR ( '', #17 ) ;
#224 = DIRECTION ( 'NONE',  ( 1.000000000000000000, 1.228345323885430886E-16, 0.000000000000000000 ) ) ;
#225 = PRESENTATION_STYLE_ASSIGNMENT (( #21 ) ) ;
#226 =( NAMED_UNIT ( * ) PLANE_ANGLE_UNIT ( ) SI_UNIT ( $, .RADIAN. ) );
#227 = CIRCLE ( 'NONE', #265, 0.1250000000000000278 ) ;
#228 = DIRECTION ( 'NONE',  ( 0.000000000000000000, 0.7071067811865462405, 0.7071067811865486830 ) ) ;
#229 = EDGE_CURVE ( 'NONE', #263, #78, #163, .T. ) ;
#230 = CARTESIAN_POINT ( 'NONE',  ( 0.1249999999999998335, 2.500000000000000000, 1.530808498934190276E-17 ) ) ;
#231 = SURFACE_STYLE_FILL_AREA ( #85 ) ;
#232 = AXIS2_PLACEMENT_3D ( 'NONE', #72, #260, #181 ) ;
#233 = DIRECTION ( 'NONE',  ( 0.000000000000000000, 1.000000000000000000, 0.000000000000000000 ) ) ;
#234 =( LENGTH_UNIT ( ) NAMED_UNIT ( * ) SI_UNIT ( $, .METRE. ) );
#235 = VERTEX_POINT ( 'NONE', #132 ) ;
#236 = CYLINDRICAL_SURFACE ( 'NONE', #119, 0.1249999999999999029 ) ;
#237 = ORIENTED_EDGE ( 'NONE', *, *, #147, .F. ) ;
#238 = UNCERTAINTY_MEASURE_WITH_UNIT (LENGTH_MEASURE( 1.000000000000000082E-05 ), #222, 'distance_accuracy_value', 'NONE');
#239 = DIRECTION ( 'NONE',  ( -1.000000000000000000, 0.000000000000000000, 0.000000000000000000 ) ) ;
#240 = EDGE_LOOP ( 'NONE', ( #95, #32, #75, #139 ) ) ;
#241 = DIMENSIONAL_EXPONENTS ( 1.000000000000000000, 0.000000000000000000, 0.000000000000000000, 0.000000000000000000, 0.000000000000000000, 0.000000000000000000, 0.000000000000000000 ) ;
#242 = DIRECTION ( 'NONE',  ( -1.228345323885430886E-16, 1.000000000000000000, -0.000000000000000000 ) ) ;
#243 = PRESENTATION_STYLE_ASSIGNMENT (( #99 ) ) ;
#244 = PRODUCT_RELATED_PRODUCT_CATEGORY ( 'part', '', ( #149 ) ) ;
#245 = CARTESIAN_POINT ( 'NONE',  ( 0.000000000000000000, 39.37007874015748143, 0.000000000000000000 ) ) ;
#246 = ADVANCED_FACE ( 'NONE', ( #5 ), #236, .T. ) ;
#247 = LENGTH_MEASURE_WITH_UNIT ( LENGTH_MEASURE( 0.02539999999999999897 ), #189 );
#248 = CARTESIAN_POINT ( 'NONE',  ( -0.1250000000000001110, 2.500000000000000000, 0.000000000000000000 ) ) ;
#249 = PLANE ( 'NONE',  #193 ) ;
#250 =( NAMED_UNIT ( * ) SI_UNIT ( $, .STERADIAN. ) SOLID_ANGLE_UNIT ( ) );
#251 = DIRECTION ( 'NONE',  ( 0.000000000000000000, 1.000000000000000000, 0.000000000000000000 ) ) ;
#252 = MECHANICAL_DESIGN_GEOMETRIC_PRESENTATION_REPRESENTATION (  '', ( #219 ), #135 ) ;
#253 = VECTOR ( 'NONE', #3, 39.37007874015748143 ) ;
#254 = FACE_OUTER_BOUND ( 'NONE', #162, .T. ) ;
#255 = EDGE_LOOP ( 'NONE', ( #199, #159 ) ) ;
#256 =( NAMED_UNIT ( * ) PLANE_ANGLE_UNIT ( ) SI_UNIT ( $, .RADIAN. ) );
#257 = DIRECTION ( 'NONE',  ( -1.000000000000000000, 0.000000000000000000, 0.000000000000000000 ) ) ;
#258 = LENGTH_MEASURE_WITH_UNIT ( LENGTH_MEASURE( 0.02539999999999999897 ), #138 );
#259 = DIRECTION ( 'NONE',  ( -1.228345323885430886E-16, 1.000000000000000000, -0.000000000000000000 ) ) ;
#260 = DIRECTION ( 'NONE',  ( -0.000000000000000000, -1.000000000000000000, -0.000000000000000000 ) ) ;
#261 = ADVANCED_FACE ( 'NONE', ( #254 ), #58, .T. ) ;
#262 = DIMENSIONAL_EXPONENTS ( 1.000000000000000000, 0.000000000000000000, 0.000000000000000000, 0.000000000000000000, 0.000000000000000000, 0.000000000000000000, 0.000000000000000000 ) ;
#263 = VERTEX_POINT ( 'NONE', #55 ) ;
#264 = LENGTH_MEASURE_WITH_UNIT ( LENGTH_MEASURE( 0.02539999999999999897 ), #148 );
#265 = AXIS2_PLACEMENT_3D ( 'NONE', #177, #259, #257 ) ;
ENDSEC;
END-ISO-10303-21;
