ISO-10303-21;
HEADER;
FILE_DESCRIPTION (( 'STEP AP214' ),
    '1' );
FILE_NAME ('81711.STEP',
    '2023-06-23T02:52:07',
    ( '' ),
    ( '' ),
    'SwSTEP 2.0',
    'SolidWorks 2023',
    '' );
FILE_SCHEMA (( 'AUTOMOTIVE_DESIGN' ));
ENDSEC;

DATA;
#1 = DIRECTION ( 'NONE',  ( 0.000000000000000000, 0.000000000000000000, -1.000000000000000000 ) ) ;
#2 = LINE ( 'NONE', #163, #284 ) ;
#3 = AXIS2_PLACEMENT_3D ( 'NONE', #14, #342, #230 ) ;
#4 = CIRCLE ( 'NONE', #18, 0.1405999999999999750 ) ;
#5 = CARTESIAN_POINT ( 'NONE',  ( -1.504496843994959527E-18, 0.7929980216144649763, 0.000000000000000000 ) ) ;
#6 = UNCERTAINTY_MEASURE_WITH_UNIT (LENGTH_MEASURE( 1.000000000000000082E-05 ), #157, 'distance_accuracy_value', 'NONE');
#7 = SURFACE_STYLE_FILL_AREA ( #340 ) ;
#8 = FACE_OUTER_BOUND ( 'NONE', #312, .T. ) ;
#9 = CARTESIAN_POINT ( 'NONE',  ( -7.582401355855259480E-33, 0.7499999999999998890, 0.000000000000000000 ) ) ;
#10 = EDGE_CURVE ( 'NONE', #346, #110, #303, .T. ) ;
#11 = MANIFOLD_SOLID_BREP ( 'Revolve - Cutting Edge', #357 ) ;
#12 = COLOUR_RGB ( '',0.7921568627450980005, 0.8196078431372548767, 0.9333333333333333481 ) ;
#13 = LENGTH_MEASURE_WITH_UNIT ( LENGTH_MEASURE( 0.02539999999999999897 ), #231 );
#14 = CARTESIAN_POINT ( 'NONE',  ( -7.582401355855259480E-33, 0.7499999999999998890, 0.000000000000000000 ) ) ;
#15 = ORIENTED_EDGE ( 'NONE', *, *, #128, .T. ) ;
#16 = SURFACE_SIDE_STYLE ('',( #345 ) ) ;
#17 = ADVANCED_FACE ( 'NONE', ( #176 ), #106, .T. ) ;
#18 = AXIS2_PLACEMENT_3D ( 'NONE', #138, #244, #308 ) ;
#19 = DIRECTION ( 'NONE',  ( -3.498990854706722745E-17, 1.000000000000000000, -0.000000000000000000 ) ) ;
#20 = FACE_OUTER_BOUND ( 'NONE', #309, .T. ) ;
#21 = ORIENTED_EDGE ( 'NONE', *, *, #51, .T. ) ;
#22 = EDGE_LOOP ( 'NONE', ( #242, #292, #173, #282 ) ) ;
#23 = AXIS2_PLACEMENT_3D ( 'NONE', #30, #354, #248 ) ;
#24 = CARTESIAN_POINT ( 'NONE',  ( 0.000000000000000000, 0.000000000000000000, -0.1406000000000000028 ) ) ;
#25 = ORIENTED_EDGE ( 'NONE', *, *, #241, .T. ) ;
#26 = DIRECTION ( 'NONE',  ( -1.000000000000000000, 0.000000000000000000, 0.000000000000000000 ) ) ;
#27 = UNCERTAINTY_MEASURE_WITH_UNIT (LENGTH_MEASURE( 1.000000000000000082E-05 ), #272, 'distance_accuracy_value', 'NONE');
#28 = DIRECTION ( 'NONE',  ( -1.000000000000000000, 0.000000000000000000, 0.000000000000000000 ) ) ;
#29 = STYLED_ITEM ( 'NONE', ( #353 ), #142 ) ;
#30 = CARTESIAN_POINT ( 'NONE',  ( 0.000000000000000000, 0.000000000000000000, 0.000000000000000000 ) ) ;
#31 = DIRECTION ( 'NONE',  ( -3.498990854706722745E-17, 1.000000000000000000, -0.000000000000000000 ) ) ;
#32 =( GEOMETRIC_REPRESENTATION_CONTEXT ( 3 ) GLOBAL_UNCERTAINTY_ASSIGNED_CONTEXT ( ( #27 ) ) GLOBAL_UNIT_ASSIGNED_CONTEXT ( ( #272, #92, #54 ) ) REPRESENTATION_CONTEXT ( 'NONE', 'WORKASPACE' ) );
#33 = AXIS2_PLACEMENT_3D ( 'NONE', #91, #42, #207 ) ;
#34 = CARTESIAN_POINT ( 'NONE',  ( 1.721853399601178741E-17, 0.000000000000000000, 0.1406000000000000028 ) ) ;
#35 = DIRECTION ( 'NONE',  ( -0.000000000000000000, -1.000000000000000000, -0.000000000000000000 ) ) ;
#36 = LINE ( 'NONE', #34, #246 ) ;
#37 = EDGE_CURVE ( 'NONE', #346, #95, #55, .T. ) ;
#38 = ORIENTED_EDGE ( 'NONE', *, *, #327, .T. ) ;
#39 = CARTESIAN_POINT ( 'NONE',  ( 0.000000000000000000, 0.000000000000000000, 0.000000000000000000 ) ) ;
#40 = LINE ( 'NONE', #83, #49 ) ;
#41 = EDGE_CURVE ( 'NONE', #78, #103, #112, .T. ) ;
#42 = DIRECTION ( 'NONE',  ( -0.000000000000000000, -1.000000000000000000, -0.000000000000000000 ) ) ;
#43 = FILL_AREA_STYLE ('',( #97 ) ) ;
#44 = LINE ( 'NONE', #321, #50 ) ;
#45 = AXIS2_PLACEMENT_3D ( 'NONE', #330, #165, #26 ) ;
#46 = SURFACE_STYLE_USAGE ( .BOTH. , #289 ) ;
#47 = ORIENTED_EDGE ( 'NONE', *, *, #238, .T. ) ;
#48 = DIRECTION ( 'NONE',  ( -0.000000000000000000, -1.000000000000000000, -0.000000000000000000 ) ) ;
#49 = VECTOR ( 'NONE', #89, 39.37007874015748143 ) ;
#50 = VECTOR ( 'NONE', #68, 39.37007874015748143 ) ;
#51 = EDGE_CURVE ( 'NONE', #71, #346, #40, .T. ) ;
#52 = STYLED_ITEM ( 'NONE', ( #298 ), #307 ) ;
#53 =( CONVERSION_BASED_UNIT ( 'INCH', #274 ) LENGTH_UNIT ( ) NAMED_UNIT ( #149 ) );
#54 =( NAMED_UNIT ( * ) SI_UNIT ( $, .STERADIAN. ) SOLID_ANGLE_UNIT ( ) );
#55 = CIRCLE ( 'NONE', #199, 0.1562500000000000000 ) ;
#56 = VERTEX_POINT ( 'NONE', #198 ) ;
#57 = CARTESIAN_POINT ( 'NONE',  ( -6.123233995736766036E-17, 2.500000000000000000, 0.000000000000000000 ) ) ;
#58 = ORIENTED_EDGE ( 'NONE', *, *, #108, .T. ) ;
#59 = LENGTH_MEASURE_WITH_UNIT ( LENGTH_MEASURE( 0.02539999999999999897 ), #281 );
#60 = DIRECTION ( 'NONE',  ( 0.000000000000000000, 1.000000000000000000, 0.000000000000000000 ) ) ;
#61 = CARTESIAN_POINT ( 'NONE',  ( 0.000000000000000000, 0.7500000000000001110, -0.1405999999999999750 ) ) ;
#62 = COLOUR_RGB ( '',1.000000000000000000, 0.000000000000000000, 0.000000000000000000 ) ;
#63 = CARTESIAN_POINT ( 'NONE',  ( -0.1405999999999999750, 0.7499999999999998890, 0.000000000000000000 ) ) ;
#64 =( LENGTH_UNIT ( ) NAMED_UNIT ( * ) SI_UNIT ( $, .METRE. ) );
#65 = VERTEX_POINT ( 'NONE', #63 ) ;
#66 = EDGE_CURVE ( 'NONE', #71, #65, #245, .T. ) ;
#67 = UNCERTAINTY_MEASURE_WITH_UNIT (LENGTH_MEASURE( 1.000000000000000082E-05 ), #335, 'distance_accuracy_value', 'NONE');
#68 = DIRECTION ( 'NONE',  ( -3.498990854706722745E-17, 1.000000000000000000, -0.000000000000000000 ) ) ;
#69 = COLOUR_RGB ( '',1.000000000000000000, 0.000000000000000000, 0.000000000000000000 ) ;
#70 = FILL_AREA_STYLE ('',( #348 ) ) ;
#71 = VERTEX_POINT ( 'NONE', #283 ) ;
#72 = DIRECTION ( 'NONE',  ( -0.000000000000000000, -1.000000000000000000, -0.000000000000000000 ) ) ;
#73 = ORIENTED_EDGE ( 'NONE', *, *, #51, .F. ) ;
#74 = SURFACE_STYLE_USAGE ( .BOTH. , #133 ) ;
#75 = ORIENTED_EDGE ( 'NONE', *, *, #172, .T. ) ;
#76 = SURFACE_STYLE_FILL_AREA ( #295 ) ;
#77 =( LENGTH_UNIT ( ) NAMED_UNIT ( * ) SI_UNIT ( $, .METRE. ) );
#78 = VERTEX_POINT ( 'NONE', #336 ) ;
#79 = ORIENTED_EDGE ( 'NONE', *, *, #227, .F. ) ;
#80 = MECHANICAL_DESIGN_GEOMETRIC_PRESENTATION_REPRESENTATION (  '', ( #358 ), #240 ) ;
#81 = CARTESIAN_POINT ( 'NONE',  ( 0.000000000000000000, 0.7500000000000001110, 0.000000000000000000 ) ) ;
#82 = DIRECTION ( 'NONE',  ( 3.498990854706722745E-17, -1.000000000000000000, 0.000000000000000000 ) ) ;
#83 = CARTESIAN_POINT ( 'NONE',  ( 0.1405999999999999750, 0.7499999999999998890, 1.721853399601178125E-17 ) ) ;
#84 = AXIS2_PLACEMENT_3D ( 'NONE', #256, #287, #286 ) ;
#85 =( LENGTH_UNIT ( ) NAMED_UNIT ( * ) SI_UNIT ( $, .METRE. ) );
#86 = DIRECTION ( 'NONE',  ( -0.000000000000000000, -1.000000000000000000, -0.000000000000000000 ) ) ;
#87 = DIRECTION ( 'NONE',  ( -1.000000000000000000, 0.000000000000000000, 0.000000000000000000 ) ) ;
#88 = ADVANCED_FACE ( 'NONE', ( #232 ), #196, .F. ) ;
#89 = DIRECTION ( 'NONE',  ( 0.3420201433256677137, 0.9396926207859086499, 4.188538737676980055E-17 ) ) ;
#90 = CIRCLE ( 'NONE', #146, 0.1562500000000000833 ) ;
#91 = CARTESIAN_POINT ( 'NONE',  ( 0.000000000000000000, 0.7500000000000001110, 0.000000000000000000 ) ) ;
#92 =( NAMED_UNIT ( * ) PLANE_ANGLE_UNIT ( ) SI_UNIT ( $, .RADIAN. ) );
#93 = PRESENTATION_STYLE_ASSIGNMENT (( #118 ) ) ;
#94 = ORIENTED_EDGE ( 'NONE', *, *, #41, .T. ) ;
#95 = VERTEX_POINT ( 'NONE', #255 ) ;
#96 = APPLICATION_PROTOCOL_DEFINITION ( 'draft international standard', 'automotive_design', 1998, #341 ) ;
#97 = FILL_AREA_STYLE_COLOUR ( '', #136 ) ;
#98 = PRESENTATION_LAYER_ASSIGNMENT (  '', '', ( #311 ) ) ;
#99 = CYLINDRICAL_SURFACE ( 'NONE', #177, 0.1562500000000000278 ) ;
#100 = DIRECTION ( 'NONE',  ( 0.000000000000000000, -1.000000000000000000, -0.000000000000000000 ) ) ;
#101 = CIRCLE ( 'NONE', #84, 0.1562500000000000833 ) ;
#102 = AXIS2_PLACEMENT_3D ( 'NONE', #159, #218, #1 ) ;
#103 = VERTEX_POINT ( 'NONE', #61 ) ;
#104 = CARTESIAN_POINT ( 'NONE',  ( -6.123233995736766036E-17, 2.500000000000000000, 0.000000000000000000 ) ) ;
#105 = DIRECTION ( 'NONE',  ( 0.000000000000000000, 0.000000000000000000, -1.000000000000000000 ) ) ;
#106 = CONICAL_SURFACE ( 'NONE', #3, 0.1405999999999999750, 0.3490658503988648964 ) ;
#107 = DIRECTION ( 'NONE',  ( -1.000000000000000000, 0.000000000000000000, 0.000000000000000000 ) ) ;
#108 = EDGE_CURVE ( 'NONE', #243, #110, #90, .T. ) ;
#109 = PRESENTATION_STYLE_ASSIGNMENT (( #201 ) ) ;
#110 = VERTEX_POINT ( 'NONE', #225 ) ;
#111 = ORIENTED_EDGE ( 'NONE', *, *, #238, .F. ) ;
#112 = CIRCLE ( 'NONE', #205, 0.1405999999999999750 ) ;
#113 =( GEOMETRIC_REPRESENTATION_CONTEXT ( 3 ) GLOBAL_UNCERTAINTY_ASSIGNED_CONTEXT ( ( #210 ) ) GLOBAL_UNIT_ASSIGNED_CONTEXT ( ( #349, #129, #234 ) ) REPRESENTATION_CONTEXT ( 'NONE', 'WORKASPACE' ) );
#114 = PRESENTATION_STYLE_ASSIGNMENT (( #202 ) ) ;
#115 =( NAMED_UNIT ( * ) PLANE_ANGLE_UNIT ( ) SI_UNIT ( $, .RADIAN. ) );
#116 = DIRECTION ( 'NONE',  ( -3.498990854706722745E-17, 1.000000000000000000, -0.000000000000000000 ) ) ;
#117 = DIMENSIONAL_EXPONENTS ( 1.000000000000000000, 0.000000000000000000, 0.000000000000000000, 0.000000000000000000, 0.000000000000000000, 0.000000000000000000, 0.000000000000000000 ) ;
#118 = SURFACE_STYLE_USAGE ( .BOTH. , #16 ) ;
#119 = STYLED_ITEM ( 'NONE', ( #109 ), #126 ) ;
#120 = MECHANICAL_DESIGN_GEOMETRIC_PRESENTATION_REPRESENTATION (  '', ( #29 ), #113 ) ;
#121 = CYLINDRICAL_SURFACE ( 'NONE', #195, 0.1406000000000000028 ) ;
#122 = ADVANCED_FACE ( 'NONE', ( #332 ), #313, .F. ) ;
#123 = SURFACE_STYLE_FILL_AREA ( #70 ) ;
#124 = CARTESIAN_POINT ( 'NONE',  ( -6.123233995736766036E-17, 2.500000000000000000, 0.000000000000000000 ) ) ;
#125 = PRODUCT_DEFINITION ( 'UNKNOWN', '', #147, #228 ) ;
#126 = MANIFOLD_SOLID_BREP ( 'Revolve - Tool Body (Reduced Cut Diameter)', #183 ) ;
#127 = UNCERTAINTY_MEASURE_WITH_UNIT (LENGTH_MEASURE( 1.000000000000000082E-05 ), #169, 'distance_accuracy_value', 'NONE');
#128 = EDGE_CURVE ( 'NONE', #110, #243, #101, .T. ) ;
#129 =( NAMED_UNIT ( * ) PLANE_ANGLE_UNIT ( ) SI_UNIT ( $, .RADIAN. ) );
#130 = CIRCLE ( 'NONE', #331, 0.1406000000000000028 ) ;
#131 = EDGE_LOOP ( 'NONE', ( #38, #21, #79, #111 ) ) ;
#132 = AXIS2_PLACEMENT_3D ( 'NONE', #219, #328, #250 ) ;
#133 = SURFACE_SIDE_STYLE ('',( #76 ) ) ;
#134 = EDGE_LOOP ( 'NONE', ( #156, #237 ) ) ;
#135 =( NAMED_UNIT ( * ) SI_UNIT ( $, .STERADIAN. ) SOLID_ANGLE_UNIT ( ) );
#136 = COLOUR_RGB ( '',1.000000000000000000, 0.000000000000000000, 0.000000000000000000 ) ;
#137 = ADVANCED_FACE ( 'NONE', ( #239 ), #154, .T. ) ;
#138 = CARTESIAN_POINT ( 'NONE',  ( -7.582401355855259480E-33, 0.7499999999999998890, 0.000000000000000000 ) ) ;
#139 = DIRECTION ( 'NONE',  ( -1.000000000000000000, 0.000000000000000000, 0.000000000000000000 ) ) ;
#140 = COLOUR_RGB ( '',0.7921568627450980005, 0.8196078431372548767, 0.9333333333333333481 ) ;
#141 = CIRCLE ( 'NONE', #132, 0.1562500000000000000 ) ;
#142 = ADVANCED_FACE ( 'NONE', ( #20 ), #121, .T. ) ;
#143 = FILL_AREA_STYLE_COLOUR ( '', #140 ) ;
#144 =( NAMED_UNIT ( * ) SI_UNIT ( $, .STERADIAN. ) SOLID_ANGLE_UNIT ( ) );
#145 =( NAMED_UNIT ( * ) PLANE_ANGLE_UNIT ( ) SI_UNIT ( $, .RADIAN. ) );
#146 = AXIS2_PLACEMENT_3D ( 'NONE', #57, #116, #107 ) ;
#147 = PRODUCT_DEFINITION_FORMATION_WITH_SPECIFIED_SOURCE ( 'ANY', '', #247, .NOT_KNOWN. ) ;
#148 = DIRECTION ( 'NONE',  ( 0.000000000000000000, 0.000000000000000000, 1.000000000000000000 ) ) ;
#149 = DIMENSIONAL_EXPONENTS ( 1.000000000000000000, 0.000000000000000000, 0.000000000000000000, 0.000000000000000000, 0.000000000000000000, 0.000000000000000000, 0.000000000000000000 ) ;
#150 = DIRECTION ( 'NONE',  ( -1.000000000000000000, 0.000000000000000000, 0.000000000000000000 ) ) ;
#151 = EDGE_LOOP ( 'NONE', ( #171, #94, #288, #192 ) ) ;
#152 = ADVANCED_BREP_SHAPE_REPRESENTATION ( '81711', ( #11, #126, #153 ), #337 ) ;
#153 = AXIS2_PLACEMENT_3D ( 'NONE', #39, #148, #233 ) ;
#154 = CYLINDRICAL_SURFACE ( 'NONE', #258, 0.1562500000000000278 ) ;
#155 = LENGTH_MEASURE_WITH_UNIT ( LENGTH_MEASURE( 0.02539999999999999897 ), #209 );
#156 = ORIENTED_EDGE ( 'NONE', *, *, #327, .F. ) ;
#157 =( CONVERSION_BASED_UNIT ( 'INCH', #155 ) LENGTH_UNIT ( ) NAMED_UNIT ( #181 ) );
#158 = VERTEX_POINT ( 'NONE', #323 ) ;
#159 = CARTESIAN_POINT ( 'NONE',  ( 0.000000000000000000, 0.000000000000000000, 0.000000000000000000 ) ) ;
#160 = CIRCLE ( 'NONE', #33, 0.1405999999999999750 ) ;
#161 = DIMENSIONAL_EXPONENTS ( 1.000000000000000000, 0.000000000000000000, 0.000000000000000000, 0.000000000000000000, 0.000000000000000000, 0.000000000000000000, 0.000000000000000000 ) ;
#162 = PLANE ( 'NONE',  #191 ) ;
#163 = CARTESIAN_POINT ( 'NONE',  ( -0.1405999999999999750, 0.7499999999999998890, 0.000000000000000000 ) ) ;
#164 = PRODUCT_RELATED_PRODUCT_CATEGORY ( 'part', '', ( #247 ) ) ;
#165 = DIRECTION ( 'NONE',  ( -3.498990854706722745E-17, 1.000000000000000000, -0.000000000000000000 ) ) ;
#166 = EDGE_CURVE ( 'NONE', #95, #243, #44, .T. ) ;
#167 = CARTESIAN_POINT ( 'NONE',  ( 0.1562500000000000000, 2.500000000000000000, 0.000000000000000000 ) ) ;
#168 = PRESENTATION_LAYER_ASSIGNMENT (  '', '', ( #358 ) ) ;
#169 =( CONVERSION_BASED_UNIT ( 'INCH', #13 ) LENGTH_UNIT ( ) NAMED_UNIT ( #351 ) );
#170 = EDGE_LOOP ( 'NONE', ( #186, #25 ) ) ;
#171 = ORIENTED_EDGE ( 'NONE', *, *, #333, .F. ) ;
#172 = EDGE_CURVE ( 'NONE', #103, #78, #160, .T. ) ;
#173 = ORIENTED_EDGE ( 'NONE', *, *, #108, .F. ) ;
#174 =( CONVERSION_BASED_UNIT ( 'INCH', #59 ) LENGTH_UNIT ( ) NAMED_UNIT ( #185 ) );
#175 = APPLICATION_PROTOCOL_DEFINITION ( 'draft international standard', 'automotive_design', 1998, #319 ) ;
#176 = FACE_OUTER_BOUND ( 'NONE', #322, .T. ) ;
#177 = AXIS2_PLACEMENT_3D ( 'NONE', #104, #271, #28 ) ;
#178 = DIRECTION ( 'NONE',  ( -3.498990854706722745E-17, 1.000000000000000000, -0.000000000000000000 ) ) ;
#179 = ADVANCED_FACE ( 'NONE', ( #260 ), #184, .T. ) ;
#180 =( NAMED_UNIT ( * ) SI_UNIT ( $, .STERADIAN. ) SOLID_ANGLE_UNIT ( ) );
#181 = DIMENSIONAL_EXPONENTS ( 1.000000000000000000, 0.000000000000000000, 0.000000000000000000, 0.000000000000000000, 0.000000000000000000, 0.000000000000000000, 0.000000000000000000 ) ;
#182 = PRODUCT_CONTEXT ( 'NONE', #319, 'mechanical' ) ;
#183 = CLOSED_SHELL ( 'NONE', ( #253, #317, #88, #17, #137, #122 ) ) ;
#184 = CYLINDRICAL_SURFACE ( 'NONE', #23, 0.1406000000000000028 ) ;
#185 = DIMENSIONAL_EXPONENTS ( 1.000000000000000000, 0.000000000000000000, 0.000000000000000000, 0.000000000000000000, 0.000000000000000000, 0.000000000000000000, 0.000000000000000000 ) ;
#186 = ORIENTED_EDGE ( 'NONE', *, *, #213, .T. ) ;
#187 = ORIENTED_EDGE ( 'NONE', *, *, #172, .F. ) ;
#188 = DIMENSIONAL_EXPONENTS ( 1.000000000000000000, 0.000000000000000000, 0.000000000000000000, 0.000000000000000000, 0.000000000000000000, 0.000000000000000000, 0.000000000000000000 ) ;
#189 =( NAMED_UNIT ( * ) SI_UNIT ( $, .STERADIAN. ) SOLID_ANGLE_UNIT ( ) );
#190 = DIRECTION ( 'NONE',  ( -0.3420201433256678247, 0.9396926207859086499, 0.000000000000000000 ) ) ;
#191 = AXIS2_PLACEMENT_3D ( 'NONE', #273, #100, #359 ) ;
#192 = ORIENTED_EDGE ( 'NONE', *, *, #241, .F. ) ;
#193 = PRODUCT_DEFINITION_SHAPE ( 'NONE', 'NONE',  #125 ) ;
#194 =( NAMED_UNIT ( * ) PLANE_ANGLE_UNIT ( ) SI_UNIT ( $, .RADIAN. ) );
#195 = AXIS2_PLACEMENT_3D ( 'NONE', #211, #72, #267 ) ;
#196 = PLANE ( 'NONE',  #251 ) ;
#197 = SURFACE_STYLE_FILL_AREA ( #226 ) ;
#198 = CARTESIAN_POINT ( 'NONE',  ( 1.721853399601178741E-17, 0.000000000000000000, 0.1406000000000000028 ) ) ;
#199 = AXIS2_PLACEMENT_3D ( 'NONE', #5, #178, #87 ) ;
#200 =( NAMED_UNIT ( * ) PLANE_ANGLE_UNIT ( ) SI_UNIT ( $, .RADIAN. ) );
#201 = SURFACE_STYLE_USAGE ( .BOTH. , #310 ) ;
#202 = SURFACE_STYLE_USAGE ( .BOTH. , #334 ) ;
#203 = DIRECTION ( 'NONE',  ( -1.000000000000000000, -3.498990854706722745E-17, 0.000000000000000000 ) ) ;
#204 = CARTESIAN_POINT ( 'NONE',  ( 8.606784711928860003E-35, 0.7500000000000001110, 0.000000000000000000 ) ) ;
#205 = AXIS2_PLACEMENT_3D ( 'NONE', #314, #35, #259 ) ;
#206 = CONICAL_SURFACE ( 'NONE', #45, 0.1405999999999999750, 0.3490658503988648964 ) ;
#207 = DIRECTION ( 'NONE',  ( 0.000000000000000000, 0.000000000000000000, -1.000000000000000000 ) ) ;
#208 = PRESENTATION_STYLE_ASSIGNMENT (( #46 ) ) ;
#209 =( LENGTH_UNIT ( ) NAMED_UNIT ( * ) SI_UNIT ( $, .METRE. ) );
#210 = UNCERTAINTY_MEASURE_WITH_UNIT (LENGTH_MEASURE( 1.000000000000000082E-05 ), #349, 'distance_accuracy_value', 'NONE');
#211 = CARTESIAN_POINT ( 'NONE',  ( 0.000000000000000000, 0.000000000000000000, 0.000000000000000000 ) ) ;
#212 = EDGE_LOOP ( 'NONE', ( #58, #15 ) ) ;
#213 = EDGE_CURVE ( 'NONE', #158, #56, #280, .T. ) ;
#214 =( GEOMETRIC_REPRESENTATION_CONTEXT ( 3 ) GLOBAL_UNCERTAINTY_ASSIGNED_CONTEXT ( ( #127 ) ) GLOBAL_UNIT_ASSIGNED_CONTEXT ( ( #169, #115, #304 ) ) REPRESENTATION_CONTEXT ( 'NONE', 'WORKASPACE' ) );
#215 = SURFACE_STYLE_FILL_AREA ( #43 ) ;
#216 =( NAMED_UNIT ( * ) PLANE_ANGLE_UNIT ( ) SI_UNIT ( $, .RADIAN. ) );
#217 = MECHANICAL_DESIGN_GEOMETRIC_PRESENTATION_REPRESENTATION (  '', ( #300 ), #32 ) ;
#218 = DIRECTION ( 'NONE',  ( -0.000000000000000000, -1.000000000000000000, -0.000000000000000000 ) ) ;
#219 = CARTESIAN_POINT ( 'NONE',  ( -1.504496843994959527E-18, 0.7929980216144649763, 0.000000000000000000 ) ) ;
#220 = FACE_OUTER_BOUND ( 'NONE', #22, .T. ) ;
#221 = LINE ( 'NONE', #24, #222 ) ;
#222 = VECTOR ( 'NONE', #326, 39.37007874015748143 ) ;
#223 = ORIENTED_EDGE ( 'NONE', *, *, #66, .T. ) ;
#224 = DIRECTION ( 'NONE',  ( 0.000000000000000000, -0.000000000000000000, 1.000000000000000000 ) ) ;
#225 = CARTESIAN_POINT ( 'NONE',  ( 0.1562500000000000000, 2.500000000000000000, 1.913510623667739771E-17 ) ) ;
#226 = FILL_AREA_STYLE ('',( #254 ) ) ;
#227 = EDGE_CURVE ( 'NONE', #95, #346, #141, .T. ) ;
#228 = PRODUCT_DEFINITION_CONTEXT ( 'detailed design', #341, 'design' ) ;
#229 = LENGTH_MEASURE_WITH_UNIT ( LENGTH_MEASURE( 0.02539999999999999897 ), #85 );
#230 = DIRECTION ( 'NONE',  ( -1.000000000000000000, 0.000000000000000000, 0.000000000000000000 ) ) ;
#231 =( LENGTH_UNIT ( ) NAMED_UNIT ( * ) SI_UNIT ( $, .METRE. ) );
#232 = FACE_OUTER_BOUND ( 'NONE', #134, .T. ) ;
#233 = DIRECTION ( 'NONE',  ( 1.000000000000000000, 0.000000000000000000, 0.000000000000000000 ) ) ;
#234 =( NAMED_UNIT ( * ) SI_UNIT ( $, .STERADIAN. ) SOLID_ANGLE_UNIT ( ) );
#235 = PRESENTATION_LAYER_ASSIGNMENT (  '', '', ( #119 ) ) ;
#236 = MECHANICAL_DESIGN_GEOMETRIC_PRESENTATION_REPRESENTATION (  '', ( #311 ), #214 ) ;
#237 = ORIENTED_EDGE ( 'NONE', *, *, #66, .F. ) ;
#238 = EDGE_CURVE ( 'NONE', #65, #95, #2, .T. ) ;
#239 = FACE_OUTER_BOUND ( 'NONE', #264, .T. ) ;
#240 =( GEOMETRIC_REPRESENTATION_CONTEXT ( 3 ) GLOBAL_UNCERTAINTY_ASSIGNED_CONTEXT ( ( #6 ) ) GLOBAL_UNIT_ASSIGNED_CONTEXT ( ( #157, #194, #189 ) ) REPRESENTATION_CONTEXT ( 'NONE', 'WORKASPACE' ) );
#241 = EDGE_CURVE ( 'NONE', #56, #158, #130, .T. ) ;
#242 = ORIENTED_EDGE ( 'NONE', *, *, #227, .T. ) ;
#243 = VERTEX_POINT ( 'NONE', #301 ) ;
#244 = DIRECTION ( 'NONE',  ( -3.498990854706722745E-17, 1.000000000000000000, -0.000000000000000000 ) ) ;
#245 = CIRCLE ( 'NONE', #269, 0.1405999999999999750 ) ;
#246 = VECTOR ( 'NONE', #86, 39.37007874015748143 ) ;
#247 = PRODUCT ( '81711', '81711', '', ( #182 ) ) ;
#248 = DIRECTION ( 'NONE',  ( 0.000000000000000000, 0.000000000000000000, -1.000000000000000000 ) ) ;
#249 = ORIENTED_EDGE ( 'NONE', *, *, #128, .F. ) ;
#250 = DIRECTION ( 'NONE',  ( -1.000000000000000000, 0.000000000000000000, 0.000000000000000000 ) ) ;
#251 = AXIS2_PLACEMENT_3D ( 'NONE', #204, #305, #203 ) ;
#252 = MECHANICAL_DESIGN_GEOMETRIC_PRESENTATION_REPRESENTATION (  '', ( #52 ), #316 ) ;
#253 = ADVANCED_FACE ( 'NONE', ( #220 ), #99, .T. ) ;
#254 = FILL_AREA_STYLE_COLOUR ( '', #297 ) ;
#255 = CARTESIAN_POINT ( 'NONE',  ( -0.1562500000000000000, 0.7929980216144649763, 0.000000000000000000 ) ) ;
#256 = CARTESIAN_POINT ( 'NONE',  ( -6.123233995736766036E-17, 2.500000000000000000, 0.000000000000000000 ) ) ;
#257 = ORIENTED_EDGE ( 'NONE', *, *, #10, .F. ) ;
#258 = AXIS2_PLACEMENT_3D ( 'NONE', #124, #350, #150 ) ;
#259 = DIRECTION ( 'NONE',  ( 0.000000000000000000, 0.000000000000000000, -1.000000000000000000 ) ) ;
#260 = FACE_OUTER_BOUND ( 'NONE', #151, .T. ) ;
#261 =( GEOMETRIC_REPRESENTATION_CONTEXT ( 3 ) GLOBAL_UNCERTAINTY_ASSIGNED_CONTEXT ( ( #266 ) ) GLOBAL_UNIT_ASSIGNED_CONTEXT ( ( #174, #145, #180 ) ) REPRESENTATION_CONTEXT ( 'NONE', 'WORKASPACE' ) );
#262 = SHAPE_DEFINITION_REPRESENTATION ( #193, #152 ) ;
#263 = LENGTH_MEASURE_WITH_UNIT ( LENGTH_MEASURE( 0.02539999999999999897 ), #64 );
#264 = EDGE_LOOP ( 'NONE', ( #257, #320, #306, #249 ) ) ;
#265 = SURFACE_SIDE_STYLE ('',( #215 ) ) ;
#266 = UNCERTAINTY_MEASURE_WITH_UNIT (LENGTH_MEASURE( 1.000000000000000082E-05 ), #174, 'distance_accuracy_value', 'NONE');
#267 = DIRECTION ( 'NONE',  ( 0.000000000000000000, 0.000000000000000000, -1.000000000000000000 ) ) ;
#268 =( LENGTH_UNIT ( ) NAMED_UNIT ( * ) SI_UNIT ( $, .METRE. ) );
#269 = AXIS2_PLACEMENT_3D ( 'NONE', #9, #31, #139 ) ;
#270 = PRESENTATION_LAYER_ASSIGNMENT (  '', '', ( #52 ) ) ;
#271 = DIRECTION ( 'NONE',  ( -3.498990854706722745E-17, 1.000000000000000000, -0.000000000000000000 ) ) ;
#272 =( CONVERSION_BASED_UNIT ( 'INCH', #324 ) LENGTH_UNIT ( ) NAMED_UNIT ( #188 ) );
#273 = CARTESIAN_POINT ( 'NONE',  ( 0.000000000000000000, 0.000000000000000000, 0.000000000000000000 ) ) ;
#274 = LENGTH_MEASURE_WITH_UNIT ( LENGTH_MEASURE( 0.02539999999999999897 ), #77 );
#275 = FACE_OUTER_BOUND ( 'NONE', #131, .T. ) ;
#276 = FACE_OUTER_BOUND ( 'NONE', #170, .T. ) ;
#277 = CARTESIAN_POINT ( 'NONE',  ( 0.1562500000000000000, 0.7929980216144649763, 1.913510623667739463E-17 ) ) ;
#278 = CARTESIAN_POINT ( 'NONE',  ( 0.1562499999999999722, 2.500000000000000000, 1.913510623667739771E-17 ) ) ;
#279 = DIRECTION ( 'NONE',  ( 1.000000000000000000, 3.498990854706722745E-17, 0.000000000000000000 ) ) ;
#280 = CIRCLE ( 'NONE', #102, 0.1406000000000000028 ) ;
#281 =( LENGTH_UNIT ( ) NAMED_UNIT ( * ) SI_UNIT ( $, .METRE. ) );
#282 = ORIENTED_EDGE ( 'NONE', *, *, #166, .F. ) ;
#283 = CARTESIAN_POINT ( 'NONE',  ( 0.1405999999999999750, 0.7499999999999998890, 1.817682011634458948E-17 ) ) ;
#284 = VECTOR ( 'NONE', #190, 39.37007874015748143 ) ;
#285 = PRESENTATION_LAYER_ASSIGNMENT (  '', '', ( #29 ) ) ;
#286 = DIRECTION ( 'NONE',  ( -1.000000000000000000, 0.000000000000000000, 0.000000000000000000 ) ) ;
#287 = DIRECTION ( 'NONE',  ( -3.498990854706722745E-17, 1.000000000000000000, -0.000000000000000000 ) ) ;
#288 = ORIENTED_EDGE ( 'NONE', *, *, #294, .T. ) ;
#289 = SURFACE_SIDE_STYLE ('',( #123 ) ) ;
#290 = ORIENTED_EDGE ( 'NONE', *, *, #333, .T. ) ;
#291 = FILL_AREA_STYLE_COLOUR ( '', #69 ) ;
#292 = ORIENTED_EDGE ( 'NONE', *, *, #10, .T. ) ;
#293 = ORIENTED_EDGE ( 'NONE', *, *, #294, .F. ) ;
#294 = EDGE_CURVE ( 'NONE', #103, #158, #221, .T. ) ;
#295 = FILL_AREA_STYLE ('',( #356 ) ) ;
#296 = AXIS2_PLACEMENT_3D ( 'NONE', #167, #82, #279 ) ;
#297 = COLOUR_RGB ( '',1.000000000000000000, 0.000000000000000000, 0.000000000000000000 ) ;
#298 = PRESENTATION_STYLE_ASSIGNMENT (( #74 ) ) ;
#299 = CARTESIAN_POINT ( 'NONE',  ( 0.000000000000000000, 0.000000000000000000, 0.000000000000000000 ) ) ;
#300 = STYLED_ITEM ( 'NONE', ( #208 ), #11 ) ;
#301 = CARTESIAN_POINT ( 'NONE',  ( -0.1562500000000001388, 2.500000000000000000, 0.000000000000000000 ) ) ;
#302 = UNCERTAINTY_MEASURE_WITH_UNIT (LENGTH_MEASURE( 1.000000000000000082E-05 ), #53, 'distance_accuracy_value', 'NONE');
#303 = LINE ( 'NONE', #278, #344 ) ;
#304 =( NAMED_UNIT ( * ) SI_UNIT ( $, .STERADIAN. ) SOLID_ANGLE_UNIT ( ) );
#305 = DIRECTION ( 'NONE',  ( -3.498990854706722745E-17, 1.000000000000000000, 0.000000000000000000 ) ) ;
#306 = ORIENTED_EDGE ( 'NONE', *, *, #166, .T. ) ;
#307 = ADVANCED_FACE ( 'NONE', ( #276 ), #162, .T. ) ;
#308 = DIRECTION ( 'NONE',  ( -1.000000000000000000, 0.000000000000000000, 0.000000000000000000 ) ) ;
#309 = EDGE_LOOP ( 'NONE', ( #75, #290, #338, #293 ) ) ;
#310 = SURFACE_SIDE_STYLE ('',( #7 ) ) ;
#311 = STYLED_ITEM ( 'NONE', ( #114 ), #347 ) ;
#312 = EDGE_LOOP ( 'NONE', ( #187, #329 ) ) ;
#313 = PLANE ( 'NONE',  #296 ) ;
#314 = CARTESIAN_POINT ( 'NONE',  ( 0.000000000000000000, 0.7500000000000001110, 0.000000000000000000 ) ) ;
#315 = PRESENTATION_LAYER_ASSIGNMENT (  '', '', ( #300 ) ) ;
#316 =( GEOMETRIC_REPRESENTATION_CONTEXT ( 3 ) GLOBAL_UNCERTAINTY_ASSIGNED_CONTEXT ( ( #302 ) ) GLOBAL_UNIT_ASSIGNED_CONTEXT ( ( #53, #216, #135 ) ) REPRESENTATION_CONTEXT ( 'NONE', 'WORKASPACE' ) );
#317 = ADVANCED_FACE ( 'NONE', ( #275 ), #206, .T. ) ;
#318 = SURFACE_STYLE_USAGE ( .BOTH. , #265 ) ;
#319 = APPLICATION_CONTEXT ( 'automotive_design' ) ;
#320 = ORIENTED_EDGE ( 'NONE', *, *, #37, .T. ) ;
#321 = CARTESIAN_POINT ( 'NONE',  ( -0.1562500000000001110, 2.500000000000000000, 0.000000000000000000 ) ) ;
#322 = EDGE_LOOP ( 'NONE', ( #73, #223, #47, #355 ) ) ;
#323 = CARTESIAN_POINT ( 'NONE',  ( 0.000000000000000000, 0.000000000000000000, -0.1406000000000000028 ) ) ;
#324 = LENGTH_MEASURE_WITH_UNIT ( LENGTH_MEASURE( 0.02539999999999999897 ), #268 );
#325 = MECHANICAL_DESIGN_GEOMETRIC_PRESENTATION_REPRESENTATION (  '', ( #119 ), #261 ) ;
#326 = DIRECTION ( 'NONE',  ( -0.000000000000000000, -1.000000000000000000, -0.000000000000000000 ) ) ;
#327 = EDGE_CURVE ( 'NONE', #65, #71, #4, .T. ) ;
#328 = DIRECTION ( 'NONE',  ( -3.498990854706722745E-17, 1.000000000000000000, -0.000000000000000000 ) ) ;
#329 = ORIENTED_EDGE ( 'NONE', *, *, #41, .F. ) ;
#330 = CARTESIAN_POINT ( 'NONE',  ( -7.582401355855259480E-33, 0.7499999999999998890, 0.000000000000000000 ) ) ;
#331 = AXIS2_PLACEMENT_3D ( 'NONE', #299, #48, #105 ) ;
#332 = FACE_OUTER_BOUND ( 'NONE', #212, .T. ) ;
#333 = EDGE_CURVE ( 'NONE', #78, #56, #36, .T. ) ;
#334 = SURFACE_SIDE_STYLE ('',( #197 ) ) ;
#335 =( CONVERSION_BASED_UNIT ( 'INCH', #229 ) LENGTH_UNIT ( ) NAMED_UNIT ( #161 ) );
#336 = CARTESIAN_POINT ( 'NONE',  ( 1.721853399601178125E-17, 0.7500000000000001110, 0.1405999999999999750 ) ) ;
#337 =( GEOMETRIC_REPRESENTATION_CONTEXT ( 3 ) GLOBAL_UNCERTAINTY_ASSIGNED_CONTEXT ( ( #67 ) ) GLOBAL_UNIT_ASSIGNED_CONTEXT ( ( #335, #200, #144 ) ) REPRESENTATION_CONTEXT ( 'NONE', 'WORKASPACE' ) );
#338 = ORIENTED_EDGE ( 'NONE', *, *, #213, .F. ) ;
#339 = PLANE ( 'NONE',  #352 ) ;
#340 = FILL_AREA_STYLE ('',( #143 ) ) ;
#341 = APPLICATION_CONTEXT ( 'automotive_design' ) ;
#342 = DIRECTION ( 'NONE',  ( -3.498990854706722745E-17, 1.000000000000000000, -0.000000000000000000 ) ) ;
#343 = FILL_AREA_STYLE ('',( #291 ) ) ;
#344 = VECTOR ( 'NONE', #19, 39.37007874015748143 ) ;
#345 = SURFACE_STYLE_FILL_AREA ( #343 ) ;
#346 = VERTEX_POINT ( 'NONE', #277 ) ;
#347 = ADVANCED_FACE ( 'NONE', ( #8 ), #339, .T. ) ;
#348 = FILL_AREA_STYLE_COLOUR ( '', #12 ) ;
#349 =( CONVERSION_BASED_UNIT ( 'INCH', #263 ) LENGTH_UNIT ( ) NAMED_UNIT ( #117 ) );
#350 = DIRECTION ( 'NONE',  ( -3.498990854706722745E-17, 1.000000000000000000, -0.000000000000000000 ) ) ;
#351 = DIMENSIONAL_EXPONENTS ( 1.000000000000000000, 0.000000000000000000, 0.000000000000000000, 0.000000000000000000, 0.000000000000000000, 0.000000000000000000, 0.000000000000000000 ) ;
#352 = AXIS2_PLACEMENT_3D ( 'NONE', #81, #60, #224 ) ;
#353 = PRESENTATION_STYLE_ASSIGNMENT (( #318 ) ) ;
#354 = DIRECTION ( 'NONE',  ( -0.000000000000000000, -1.000000000000000000, -0.000000000000000000 ) ) ;
#355 = ORIENTED_EDGE ( 'NONE', *, *, #37, .F. ) ;
#356 = FILL_AREA_STYLE_COLOUR ( '', #62 ) ;
#357 = CLOSED_SHELL ( 'NONE', ( #142, #347, #179, #307 ) ) ;
#358 = STYLED_ITEM ( 'NONE', ( #93 ), #179 ) ;
#359 = DIRECTION ( 'NONE',  ( 0.000000000000000000, 0.000000000000000000, -1.000000000000000000 ) ) ;
ENDSEC;
END-ISO-10303-21;
