ISO-10303-21;
HEADER;
FILE_DESCRIPTION (( 'STEP AP214' ),
    '1' );
FILE_NAME ('Micro_GEM-187-3X.STEP',
    '2021-09-01T20:03:20',
    ( '' ),
    ( '' ),
    'SwSTEP 2.0',
    'SolidWorks 2020',
    '' );
FILE_SCHEMA (( 'AUTOMOTIVE_DESIGN' ));
ENDSEC;

DATA;
#1 = CARTESIAN_POINT ( 'NONE',  ( 0.0000000000000000000, 0.0000000000000000000, 0.0000000000000000000 ) ) ;
#2 = DIRECTION ( 'NONE',  ( 0.0000000000000000000, 0.0000000000000000000, 1.000000000000000000 ) ) ;
#3 = CONICAL_SURFACE ( 'NONE', #294, 0.07874999999999980627, 0.7853981633974466137 ) ;
#4 = CIRCLE ( 'NONE', #275, 0.07874999999999980627 ) ;
#5 = ADVANCED_FACE ( 'NONE', ( #293 ), #3, .T. ) ;
#6 = ORIENTED_EDGE ( 'NONE', *, *, #185, .F. ) ;
#7 = DIRECTION ( 'NONE',  ( -0.1736481776669311639, 2.126576849575783008E-17, 0.9848077530122080203 ) ) ;
#8 = LINE ( 'NONE', #116, #144 ) ;
#9 = ORIENTED_EDGE ( 'NONE', *, *, #217, .F. ) ;
#10 = DIRECTION ( 'NONE',  ( -0.7071067811865463515, 0.0000000000000000000, -0.7071067811865486830 ) ) ;
#11 = DIRECTION ( 'NONE',  ( 0.0000000000000000000, 0.0000000000000000000, 1.000000000000000000 ) ) ;
#12 = EDGE_CURVE ( 'NONE', #127, #289, #105, .T. ) ;
#13 = ORIENTED_EDGE ( 'NONE', *, *, #120, .T. ) ;
#14 = ADVANCED_BREP_SHAPE_REPRESENTATION ( 'Micro_GEM-187-3X', ( #261, #169 ), #37 ) ;
#15 = VECTOR ( 'NONE', #299, 39.37007874015748143 ) ;
#16 = AXIS2_PLACEMENT_3D ( 'NONE', #211, #89, #159 ) ;
#17 = DIRECTION ( 'NONE',  ( 1.000000000000000000, 0.0000000000000000000, 0.0000000000000000000 ) ) ;
#18 = CARTESIAN_POINT ( 'NONE',  ( 0.0000000000000000000, 0.0000000000000000000, 2.000000000000000000 ) ) ;
#19 = FILL_AREA_STYLE_COLOUR ( '', #110 ) ;
#20 = AXIS2_PLACEMENT_3D ( 'NONE', #139, #262, #175 ) ;
#21 =( LENGTH_UNIT ( ) NAMED_UNIT ( * ) SI_UNIT ( $, .METRE. ) );
#22 = ORIENTED_EDGE ( 'NONE', *, *, #133, .T. ) ;
#23 = CONICAL_SURFACE ( 'NONE', #183, 0.09365624999999999645, 0.1745329251994338637 ) ;
#24 = DIRECTION ( 'NONE',  ( -1.000000000000000000, 0.0000000000000000000, 0.0000000000000000000 ) ) ;
#25 = VECTOR ( 'NONE', #125, 39.37007874015748143 ) ;
#26 = PRESENTATION_STYLE_ASSIGNMENT (( #143 ) ) ;
#27 = DIRECTION ( 'NONE',  ( -1.224646799147353207E-16, -0.0000000000000000000, -1.000000000000000000 ) ) ;
#28 = ORIENTED_EDGE ( 'NONE', *, *, #292, .T. ) ;
#29 = DIRECTION ( 'NONE',  ( -1.000000000000000000, 0.0000000000000000000, 1.224646799147352961E-16 ) ) ;
#30 = ORIENTED_EDGE ( 'NONE', *, *, #142, .F. ) ;
#31 =( NAMED_UNIT ( * ) SI_UNIT ( $, .STERADIAN. ) SOLID_ANGLE_UNIT ( ) );
#32 = DIRECTION ( 'NONE',  ( -1.224646799147353207E-16, -0.0000000000000000000, -1.000000000000000000 ) ) ;
#33 = CARTESIAN_POINT ( 'NONE',  ( 0.0000000000000000000, 0.0000000000000000000, 2.000000000000000000 ) ) ;
#34 = DIRECTION ( 'NONE',  ( 0.1736481776669313581, 0.0000000000000000000, 0.9848077530122077983 ) ) ;
#35 = SURFACE_STYLE_FILL_AREA ( #81 ) ;
#36 = ORIENTED_EDGE ( 'NONE', *, *, #55, .T. ) ;
#37 =( GEOMETRIC_REPRESENTATION_CONTEXT ( 3 ) GLOBAL_UNCERTAINTY_ASSIGNED_CONTEXT ( ( #119 ) ) GLOBAL_UNIT_ASSIGNED_CONTEXT ( ( #90, #41, #233 ) ) REPRESENTATION_CONTEXT ( 'NONE', 'WORKASPACE' ) );
#38 = ORIENTED_EDGE ( 'NONE', *, *, #55, .F. ) ;
#39 = EDGE_CURVE ( 'NONE', #289, #112, #247, .T. ) ;
#40 = ORIENTED_EDGE ( 'NONE', *, *, #39, .F. ) ;
#41 =( NAMED_UNIT ( * ) PLANE_ANGLE_UNIT ( ) SI_UNIT ( $, .RADIAN. ) );
#42 = EDGE_LOOP ( 'NONE', ( #264, #58 ) ) ;
#43 = CIRCLE ( 'NONE', #218, 0.09375000000000001388 ) ;
#44 = FILL_AREA_STYLE_COLOUR ( '', #117 ) ;
#45 = FACE_OUTER_BOUND ( 'NONE', #283, .T. ) ;
#46 = ORIENTED_EDGE ( 'NONE', *, *, #181, .T. ) ;
#47 = CARTESIAN_POINT ( 'NONE',  ( 7.654042494670957853E-17, 0.0000000000000000000, 0.6250000000000000000 ) ) ;
#48 = ADVANCED_FACE ( 'NONE', ( #67 ), #23, .T. ) ;
#49 = CARTESIAN_POINT ( 'NONE',  ( -0.09365624999999992706, 1.146958267826442798E-17, 0.6250000000000000000 ) ) ;
#50 = DIRECTION ( 'NONE',  ( 0.0000000000000000000, 0.0000000000000000000, 1.000000000000000000 ) ) ;
#51 = DIRECTION ( 'NONE',  ( 1.224646799147353207E-16, 0.0000000000000000000, 1.000000000000000000 ) ) ;
#52 = DIRECTION ( 'NONE',  ( 0.0000000000000000000, 0.0000000000000000000, -1.000000000000000000 ) ) ;
#53 = ORIENTED_EDGE ( 'NONE', *, *, #226, .T. ) ;
#54 = VECTOR ( 'NONE', #7, 39.37007874015747433 ) ;
#55 = EDGE_CURVE ( 'NONE', #153, #63, #155, .T. ) ;
#56 = APPLICATION_CONTEXT ( 'automotive_design' ) ;
#57 = DIMENSIONAL_EXPONENTS ( 1.000000000000000000, 0.0000000000000000000, 0.0000000000000000000, 0.0000000000000000000, 0.0000000000000000000, 0.0000000000000000000, 0.0000000000000000000 ) ;
#58 = ORIENTED_EDGE ( 'NONE', *, *, #267, .T. ) ;
#59 = SURFACE_SIDE_STYLE ('',( #35 ) ) ;
#60 = CIRCLE ( 'NONE', #232, 0.09365624999999999645 ) ;
#61 = SURFACE_STYLE_USAGE ( .BOTH. , #59 ) ;
#62 = CARTESIAN_POINT ( 'NONE',  ( 0.0000000000000000000, 0.0000000000000000000, 2.000000000000000000 ) ) ;
#63 = VERTEX_POINT ( 'NONE', #285 ) ;
#64 = CONICAL_SURFACE ( 'NONE', #184, 0.09365624999999999645, 0.1745329251994338637 ) ;
#65 = ADVANCED_FACE ( 'NONE', ( #45 ), #244, .T. ) ;
#66 = EDGE_LOOP ( 'NONE', ( #53, #165, #140, #245 ) ) ;
#67 = FACE_OUTER_BOUND ( 'NONE', #214, .T. ) ;
#68 = APPLICATION_PROTOCOL_DEFINITION ( 'draft international standard', 'automotive_design', 1998, #182 ) ;
#69 = EDGE_LOOP ( 'NONE', ( #30, #9, #13, #86 ) ) ;
#70 = CARTESIAN_POINT ( 'NONE',  ( 7.654042494670957853E-17, 0.0000000000000000000, 0.6250000000000000000 ) ) ;
#71 = DIRECTION ( 'NONE',  ( -1.224646799147353207E-16, -0.0000000000000000000, -1.000000000000000000 ) ) ;
#72 = CARTESIAN_POINT ( 'NONE',  ( 1.404618771449245766E-33, 0.0000000000000000000, 1.146958267826442798E-17 ) ) ;
#73 = AXIS2_PLACEMENT_3D ( 'NONE', #135, #231, #24 ) ;
#74 = FILL_AREA_STYLE ('',( #44 ) ) ;
#75 = DIRECTION ( 'NONE',  ( -1.000000000000000000, 0.0000000000000000000, 1.224646799147352961E-16 ) ) ;
#76 = FACE_OUTER_BOUND ( 'NONE', #131, .T. ) ;
#77 = CARTESIAN_POINT ( 'NONE',  ( -0.07874999999999980627, 0.0000000000000000000, 2.000000000000000000 ) ) ;
#78 = AXIS2_PLACEMENT_3D ( 'NONE', #210, #87, #272 ) ;
#79 = CYLINDRICAL_SURFACE ( 'NONE', #176, 0.09365624999999999645 ) ;
#80 = ORIENTED_EDGE ( 'NONE', *, *, #151, .T. ) ;
#81 = FILL_AREA_STYLE ('',( #19 ) ) ;
#82 =( GEOMETRIC_REPRESENTATION_CONTEXT ( 3 ) GLOBAL_UNCERTAINTY_ASSIGNED_CONTEXT ( ( #115 ) ) GLOBAL_UNIT_ASSIGNED_CONTEXT ( ( #167, #190, #31 ) ) REPRESENTATION_CONTEXT ( 'NONE', 'WORKASPACE' ) );
#83 = DIRECTION ( 'NONE',  ( -1.000000000000000000, 0.0000000000000000000, 0.0000000000000000000 ) ) ;
#84 = CYLINDRICAL_SURFACE ( 'NONE', #78, 0.09375000000000001388 ) ;
#85 = CIRCLE ( 'NONE', #282, 0.07874999999999980627 ) ;
#86 = ORIENTED_EDGE ( 'NONE', *, *, #12, .F. ) ;
#87 = DIRECTION ( 'NONE',  ( -0.0000000000000000000, -0.0000000000000000000, -1.000000000000000000 ) ) ;
#88 = CARTESIAN_POINT ( 'NONE',  ( 0.0000000000000000000, 0.0000000000000000000, 1.984999999999999654 ) ) ;
#89 = DIRECTION ( 'NONE',  ( 0.0000000000000000000, 0.0000000000000000000, -1.000000000000000000 ) ) ;
#90 =( CONVERSION_BASED_UNIT ( 'INCH', #284 ) LENGTH_UNIT ( ) NAMED_UNIT ( #57 ) );
#91 = ORIENTED_EDGE ( 'NONE', *, *, #142, .T. ) ;
#92 = CARTESIAN_POINT ( 'NONE',  ( 0.09365624999999999645, 1.146958267826442798E-17, 0.0000000000000000000 ) ) ;
#93 = ORIENTED_EDGE ( 'NONE', *, *, #287, .T. ) ;
#94 = EDGE_CURVE ( 'NONE', #63, #195, #291, .T. ) ;
#95 = CARTESIAN_POINT ( 'NONE',  ( -0.09374999999999994449, 0.0000000000000000000, 0.6255316826705892286 ) ) ;
#96 = AXIS2_PLACEMENT_3D ( 'NONE', #177, #50, #171 ) ;
#97 = UNCERTAINTY_MEASURE_WITH_UNIT (LENGTH_MEASURE( 1.000000000000000082E-05 ), #168, 'distance_accuracy_value', 'NONE');
#98 = SURFACE_STYLE_FILL_AREA ( #74 ) ;
#99 = DIRECTION ( 'NONE',  ( 1.000000000000000000, 0.0000000000000000000, 0.0000000000000000000 ) ) ;
#100 = DIRECTION ( 'NONE',  ( 1.000000000000000000, 0.0000000000000000000, 0.0000000000000000000 ) ) ;
#101 = CARTESIAN_POINT ( 'NONE',  ( 0.09365625000000006584, 0.0000000000000000000, 0.6250000000000000000 ) ) ;
#102 =( GEOMETRIC_REPRESENTATION_CONTEXT ( 3 ) GLOBAL_UNCERTAINTY_ASSIGNED_CONTEXT ( ( #97 ) ) GLOBAL_UNIT_ASSIGNED_CONTEXT ( ( #168, #258, #223 ) ) REPRESENTATION_CONTEXT ( 'NONE', 'WORKASPACE' ) );
#103 = DIMENSIONAL_EXPONENTS ( 1.000000000000000000, 0.0000000000000000000, 0.0000000000000000000, 0.0000000000000000000, 0.0000000000000000000, 0.0000000000000000000, 0.0000000000000000000 ) ;
#104 = ADVANCED_FACE ( 'NONE', ( #199 ), #79, .T. ) ;
#105 = CIRCLE ( 'NONE', #274, 0.09375000000000001388 ) ;
#106 = AXIS2_PLACEMENT_3D ( 'NONE', #62, #246, #207 ) ;
#107 = VERTEX_POINT ( 'NONE', #77 ) ;
#108 = FACE_OUTER_BOUND ( 'NONE', #243, .T. ) ;
#109 = DIRECTION ( 'NONE',  ( -1.224646799147353207E-16, -0.0000000000000000000, -1.000000000000000000 ) ) ;
#110 = COLOUR_RGB ( '',0.7921568627450980005, 0.8196078431372548767, 0.9333333333333333481 ) ;
#111 = ADVANCED_FACE ( 'NONE', ( #141 ), #225, .F. ) ;
#112 = VERTEX_POINT ( 'NONE', #95 ) ;
#113 = DIRECTION ( 'NONE',  ( -1.000000000000000000, 0.0000000000000000000, 1.224646799147352961E-16 ) ) ;
#114 = FACE_OUTER_BOUND ( 'NONE', #253, .T. ) ;
#115 = UNCERTAINTY_MEASURE_WITH_UNIT (LENGTH_MEASURE( 1.000000000000000082E-05 ), #167, 'distance_accuracy_value', 'NONE');
#116 = CARTESIAN_POINT ( 'NONE',  ( 0.07874999999999980627, 9.644093543285380530E-18, 2.000000000000000000 ) ) ;
#117 = COLOUR_RGB ( '',0.7921568627450980005, 0.8196078431372548767, 0.9333333333333333481 ) ;
#118 = LINE ( 'NONE', #236, #252 ) ;
#119 = UNCERTAINTY_MEASURE_WITH_UNIT (LENGTH_MEASURE( 1.000000000000000082E-05 ), #90, 'distance_accuracy_value', 'NONE');
#120 = EDGE_CURVE ( 'NONE', #107, #289, #118, .T. ) ;
#121 = LENGTH_MEASURE_WITH_UNIT ( LENGTH_MEASURE( 0.02539999999999999897 ), #200 );
#122 = CARTESIAN_POINT ( 'NONE',  ( -0.09365624999999999645, 0.0000000000000000000, 2.293916535652885596E-17 ) ) ;
#123 = EDGE_CURVE ( 'NONE', #195, #238, #126, .T. ) ;
#124 = CARTESIAN_POINT ( 'NONE',  ( 0.0000000000000000000, 0.0000000000000000000, 0.0000000000000000000 ) ) ;
#125 = DIRECTION ( 'NONE',  ( -0.0000000000000000000, -0.0000000000000000000, -1.000000000000000000 ) ) ;
#126 = CIRCLE ( 'NONE', #132, 0.09365624999999999645 ) ;
#127 = VERTEX_POINT ( 'NONE', #194 ) ;
#128 = CIRCLE ( 'NONE', #241, 0.09365624999999999645 ) ;
#129 = CARTESIAN_POINT ( 'NONE',  ( 0.09375000000000006939, 1.148106374200644633E-17, 0.6255316826705892286 ) ) ;
#130 = CYLINDRICAL_SURFACE ( 'NONE', #163, 0.09365624999999999645 ) ;
#131 = EDGE_LOOP ( 'NONE', ( #242, #38, #22, #297 ) ) ;
#132 = AXIS2_PLACEMENT_3D ( 'NONE', #72, #27, #75 ) ;
#133 = EDGE_CURVE ( 'NONE', #153, #263, #220, .T. ) ;
#134 = CARTESIAN_POINT ( 'NONE',  ( 0.0000000000000000000, 0.0000000000000000000, 0.0000000000000000000 ) ) ;
#135 = CARTESIAN_POINT ( 'NONE',  ( 7.654042494670957853E-17, 0.0000000000000000000, 0.6250000000000000000 ) ) ;
#136 = LENGTH_MEASURE_WITH_UNIT ( LENGTH_MEASURE( 0.02539999999999999897 ), #147 );
#137 = MECHANICAL_DESIGN_GEOMETRIC_PRESENTATION_REPRESENTATION (  '', ( #259 ), #82 ) ;
#138 = SHAPE_DEFINITION_REPRESENTATION ( #204, #14 ) ;
#139 = CARTESIAN_POINT ( 'NONE',  ( 0.0000000000000000000, 0.0000000000000000000, 2.000000000000000000 ) ) ;
#140 = ORIENTED_EDGE ( 'NONE', *, *, #123, .F. ) ;
#141 = FACE_OUTER_BOUND ( 'NONE', #269, .T. ) ;
#142 = EDGE_CURVE ( 'NONE', #170, #127, #8, .T. ) ;
#143 = SURFACE_STYLE_USAGE ( .BOTH. , #256 ) ;
#144 = VECTOR ( 'NONE', #174, 39.37007874015748143 ) ;
#145 = DIRECTION ( 'NONE',  ( -1.224646799147353207E-16, -0.0000000000000000000, -1.000000000000000000 ) ) ;
#146 = PRODUCT_DEFINITION ( 'UNKNOWN', '', #271, #216 ) ;
#147 =( LENGTH_UNIT ( ) NAMED_UNIT ( * ) SI_UNIT ( $, .METRE. ) );
#148 = CARTESIAN_POINT ( 'NONE',  ( 0.09365624999999999645, 1.146958267826442798E-17, -1.146958267826442798E-17 ) ) ;
#149 = DIRECTION ( 'NONE',  ( 1.000000000000000000, 0.0000000000000000000, 0.0000000000000000000 ) ) ;
#150 = ORIENTED_EDGE ( 'NONE', *, *, #292, .F. ) ;
#151 = EDGE_CURVE ( 'NONE', #63, #112, #288, .T. ) ;
#152 = PRESENTATION_LAYER_ASSIGNMENT (  '', '', ( #224 ) ) ;
#153 = VERTEX_POINT ( 'NONE', #255 ) ;
#154 = ORIENTED_EDGE ( 'NONE', *, *, #181, .F. ) ;
#155 = CIRCLE ( 'NONE', #73, 0.09365624999999999645 ) ;
#156 = DIRECTION ( 'NONE',  ( -1.000000000000000000, 0.0000000000000000000, 1.224646799147352961E-16 ) ) ;
#157 = DIRECTION ( 'NONE',  ( 1.000000000000000000, 0.0000000000000000000, 0.0000000000000000000 ) ) ;
#158 = DIRECTION ( 'NONE',  ( -1.000000000000000000, 0.0000000000000000000, 0.0000000000000000000 ) ) ;
#159 = DIRECTION ( 'NONE',  ( 1.000000000000000000, 0.0000000000000000000, 0.0000000000000000000 ) ) ;
#160 = CARTESIAN_POINT ( 'NONE',  ( 0.0000000000000000000, 0.0000000000000000000, 2.000000000000000000 ) ) ;
#161 = ADVANCED_FACE ( 'NONE', ( #76 ), #64, .T. ) ;
#162 = ORIENTED_EDGE ( 'NONE', *, *, #205, .F. ) ;
#163 = AXIS2_PLACEMENT_3D ( 'NONE', #1, #173, #113 ) ;
#164 = PRESENTATION_STYLE_ASSIGNMENT (( #61 ) ) ;
#165 = ORIENTED_EDGE ( 'NONE', *, *, #205, .T. ) ;
#166 = DIRECTION ( 'NONE',  ( 1.224646799147353207E-16, 0.0000000000000000000, 1.000000000000000000 ) ) ;
#167 =( CONVERSION_BASED_UNIT ( 'INCH', #121 ) LENGTH_UNIT ( ) NAMED_UNIT ( #227 ) );
#168 =( CONVERSION_BASED_UNIT ( 'INCH', #136 ) LENGTH_UNIT ( ) NAMED_UNIT ( #103 ) );
#169 = AXIS2_PLACEMENT_3D ( 'NONE', #134, #286, #278 ) ;
#170 = VERTEX_POINT ( 'NONE', #257 ) ;
#171 = DIRECTION ( 'NONE',  ( 1.000000000000000000, 0.0000000000000000000, -0.0000000000000000000 ) ) ;
#172 = EDGE_LOOP ( 'NONE', ( #93, #198, #154, #40 ) ) ;
#173 = DIRECTION ( 'NONE',  ( -1.224646799147353207E-16, -0.0000000000000000000, -1.000000000000000000 ) ) ;
#174 = DIRECTION ( 'NONE',  ( 0.7071067811865463515, 8.659560562354916834E-17, -0.7071067811865486830 ) ) ;
#175 = DIRECTION ( 'NONE',  ( -1.000000000000000000, 0.0000000000000000000, 0.0000000000000000000 ) ) ;
#176 = AXIS2_PLACEMENT_3D ( 'NONE', #124, #178, #29 ) ;
#177 = CARTESIAN_POINT ( 'NONE',  ( 0.0000000000000000000, 0.0000000000000000000, 2.000000000000000000 ) ) ;
#178 = DIRECTION ( 'NONE',  ( -1.224646799147353207E-16, -0.0000000000000000000, -1.000000000000000000 ) ) ;
#179 = ORIENTED_EDGE ( 'NONE', *, *, #123, .T. ) ;
#180 = ORIENTED_EDGE ( 'NONE', *, *, #133, .F. ) ;
#181 = EDGE_CURVE ( 'NONE', #112, #263, #228, .T. ) ;
#182 = APPLICATION_CONTEXT ( 'automotive_design' ) ;
#183 = AXIS2_PLACEMENT_3D ( 'NONE', #70, #166, #192 ) ;
#184 = AXIS2_PLACEMENT_3D ( 'NONE', #203, #51, #99 ) ;
#185 = EDGE_CURVE ( 'NONE', #127, #263, #237, .T. ) ;
#186 = FACE_OUTER_BOUND ( 'NONE', #172, .T. ) ;
#187 = EDGE_CURVE ( 'NONE', #263, #112, #43, .T. ) ;
#188 = ORIENTED_EDGE ( 'NONE', *, *, #39, .T. ) ;
#189 = CARTESIAN_POINT ( 'NONE',  ( -0.09375000000000001388, 0.0000000000000000000, 2.000000000000000000 ) ) ;
#190 =( NAMED_UNIT ( * ) PLANE_ANGLE_UNIT ( ) SI_UNIT ( $, .RADIAN. ) );
#191 = ORIENTED_EDGE ( 'NONE', *, *, #226, .F. ) ;
#192 = DIRECTION ( 'NONE',  ( 1.000000000000000000, 0.0000000000000000000, 0.0000000000000000000 ) ) ;
#193 = ORIENTED_EDGE ( 'NONE', *, *, #94, .T. ) ;
#194 = CARTESIAN_POINT ( 'NONE',  ( 0.09375000000000001388, 1.148106374200643863E-17, 1.984999999999999654 ) ) ;
#195 = VERTEX_POINT ( 'NONE', #122 ) ;
#196 = DIRECTION ( 'NONE',  ( 1.000000000000000000, 0.0000000000000000000, 0.0000000000000000000 ) ) ;
#197 = ADVANCED_FACE ( 'NONE', ( #221 ), #290, .T. ) ;
#198 = ORIENTED_EDGE ( 'NONE', *, *, #185, .T. ) ;
#199 = FACE_OUTER_BOUND ( 'NONE', #66, .T. ) ;
#200 =( LENGTH_UNIT ( ) NAMED_UNIT ( * ) SI_UNIT ( $, .METRE. ) );
#201 = DIRECTION ( 'NONE',  ( 1.000000000000000000, 0.0000000000000000000, -0.0000000000000000000 ) ) ;
#202 = PRODUCT ( 'Micro_GEM-187-3X', 'Micro_GEM-187-3X', '', ( #213 ) ) ;
#203 = CARTESIAN_POINT ( 'NONE',  ( 7.654042494670957853E-17, 0.0000000000000000000, 0.6250000000000000000 ) ) ;
#204 = PRODUCT_DEFINITION_SHAPE ( 'NONE', 'NONE',  #146 ) ;
#205 = EDGE_CURVE ( 'NONE', #153, #238, #215, .T. ) ;
#206 = AXIS2_PLACEMENT_3D ( 'NONE', #222, #11, #201 ) ;
#207 = DIRECTION ( 'NONE',  ( -1.000000000000000000, 0.0000000000000000000, 0.0000000000000000000 ) ) ;
#208 = ORIENTED_EDGE ( 'NONE', *, *, #12, .T. ) ;
#209 = VECTOR ( 'NONE', #254, 39.37007874015748143 ) ;
#210 = CARTESIAN_POINT ( 'NONE',  ( 0.0000000000000000000, 0.0000000000000000000, 2.000000000000000000 ) ) ;
#211 = CARTESIAN_POINT ( 'NONE',  ( 0.0000000000000000000, 0.0000000000000000000, 1.984999999999999654 ) ) ;
#212 = VECTOR ( 'NONE', #34, 39.37007874015748143 ) ;
#213 = PRODUCT_CONTEXT ( 'NONE', #182, 'mechanical' ) ;
#214 = EDGE_LOOP ( 'NONE', ( #191, #80, #46, #180 ) ) ;
#215 = LINE ( 'NONE', #148, #209 ) ;
#216 = PRODUCT_DEFINITION_CONTEXT ( 'detailed design', #56, 'design' ) ;
#217 = EDGE_CURVE ( 'NONE', #107, #170, #85, .T. ) ;
#218 = AXIS2_PLACEMENT_3D ( 'NONE', #281, #32, #100 ) ;
#219 = VECTOR ( 'NONE', #260, 39.37007874015748143 ) ;
#220 = LINE ( 'NONE', #101, #212 ) ;
#221 = FACE_OUTER_BOUND ( 'NONE', #42, .T. ) ;
#222 = CARTESIAN_POINT ( 'NONE',  ( 0.0000000000000000000, 0.0000000000000000000, 0.0000000000000000000 ) ) ;
#223 =( NAMED_UNIT ( * ) SI_UNIT ( $, .STERADIAN. ) SOLID_ANGLE_UNIT ( ) );
#224 = STYLED_ITEM ( 'NONE', ( #164 ), #261 ) ;
#225 = PLANE ( 'NONE',  #206 ) ;
#226 = EDGE_CURVE ( 'NONE', #63, #153, #128, .T. ) ;
#227 = DIMENSIONAL_EXPONENTS ( 1.000000000000000000, 0.0000000000000000000, 0.0000000000000000000, 0.0000000000000000000, 0.0000000000000000000, 0.0000000000000000000, 0.0000000000000000000 ) ;
#228 = CIRCLE ( 'NONE', #229, 0.09375000000000001388 ) ;
#229 = AXIS2_PLACEMENT_3D ( 'NONE', #239, #145, #149 ) ;
#230 = ORIENTED_EDGE ( 'NONE', *, *, #287, .F. ) ;
#231 = DIRECTION ( 'NONE',  ( -1.224646799147353207E-16, -0.0000000000000000000, -1.000000000000000000 ) ) ;
#232 = AXIS2_PLACEMENT_3D ( 'NONE', #277, #109, #156 ) ;
#233 =( NAMED_UNIT ( * ) SI_UNIT ( $, .STERADIAN. ) SOLID_ANGLE_UNIT ( ) );
#234 = CARTESIAN_POINT ( 'NONE',  ( -0.09365624999999999645, 0.0000000000000000000, 1.146958267826442798E-17 ) ) ;
#235 = ADVANCED_FACE ( 'NONE', ( #186 ), #84, .T. ) ;
#236 = CARTESIAN_POINT ( 'NONE',  ( -0.07874999999999980627, 0.0000000000000000000, 2.000000000000000000 ) ) ;
#237 = LINE ( 'NONE', #240, #25 ) ;
#238 = VERTEX_POINT ( 'NONE', #92 ) ;
#239 = CARTESIAN_POINT ( 'NONE',  ( 7.660553729477949085E-17, 0.0000000000000000000, 0.6255316826705892286 ) ) ;
#240 = CARTESIAN_POINT ( 'NONE',  ( 0.09375000000000001388, 1.148106374200643863E-17, 2.000000000000000000 ) ) ;
#241 = AXIS2_PLACEMENT_3D ( 'NONE', #47, #71, #83 ) ;
#242 = ORIENTED_EDGE ( 'NONE', *, *, #151, .F. ) ;
#243 = EDGE_LOOP ( 'NONE', ( #162, #36, #193, #150 ) ) ;
#244 = CONICAL_SURFACE ( 'NONE', #20, 0.07874999999999980627, 0.7853981633974466137 ) ;
#245 = ORIENTED_EDGE ( 'NONE', *, *, #94, .F. ) ;
#246 = DIRECTION ( 'NONE',  ( -0.0000000000000000000, -0.0000000000000000000, -1.000000000000000000 ) ) ;
#247 = LINE ( 'NONE', #189, #15 ) ;
#248 = CARTESIAN_POINT ( 'NONE',  ( -0.09375000000000001388, 0.0000000000000000000, 1.984999999999999654 ) ) ;
#249 = ADVANCED_FACE ( 'NONE', ( #114 ), #280, .T. ) ;
#250 = DIRECTION ( 'NONE',  ( 0.0000000000000000000, 0.0000000000000000000, -1.000000000000000000 ) ) ;
#251 = APPLICATION_PROTOCOL_DEFINITION ( 'draft international standard', 'automotive_design', 1998, #56 ) ;
#252 = VECTOR ( 'NONE', #10, 39.37007874015748143 ) ;
#253 = EDGE_LOOP ( 'NONE', ( #6, #208, #188, #268 ) ) ;
#254 = DIRECTION ( 'NONE',  ( -1.224646799147353207E-16, -0.0000000000000000000, -1.000000000000000000 ) ) ;
#255 = CARTESIAN_POINT ( 'NONE',  ( 0.09365625000000006584, 0.0000000000000000000, 0.6250000000000000000 ) ) ;
#256 = SURFACE_SIDE_STYLE ('',( #98 ) ) ;
#257 = CARTESIAN_POINT ( 'NONE',  ( 0.07874999999999980627, 1.056257864264590573E-17, 2.000000000000000000 ) ) ;
#258 =( NAMED_UNIT ( * ) PLANE_ANGLE_UNIT ( ) SI_UNIT ( $, .RADIAN. ) );
#259 = STYLED_ITEM ( 'NONE', ( #26 ), #14 ) ;
#260 = DIRECTION ( 'NONE',  ( -1.224646799147353207E-16, -0.0000000000000000000, -1.000000000000000000 ) ) ;
#261 = MANIFOLD_SOLID_BREP ( 'Cut-Revolve1', #265 ) ;
#262 = DIRECTION ( 'NONE',  ( 0.0000000000000000000, 0.0000000000000000000, -1.000000000000000000 ) ) ;
#263 = VERTEX_POINT ( 'NONE', #129 ) ;
#264 = ORIENTED_EDGE ( 'NONE', *, *, #217, .T. ) ;
#265 = CLOSED_SHELL ( 'NONE', ( #104, #48, #65, #235, #249, #197, #5, #161, #270, #111 ) ) ;
#266 = CIRCLE ( 'NONE', #16, 0.09375000000000001388 ) ;
#267 = EDGE_CURVE ( 'NONE', #170, #107, #4, .T. ) ;
#268 = ORIENTED_EDGE ( 'NONE', *, *, #187, .F. ) ;
#269 = EDGE_LOOP ( 'NONE', ( #179, #28 ) ) ;
#270 = ADVANCED_FACE ( 'NONE', ( #108 ), #130, .T. ) ;
#271 = PRODUCT_DEFINITION_FORMATION_WITH_SPECIFIED_SOURCE ( 'ANY', '', #202, .NOT_KNOWN. ) ;
#272 = DIRECTION ( 'NONE',  ( -1.000000000000000000, 0.0000000000000000000, 0.0000000000000000000 ) ) ;
#273 = PRODUCT_RELATED_PRODUCT_CATEGORY ( 'part', '', ( #202 ) ) ;
#274 = AXIS2_PLACEMENT_3D ( 'NONE', #88, #250, #157 ) ;
#275 = AXIS2_PLACEMENT_3D ( 'NONE', #18, #296, #17 ) ;
#276 = ORIENTED_EDGE ( 'NONE', *, *, #267, .F. ) ;
#277 = CARTESIAN_POINT ( 'NONE',  ( 1.404618771449245766E-33, 0.0000000000000000000, 1.146958267826442798E-17 ) ) ;
#278 = DIRECTION ( 'NONE',  ( 1.000000000000000000, 0.0000000000000000000, 0.0000000000000000000 ) ) ;
#279 = ORIENTED_EDGE ( 'NONE', *, *, #120, .F. ) ;
#280 = CYLINDRICAL_SURFACE ( 'NONE', #106, 0.09375000000000001388 ) ;
#281 = CARTESIAN_POINT ( 'NONE',  ( 7.660553729477949085E-17, 0.0000000000000000000, 0.6255316826705892286 ) ) ;
#282 = AXIS2_PLACEMENT_3D ( 'NONE', #33, #2, #196 ) ;
#283 = EDGE_LOOP ( 'NONE', ( #276, #91, #230, #279 ) ) ;
#284 = LENGTH_MEASURE_WITH_UNIT ( LENGTH_MEASURE( 0.02539999999999999897 ), #21 );
#285 = CARTESIAN_POINT ( 'NONE',  ( -0.09365624999999992706, 1.147532321013543253E-17, 0.6250000000000000000 ) ) ;
#286 = DIRECTION ( 'NONE',  ( 0.0000000000000000000, 0.0000000000000000000, 1.000000000000000000 ) ) ;
#287 = EDGE_CURVE ( 'NONE', #289, #127, #266, .T. ) ;
#288 = LINE ( 'NONE', #49, #54 ) ;
#289 = VERTEX_POINT ( 'NONE', #248 ) ;
#290 = PLANE ( 'NONE',  #96 ) ;
#291 = LINE ( 'NONE', #234, #219 ) ;
#292 = EDGE_CURVE ( 'NONE', #238, #195, #60, .T. ) ;
#293 = FACE_OUTER_BOUND ( 'NONE', #69, .T. ) ;
#294 = AXIS2_PLACEMENT_3D ( 'NONE', #160, #52, #158 ) ;
#295 = PRESENTATION_LAYER_ASSIGNMENT (  '', '', ( #259 ) ) ;
#296 = DIRECTION ( 'NONE',  ( 0.0000000000000000000, 0.0000000000000000000, 1.000000000000000000 ) ) ;
#297 = ORIENTED_EDGE ( 'NONE', *, *, #187, .T. ) ;
#298 = MECHANICAL_DESIGN_GEOMETRIC_PRESENTATION_REPRESENTATION (  '', ( #224 ), #102 ) ;
#299 = DIRECTION ( 'NONE',  ( -0.0000000000000000000, -0.0000000000000000000, -1.000000000000000000 ) ) ;
ENDSEC;
END-ISO-10303-21;
