ISO-10303-21;
HEADER;
FILE_DESCRIPTION (( 'STEP AP214' ),
    '1' );
FILE_NAME ('Micro_SEM-203-03.STEP',
    '2021-09-02T02:14:02',
    ( '' ),
    ( '' ),
    'SwSTEP 2.0',
    'SolidWorks 2020',
    '' );
FILE_SCHEMA (( 'AUTOMOTIVE_DESIGN' ));
ENDSEC;

DATA;
#1 = ADVANCED_FACE ( 'NONE', ( #265 ), #55, .T. ) ;
#2 = DIRECTION ( 'NONE',  ( 0.0000000000000000000, 0.0000000000000000000, 1.000000000000000000 ) ) ;
#3 = VECTOR ( 'NONE', #298, 39.37007874015748143 ) ;
#4 =( NAMED_UNIT ( * ) SI_UNIT ( $, .STERADIAN. ) SOLID_ANGLE_UNIT ( ) );
#5 = CIRCLE ( 'NONE', #131, 0.1099999999999996397 ) ;
#6 = VERTEX_POINT ( 'NONE', #286 ) ;
#7 = DIRECTION ( 'NONE',  ( 0.0000000000000000000, 0.0000000000000000000, 1.000000000000000000 ) ) ;
#8 = DIRECTION ( 'NONE',  ( 0.1736481776669313026, 0.0000000000000000000, 0.9848077530122077983 ) ) ;
#9 = ORIENTED_EDGE ( 'NONE', *, *, #23, .F. ) ;
#10 = DIRECTION ( 'NONE',  ( -1.224646799147353207E-16, -0.0000000000000000000, -1.000000000000000000 ) ) ;
#11 = ORIENTED_EDGE ( 'NONE', *, *, #14, .F. ) ;
#12 = DIRECTION ( 'NONE',  ( -1.224646799147353207E-16, -0.0000000000000000000, -1.000000000000000000 ) ) ;
#13 = PLANE ( 'NONE',  #173 ) ;
#14 = EDGE_CURVE ( 'NONE', #72, #291, #278, .T. ) ;
#15 = CONICAL_SURFACE ( 'NONE', #189, 0.1014484499999999956, 0.1745329251994338082 ) ;
#16 = CARTESIAN_POINT ( 'NONE',  ( -0.1014484499999999956, 0.0000000000000000000, 1.242385195709603026E-17 ) ) ;
#17 = FILL_AREA_STYLE_COLOUR ( '', #288 ) ;
#18 = ADVANCED_FACE ( 'NONE', ( #270 ), #59, .T. ) ;
#19 = CARTESIAN_POINT ( 'NONE',  ( -0.1014484499999999956, 0.0000000000000000000, 2.484770391419206052E-17 ) ) ;
#20 = AXIS2_PLACEMENT_3D ( 'NONE', #29, #7, #196 ) ;
#21 = ORIENTED_EDGE ( 'NONE', *, *, #290, .T. ) ;
#22 = VERTEX_POINT ( 'NONE', #27 ) ;
#23 = EDGE_CURVE ( 'NONE', #53, #6, #155, .T. ) ;
#24 = DIRECTION ( 'NONE',  ( 0.0000000000000000000, 0.0000000000000000000, -1.000000000000000000 ) ) ;
#25 = EDGE_LOOP ( 'NONE', ( #134, #159, #82, #48 ) ) ;
#26 = LENGTH_MEASURE_WITH_UNIT ( LENGTH_MEASURE( 0.02539999999999999897 ), #51 );
#27 = CARTESIAN_POINT ( 'NONE',  ( -0.1250000000000000000, 0.0000000000000000000, 1.984999999999999432 ) ) ;
#28 = CARTESIAN_POINT ( 'NONE',  ( 0.0000000000000000000, 0.0000000000000000000, 2.000000000000000000 ) ) ;
#29 = CARTESIAN_POINT ( 'NONE',  ( 0.0000000000000000000, 0.0000000000000000000, 2.000000000000000000 ) ) ;
#30 =( NAMED_UNIT ( * ) SI_UNIT ( $, .STERADIAN. ) SOLID_ANGLE_UNIT ( ) );
#31 = DIRECTION ( 'NONE',  ( -1.224646799147353207E-16, -0.0000000000000000000, -1.000000000000000000 ) ) ;
#32 = SURFACE_STYLE_USAGE ( .BOTH. , #203 ) ;
#33 = ORIENTED_EDGE ( 'NONE', *, *, #63, .F. ) ;
#34 = EDGE_CURVE ( 'NONE', #198, #22, #202, .T. ) ;
#35 = ORIENTED_EDGE ( 'NONE', *, *, #34, .F. ) ;
#36 = SURFACE_STYLE_FILL_AREA ( #197 ) ;
#37 = DIRECTION ( 'NONE',  ( -1.000000000000000000, 0.0000000000000000000, 0.0000000000000000000 ) ) ;
#38 = EDGE_CURVE ( 'NONE', #292, #103, #228, .T. ) ;
#39 = DIRECTION ( 'NONE',  ( -1.000000000000000000, 0.0000000000000000000, 0.0000000000000000000 ) ) ;
#40 = ADVANCED_BREP_SHAPE_REPRESENTATION ( 'Micro_SEM-203-03', ( #234, #135 ), #209 ) ;
#41 = LINE ( 'NONE', #141, #3 ) ;
#42 = PLANE ( 'NONE',  #187 ) ;
#43 = EDGE_CURVE ( 'NONE', #6, #291, #284, .T. ) ;
#44 = CARTESIAN_POINT ( 'NONE',  ( 0.1099999999999996397, 1.347111479062084158E-17, 2.000000000000000000 ) ) ;
#45 = CLOSED_SHELL ( 'NONE', ( #169, #109, #281, #194, #174, #58, #146, #1, #18, #101 ) ) ;
#46 = VECTOR ( 'NONE', #57, 39.37007874015747433 ) ;
#47 = DIRECTION ( 'NONE',  ( -1.000000000000000000, 0.0000000000000000000, 0.0000000000000000000 ) ) ;
#48 = ORIENTED_EDGE ( 'NONE', *, *, #290, .F. ) ;
#49 = AXIS2_PLACEMENT_3D ( 'NONE', #241, #52, #80 ) ;
#50 = EDGE_CURVE ( 'NONE', #53, #74, #158, .T. ) ;
#51 =( LENGTH_UNIT ( ) NAMED_UNIT ( * ) SI_UNIT ( $, .METRE. ) );
#52 = DIRECTION ( 'NONE',  ( 1.224646799147353207E-16, 0.0000000000000000000, 1.000000000000000000 ) ) ;
#53 = VERTEX_POINT ( 'NONE', #167 ) ;
#54 = DIRECTION ( 'NONE',  ( 1.000000000000000000, 0.0000000000000000000, 0.0000000000000000000 ) ) ;
#55 = CONICAL_SURFACE ( 'NONE', #49, 0.1014484499999999956, 0.1745329251994338082 ) ;
#56 = AXIS2_PLACEMENT_3D ( 'NONE', #186, #137, #116 ) ;
#57 = DIRECTION ( 'NONE',  ( -0.1736481776669311083, 2.126576849575782084E-17, 0.9848077530122080203 ) ) ;
#58 = ADVANCED_FACE ( 'NONE', ( #66 ), #42, .T. ) ;
#59 = CYLINDRICAL_SURFACE ( 'NONE', #201, 0.1014484499999999956 ) ;
#60 = DIRECTION ( 'NONE',  ( 1.000000000000000000, 0.0000000000000000000, 0.0000000000000000000 ) ) ;
#61 = CARTESIAN_POINT ( 'NONE',  ( 0.0000000000000000000, 0.0000000000000000000, 2.000000000000000000 ) ) ;
#62 = VECTOR ( 'NONE', #285, 39.37007874015748143 ) ;
#63 = EDGE_CURVE ( 'NONE', #6, #77, #112, .T. ) ;
#64 = CARTESIAN_POINT ( 'NONE',  ( 1.521483053233823417E-33, 0.0000000000000000000, 1.242385195709603026E-17 ) ) ;
#65 = DIRECTION ( 'NONE',  ( 1.000000000000000000, 0.0000000000000000000, 0.0000000000000000000 ) ) ;
#66 = FACE_OUTER_BOUND ( 'NONE', #193, .T. ) ;
#67 = AXIS2_PLACEMENT_3D ( 'NONE', #184, #273, #90 ) ;
#68 = DIRECTION ( 'NONE',  ( 1.000000000000000000, 0.0000000000000000000, 0.0000000000000000000 ) ) ;
#69 = COLOUR_RGB ( '',0.7921568627450980005, 0.8196078431372548767, 0.9333333333333333481 ) ;
#70 = CARTESIAN_POINT ( 'NONE',  ( -0.1099999999999996397, 0.0000000000000000000, 2.000000000000000000 ) ) ;
#71 = APPLICATION_CONTEXT ( 'automotive_design' ) ;
#72 = VERTEX_POINT ( 'NONE', #271 ) ;
#73 = DIRECTION ( 'NONE',  ( -0.0000000000000000000, -0.0000000000000000000, -1.000000000000000000 ) ) ;
#74 = VERTEX_POINT ( 'NONE', #98 ) ;
#75 = APPLICATION_PROTOCOL_DEFINITION ( 'draft international standard', 'automotive_design', 1998, #71 ) ;
#76 = CIRCLE ( 'NONE', #268, 0.1250000000000000000 ) ;
#77 = VERTEX_POINT ( 'NONE', #19 ) ;
#78 = ORIENTED_EDGE ( 'NONE', *, *, #14, .T. ) ;
#79 = CARTESIAN_POINT ( 'NONE',  ( -0.1249999999999999306, 0.0000000000000000000, 0.5085674773388167980 ) ) ;
#80 = DIRECTION ( 'NONE',  ( 1.000000000000000000, 0.0000000000000000000, 0.0000000000000000000 ) ) ;
#81 = AXIS2_PLACEMENT_3D ( 'NONE', #28, #24, #157 ) ;
#82 = ORIENTED_EDGE ( 'NONE', *, *, #208, .F. ) ;
#83 = DIRECTION ( 'NONE',  ( 1.000000000000000000, 0.0000000000000000000, 0.0000000000000000000 ) ) ;
#84 = EDGE_LOOP ( 'NONE', ( #282, #110, #246, #126 ) ) ;
#85 = ORIENTED_EDGE ( 'NONE', *, *, #254, .T. ) ;
#86 = EDGE_CURVE ( 'NONE', #103, #198, #252, .T. ) ;
#87 = AXIS2_PLACEMENT_3D ( 'NONE', #130, #10, #247 ) ;
#88 = FACE_OUTER_BOUND ( 'NONE', #204, .T. ) ;
#89 = AXIS2_PLACEMENT_3D ( 'NONE', #250, #231, #37 ) ;
#90 = DIRECTION ( 'NONE',  ( -1.000000000000000000, 0.0000000000000000000, 0.0000000000000000000 ) ) ;
#91 = APPLICATION_CONTEXT ( 'automotive_design' ) ;
#92 = CARTESIAN_POINT ( 'NONE',  ( 0.0000000000000000000, 0.0000000000000000000, 2.000000000000000000 ) ) ;
#93 = DIRECTION ( 'NONE',  ( 0.0000000000000000000, 0.0000000000000000000, -1.000000000000000000 ) ) ;
#94 =( GEOMETRIC_REPRESENTATION_CONTEXT ( 3 ) GLOBAL_UNCERTAINTY_ASSIGNED_CONTEXT ( ( #148 ) ) GLOBAL_UNIT_ASSIGNED_CONTEXT ( ( #289, #160, #199 ) ) REPRESENTATION_CONTEXT ( 'NONE', 'WORKASPACE' ) );
#95 = PRODUCT_DEFINITION_CONTEXT ( 'detailed design', #91, 'design' ) ;
#96 = PRODUCT_RELATED_PRODUCT_CATEGORY ( 'part', '', ( #205 ) ) ;
#97 = AXIS2_PLACEMENT_3D ( 'NONE', #64, #168, #164 ) ;
#98 = CARTESIAN_POINT ( 'NONE',  ( 0.1014484499999999956, 1.242385195709603026E-17, 0.0000000000000000000 ) ) ;
#99 = ORIENTED_EDGE ( 'NONE', *, *, #149, .T. ) ;
#100 = PRESENTATION_STYLE_ASSIGNMENT (( #129 ) ) ;
#101 = ADVANCED_FACE ( 'NONE', ( #163 ), #13, .F. ) ;
#102 = VECTOR ( 'NONE', #188, 39.37007874015748143 ) ;
#103 = VERTEX_POINT ( 'NONE', #115 ) ;
#104 = FILL_AREA_STYLE_COLOUR ( '', #69 ) ;
#105 = EDGE_LOOP ( 'NONE', ( #182, #132, #21, #35 ) ) ;
#106 = DIRECTION ( 'NONE',  ( -1.224646799147353207E-16, -0.0000000000000000000, -1.000000000000000000 ) ) ;
#107 = MECHANICAL_DESIGN_GEOMETRIC_PRESENTATION_REPRESENTATION (  '', ( #156 ), #261 ) ;
#108 = CARTESIAN_POINT ( 'NONE',  ( -0.1014484499999999539, 1.242385195709603026E-17, 0.3750000000000000555 ) ) ;
#109 = ADVANCED_FACE ( 'NONE', ( #185 ), #15, .T. ) ;
#110 = ORIENTED_EDGE ( 'NONE', *, *, #43, .T. ) ;
#111 = PRODUCT_CONTEXT ( 'NONE', #71, 'mechanical' ) ;
#112 = LINE ( 'NONE', #16, #102 ) ;
#113 = PRESENTATION_STYLE_ASSIGNMENT (( #32 ) ) ;
#114 = CIRCLE ( 'NONE', #97, 0.1014484499999999956 ) ;
#115 = CARTESIAN_POINT ( 'NONE',  ( 0.1099999999999996397, 1.438959988998137757E-17, 2.000000000000000000 ) ) ;
#116 = DIRECTION ( 'NONE',  ( -1.000000000000000000, 0.0000000000000000000, 1.224646799147353207E-16 ) ) ;
#117 = CARTESIAN_POINT ( 'NONE',  ( 0.1250000000000000000, 1.530808498934191509E-17, 1.984999999999999432 ) ) ;
#118 = CARTESIAN_POINT ( 'NONE',  ( 0.0000000000000000000, 0.0000000000000000000, 0.0000000000000000000 ) ) ;
#119 = PRODUCT_DEFINITION_FORMATION_WITH_SPECIFIED_SOURCE ( 'ANY', '', #205, .NOT_KNOWN. ) ;
#120 = EDGE_LOOP ( 'NONE', ( #99, #175 ) ) ;
#121 = DIMENSIONAL_EXPONENTS ( 1.000000000000000000, 0.0000000000000000000, 0.0000000000000000000, 0.0000000000000000000, 0.0000000000000000000, 0.0000000000000000000, 0.0000000000000000000 ) ;
#122 = ORIENTED_EDGE ( 'NONE', *, *, #149, .F. ) ;
#123 = ORIENTED_EDGE ( 'NONE', *, *, #38, .T. ) ;
#124 = PRESENTATION_LAYER_ASSIGNMENT (  '', '', ( #242 ) ) ;
#125 =( LENGTH_UNIT ( ) NAMED_UNIT ( * ) SI_UNIT ( $, .METRE. ) );
#126 = ORIENTED_EDGE ( 'NONE', *, *, #275, .F. ) ;
#127 = CARTESIAN_POINT ( 'NONE',  ( -0.1099999999999996397, 0.0000000000000000000, 2.000000000000000000 ) ) ;
#128 = ORIENTED_EDGE ( 'NONE', *, *, #50, .F. ) ;
#129 = SURFACE_STYLE_USAGE ( .BOTH. , #170 ) ;
#130 = CARTESIAN_POINT ( 'NONE',  ( 4.592425496802575451E-17, 0.0000000000000000000, 0.3750000000000000555 ) ) ;
#131 = AXIS2_PLACEMENT_3D ( 'NONE', #230, #266, #54 ) ;
#132 = ORIENTED_EDGE ( 'NONE', *, *, #38, .F. ) ;
#133 = ORIENTED_EDGE ( 'NONE', *, *, #275, .T. ) ;
#134 = ORIENTED_EDGE ( 'NONE', *, *, #249, .F. ) ;
#135 = AXIS2_PLACEMENT_3D ( 'NONE', #178, #138, #83 ) ;
#136 = ORIENTED_EDGE ( 'NONE', *, *, #216, .F. ) ;
#137 = DIRECTION ( 'NONE',  ( -1.224646799147353207E-16, -0.0000000000000000000, -1.000000000000000000 ) ) ;
#138 = DIRECTION ( 'NONE',  ( 0.0000000000000000000, 0.0000000000000000000, 1.000000000000000000 ) ) ;
#139 = DIRECTION ( 'NONE',  ( 1.000000000000000000, 0.0000000000000000000, -0.0000000000000000000 ) ) ;
#140 = CIRCLE ( 'NONE', #256, 0.1250000000000000000 ) ;
#141 = CARTESIAN_POINT ( 'NONE',  ( 0.1250000000000000000, 1.530808498934191509E-17, 2.000000000000000000 ) ) ;
#142 = PRODUCT_DEFINITION_SHAPE ( 'NONE', 'NONE',  #238 ) ;
#143 = DIRECTION ( 'NONE',  ( -1.224646799147353207E-16, -0.0000000000000000000, -1.000000000000000000 ) ) ;
#144 = DIMENSIONAL_EXPONENTS ( 1.000000000000000000, 0.0000000000000000000, 0.0000000000000000000, 0.0000000000000000000, 0.0000000000000000000, 0.0000000000000000000, 0.0000000000000000000 ) ;
#145 = DIRECTION ( 'NONE',  ( 0.0000000000000000000, 0.0000000000000000000, 1.000000000000000000 ) ) ;
#146 = ADVANCED_FACE ( 'NONE', ( #297 ), #219, .T. ) ;
#147 = ORIENTED_EDGE ( 'NONE', *, *, #34, .T. ) ;
#148 = UNCERTAINTY_MEASURE_WITH_UNIT (LENGTH_MEASURE( 1.000000000000000082E-05 ), #289, 'distance_accuracy_value', 'NONE');
#149 = EDGE_CURVE ( 'NONE', #77, #74, #295, .T. ) ;
#150 = VECTOR ( 'NONE', #31, 39.37007874015748143 ) ;
#151 = EDGE_LOOP ( 'NONE', ( #263, #9, #133, #78 ) ) ;
#152 = LINE ( 'NONE', #70, #62 ) ;
#153 = CARTESIAN_POINT ( 'NONE',  ( 0.0000000000000000000, 0.0000000000000000000, 0.0000000000000000000 ) ) ;
#154 = ORIENTED_EDGE ( 'NONE', *, *, #225, .F. ) ;
#155 = CIRCLE ( 'NONE', #87, 0.1014484499999999956 ) ;
#156 = STYLED_ITEM ( 'NONE', ( #100 ), #234 ) ;
#157 = DIRECTION ( 'NONE',  ( -1.000000000000000000, 0.0000000000000000000, 0.0000000000000000000 ) ) ;
#158 = LINE ( 'NONE', #244, #150 ) ;
#159 = ORIENTED_EDGE ( 'NONE', *, *, #86, .T. ) ;
#160 =( NAMED_UNIT ( * ) PLANE_ANGLE_UNIT ( ) SI_UNIT ( $, .RADIAN. ) );
#161 = ORIENTED_EDGE ( 'NONE', *, *, #249, .T. ) ;
#162 = AXIS2_PLACEMENT_3D ( 'NONE', #92, #299, #39 ) ;
#163 = FACE_OUTER_BOUND ( 'NONE', #120, .T. ) ;
#164 = DIRECTION ( 'NONE',  ( -1.000000000000000000, 0.0000000000000000000, 1.224646799147353207E-16 ) ) ;
#165 = CARTESIAN_POINT ( 'NONE',  ( 6.228155332734261484E-17, 0.0000000000000000000, 0.5085674773388167980 ) ) ;
#166 = MECHANICAL_DESIGN_GEOMETRIC_PRESENTATION_REPRESENTATION (  '', ( #242 ), #94 ) ;
#167 = CARTESIAN_POINT ( 'NONE',  ( 0.1014484500000000511, 0.0000000000000000000, 0.3750000000000000555 ) ) ;
#168 = DIRECTION ( 'NONE',  ( -1.224646799147353207E-16, -0.0000000000000000000, -1.000000000000000000 ) ) ;
#169 = ADVANCED_FACE ( 'NONE', ( #276 ), #207, .T. ) ;
#170 = SURFACE_SIDE_STYLE ('',( #176 ) ) ;
#171 = ORIENTED_EDGE ( 'NONE', *, *, #208, .T. ) ;
#172 = DIRECTION ( 'NONE',  ( -1.224646799147353207E-16, -0.0000000000000000000, -1.000000000000000000 ) ) ;
#173 = AXIS2_PLACEMENT_3D ( 'NONE', #118, #145, #212 ) ;
#174 = ADVANCED_FACE ( 'NONE', ( #88 ), #274, .T. ) ;
#175 = ORIENTED_EDGE ( 'NONE', *, *, #191, .T. ) ;
#176 = SURFACE_STYLE_FILL_AREA ( #277 ) ;
#177 = CARTESIAN_POINT ( 'NONE',  ( 0.0000000000000000000, 0.0000000000000000000, 1.984999999999999432 ) ) ;
#178 = CARTESIAN_POINT ( 'NONE',  ( 0.0000000000000000000, 0.0000000000000000000, 0.0000000000000000000 ) ) ;
#179 = EDGE_LOOP ( 'NONE', ( #128, #215, #222, #206 ) ) ;
#180 = SHAPE_DEFINITION_REPRESENTATION ( #142, #40 ) ;
#181 = ORIENTED_EDGE ( 'NONE', *, *, #254, .F. ) ;
#182 = ORIENTED_EDGE ( 'NONE', *, *, #86, .F. ) ;
#183 = VECTOR ( 'NONE', #227, 39.37007874015748143 ) ;
#184 = CARTESIAN_POINT ( 'NONE',  ( 0.0000000000000000000, 0.0000000000000000000, 2.000000000000000000 ) ) ;
#185 = FACE_OUTER_BOUND ( 'NONE', #84, .T. ) ;
#186 = CARTESIAN_POINT ( 'NONE',  ( 1.521483053233823417E-33, 0.0000000000000000000, 1.242385195709603026E-17 ) ) ;
#187 = AXIS2_PLACEMENT_3D ( 'NONE', #61, #2, #139 ) ;
#188 = DIRECTION ( 'NONE',  ( -1.224646799147353207E-16, -0.0000000000000000000, -1.000000000000000000 ) ) ;
#189 = AXIS2_PLACEMENT_3D ( 'NONE', #210, #213, #68 ) ;
#190 = UNCERTAINTY_MEASURE_WITH_UNIT (LENGTH_MEASURE( 1.000000000000000082E-05 ), #192, 'distance_accuracy_value', 'NONE');
#191 = EDGE_CURVE ( 'NONE', #74, #77, #114, .T. ) ;
#192 =( CONVERSION_BASED_UNIT ( 'INCH', #243 ) LENGTH_UNIT ( ) NAMED_UNIT ( #237 ) );
#193 = EDGE_LOOP ( 'NONE', ( #123, #161 ) ) ;
#194 = ADVANCED_FACE ( 'NONE', ( #229 ), #251, .T. ) ;
#195 = AXIS2_PLACEMENT_3D ( 'NONE', #264, #172, #47 ) ;
#196 = DIRECTION ( 'NONE',  ( 1.000000000000000000, 0.0000000000000000000, 0.0000000000000000000 ) ) ;
#197 = FILL_AREA_STYLE ('',( #104 ) ) ;
#198 = VERTEX_POINT ( 'NONE', #117 ) ;
#199 =( NAMED_UNIT ( * ) SI_UNIT ( $, .STERADIAN. ) SOLID_ANGLE_UNIT ( ) );
#200 = CARTESIAN_POINT ( 'NONE',  ( 6.228155332734261484E-17, 0.0000000000000000000, 0.5085674773388167980 ) ) ;
#201 = AXIS2_PLACEMENT_3D ( 'NONE', #153, #240, #223 ) ;
#202 = CIRCLE ( 'NONE', #236, 0.1250000000000000000 ) ;
#203 = SURFACE_SIDE_STYLE ('',( #36 ) ) ;
#204 = EDGE_LOOP ( 'NONE', ( #154, #147, #85, #11 ) ) ;
#205 = PRODUCT ( 'Micro_SEM-203-03', 'Micro_SEM-203-03', '', ( #111 ) ) ;
#206 = ORIENTED_EDGE ( 'NONE', *, *, #191, .F. ) ;
#207 = CYLINDRICAL_SURFACE ( 'NONE', #232, 0.1014484499999999956 ) ;
#208 = EDGE_CURVE ( 'NONE', #22, #198, #76, .T. ) ;
#209 =( GEOMETRIC_REPRESENTATION_CONTEXT ( 3 ) GLOBAL_UNCERTAINTY_ASSIGNED_CONTEXT ( ( #214 ) ) GLOBAL_UNIT_ASSIGNED_CONTEXT ( ( #218, #221, #4 ) ) REPRESENTATION_CONTEXT ( 'NONE', 'WORKASPACE' ) );
#210 = CARTESIAN_POINT ( 'NONE',  ( 4.592425496802575451E-17, 0.0000000000000000000, 0.3750000000000000555 ) ) ;
#211 = CARTESIAN_POINT ( 'NONE',  ( 0.0000000000000000000, 0.0000000000000000000, 1.984999999999999432 ) ) ;
#212 = DIRECTION ( 'NONE',  ( 1.000000000000000000, 0.0000000000000000000, -0.0000000000000000000 ) ) ;
#213 = DIRECTION ( 'NONE',  ( 1.224646799147353207E-16, 0.0000000000000000000, 1.000000000000000000 ) ) ;
#214 = UNCERTAINTY_MEASURE_WITH_UNIT (LENGTH_MEASURE( 1.000000000000000082E-05 ), #218, 'distance_accuracy_value', 'NONE');
#215 = ORIENTED_EDGE ( 'NONE', *, *, #23, .T. ) ;
#216 = EDGE_CURVE ( 'NONE', #291, #72, #140, .T. ) ;
#217 = VECTOR ( 'NONE', #73, 39.37007874015748143 ) ;
#218 =( CONVERSION_BASED_UNIT ( 'INCH', #26 ) LENGTH_UNIT ( ) NAMED_UNIT ( #121 ) );
#219 = CONICAL_SURFACE ( 'NONE', #89, 0.1099999999999996397, 0.7853981633974426169 ) ;
#220 = DIRECTION ( 'NONE',  ( 1.000000000000000000, 0.0000000000000000000, 0.0000000000000000000 ) ) ;
#221 =( NAMED_UNIT ( * ) PLANE_ANGLE_UNIT ( ) SI_UNIT ( $, .RADIAN. ) );
#222 = ORIENTED_EDGE ( 'NONE', *, *, #63, .T. ) ;
#223 = DIRECTION ( 'NONE',  ( -1.000000000000000000, 0.0000000000000000000, 1.224646799147353207E-16 ) ) ;
#224 = EDGE_LOOP ( 'NONE', ( #233, #259, #122, #33 ) ) ;
#225 = EDGE_CURVE ( 'NONE', #198, #72, #41, .T. ) ;
#226 = CARTESIAN_POINT ( 'NONE',  ( 0.0000000000000000000, 0.0000000000000000000, 0.0000000000000000000 ) ) ;
#227 = DIRECTION ( 'NONE',  ( 0.7071067811865434649, 8.659560562354883554E-17, -0.7071067811865515695 ) ) ;
#228 = CIRCLE ( 'NONE', #20, 0.1099999999999996397 ) ;
#229 = FACE_OUTER_BOUND ( 'NONE', #287, .T. ) ;
#230 = CARTESIAN_POINT ( 'NONE',  ( 0.0000000000000000000, 0.0000000000000000000, 2.000000000000000000 ) ) ;
#231 = DIRECTION ( 'NONE',  ( 0.0000000000000000000, 0.0000000000000000000, -1.000000000000000000 ) ) ;
#232 = AXIS2_PLACEMENT_3D ( 'NONE', #226, #12, #293 ) ;
#233 = ORIENTED_EDGE ( 'NONE', *, *, #258, .T. ) ;
#234 = MANIFOLD_SOLID_BREP ( 'Cut-Revolve1', #45 ) ;
#235 =( NAMED_UNIT ( * ) PLANE_ANGLE_UNIT ( ) SI_UNIT ( $, .RADIAN. ) );
#236 = AXIS2_PLACEMENT_3D ( 'NONE', #177, #267, #60 ) ;
#237 = DIMENSIONAL_EXPONENTS ( 1.000000000000000000, 0.0000000000000000000, 0.0000000000000000000, 0.0000000000000000000, 0.0000000000000000000, 0.0000000000000000000, 0.0000000000000000000 ) ;
#238 = PRODUCT_DEFINITION ( 'UNKNOWN', '', #119, #95 ) ;
#239 = FACE_OUTER_BOUND ( 'NONE', #25, .T. ) ;
#240 = DIRECTION ( 'NONE',  ( -1.224646799147353207E-16, -0.0000000000000000000, -1.000000000000000000 ) ) ;
#241 = CARTESIAN_POINT ( 'NONE',  ( 4.592425496802575451E-17, 0.0000000000000000000, 0.3750000000000000555 ) ) ;
#242 = STYLED_ITEM ( 'NONE', ( #113 ), #40 ) ;
#243 = LENGTH_MEASURE_WITH_UNIT ( LENGTH_MEASURE( 0.02539999999999999897 ), #125 );
#244 = CARTESIAN_POINT ( 'NONE',  ( 0.1014484499999999956, 1.242385195709603026E-17, -1.242385195709603026E-17 ) ) ;
#245 = LENGTH_MEASURE_WITH_UNIT ( LENGTH_MEASURE( 0.02539999999999999897 ), #248 );
#246 = ORIENTED_EDGE ( 'NONE', *, *, #216, .T. ) ;
#247 = DIRECTION ( 'NONE',  ( -1.000000000000000000, 0.0000000000000000000, 0.0000000000000000000 ) ) ;
#248 =( LENGTH_UNIT ( ) NAMED_UNIT ( * ) SI_UNIT ( $, .METRE. ) );
#249 = EDGE_CURVE ( 'NONE', #103, #292, #5, .T. ) ;
#250 = CARTESIAN_POINT ( 'NONE',  ( 0.0000000000000000000, 0.0000000000000000000, 2.000000000000000000 ) ) ;
#251 = CYLINDRICAL_SURFACE ( 'NONE', #162, 0.1250000000000000000 ) ;
#252 = LINE ( 'NONE', #44, #183 ) ;
#253 = DIRECTION ( 'NONE',  ( 1.000000000000000000, 0.0000000000000000000, 0.0000000000000000000 ) ) ;
#254 = EDGE_CURVE ( 'NONE', #22, #291, #257, .T. ) ;
#255 = AXIS2_PLACEMENT_3D ( 'NONE', #200, #106, #220 ) ;
#256 = AXIS2_PLACEMENT_3D ( 'NONE', #165, #143, #253 ) ;
#257 = LINE ( 'NONE', #280, #217 ) ;
#258 = EDGE_CURVE ( 'NONE', #6, #53, #283, .T. ) ;
#259 = ORIENTED_EDGE ( 'NONE', *, *, #50, .T. ) ;
#260 = CARTESIAN_POINT ( 'NONE',  ( 0.1014484500000000511, 0.0000000000000000000, 0.3750000000000000555 ) ) ;
#261 =( GEOMETRIC_REPRESENTATION_CONTEXT ( 3 ) GLOBAL_UNCERTAINTY_ASSIGNED_CONTEXT ( ( #190 ) ) GLOBAL_UNIT_ASSIGNED_CONTEXT ( ( #192, #235, #30 ) ) REPRESENTATION_CONTEXT ( 'NONE', 'WORKASPACE' ) );
#262 = LINE ( 'NONE', #260, #279 ) ;
#263 = ORIENTED_EDGE ( 'NONE', *, *, #43, .F. ) ;
#264 = CARTESIAN_POINT ( 'NONE',  ( 4.592425496802575451E-17, 0.0000000000000000000, 0.3750000000000000555 ) ) ;
#265 = FACE_OUTER_BOUND ( 'NONE', #151, .T. ) ;
#266 = DIRECTION ( 'NONE',  ( 0.0000000000000000000, 0.0000000000000000000, 1.000000000000000000 ) ) ;
#267 = DIRECTION ( 'NONE',  ( 0.0000000000000000000, 0.0000000000000000000, -1.000000000000000000 ) ) ;
#268 = AXIS2_PLACEMENT_3D ( 'NONE', #211, #93, #65 ) ;
#269 = ORIENTED_EDGE ( 'NONE', *, *, #225, .T. ) ;
#270 = FACE_OUTER_BOUND ( 'NONE', #179, .T. ) ;
#271 = CARTESIAN_POINT ( 'NONE',  ( 0.1250000000000000555, 1.530808498934192125E-17, 0.5085674773388167980 ) ) ;
#272 = PRESENTATION_LAYER_ASSIGNMENT (  '', '', ( #156 ) ) ;
#273 = DIRECTION ( 'NONE',  ( -0.0000000000000000000, -0.0000000000000000000, -1.000000000000000000 ) ) ;
#274 = CYLINDRICAL_SURFACE ( 'NONE', #67, 0.1250000000000000000 ) ;
#275 = EDGE_CURVE ( 'NONE', #53, #72, #262, .T. ) ;
#276 = FACE_OUTER_BOUND ( 'NONE', #224, .T. ) ;
#277 = FILL_AREA_STYLE ('',( #17 ) ) ;
#278 = CIRCLE ( 'NONE', #255, 0.1250000000000000000 ) ;
#279 = VECTOR ( 'NONE', #8, 39.37007874015748143 ) ;
#280 = CARTESIAN_POINT ( 'NONE',  ( -0.1250000000000000000, 0.0000000000000000000, 2.000000000000000000 ) ) ;
#281 = ADVANCED_FACE ( 'NONE', ( #239 ), #294, .T. ) ;
#282 = ORIENTED_EDGE ( 'NONE', *, *, #258, .F. ) ;
#283 = CIRCLE ( 'NONE', #195, 0.1014484499999999956 ) ;
#284 = LINE ( 'NONE', #108, #46 ) ;
#285 = DIRECTION ( 'NONE',  ( -0.7071067811865434649, 0.0000000000000000000, -0.7071067811865515695 ) ) ;
#286 = CARTESIAN_POINT ( 'NONE',  ( -0.1014484499999999539, 1.386596847321897422E-17, 0.3750000000000000555 ) ) ;
#287 = EDGE_LOOP ( 'NONE', ( #171, #269, #136, #181 ) ) ;
#288 = COLOUR_RGB ( '',0.7921568627450980005, 0.8196078431372548767, 0.9333333333333333481 ) ;
#289 =( CONVERSION_BASED_UNIT ( 'INCH', #245 ) LENGTH_UNIT ( ) NAMED_UNIT ( #144 ) );
#290 = EDGE_CURVE ( 'NONE', #292, #22, #152, .T. ) ;
#291 = VERTEX_POINT ( 'NONE', #79 ) ;
#292 = VERTEX_POINT ( 'NONE', #127 ) ;
#293 = DIRECTION ( 'NONE',  ( -1.000000000000000000, 0.0000000000000000000, 1.224646799147353207E-16 ) ) ;
#294 = CONICAL_SURFACE ( 'NONE', #81, 0.1099999999999996397, 0.7853981633974426169 ) ;
#295 = CIRCLE ( 'NONE', #56, 0.1014484499999999956 ) ;
#296 = APPLICATION_PROTOCOL_DEFINITION ( 'draft international standard', 'automotive_design', 1998, #91 ) ;
#297 = FACE_OUTER_BOUND ( 'NONE', #105, .T. ) ;
#298 = DIRECTION ( 'NONE',  ( -0.0000000000000000000, -0.0000000000000000000, -1.000000000000000000 ) ) ;
#299 = DIRECTION ( 'NONE',  ( -0.0000000000000000000, -0.0000000000000000000, -1.000000000000000000 ) ) ;
ENDSEC;
END-ISO-10303-21;
