ISO-10303-21;
HEADER;
FILE_DESCRIPTION (( 'STEP AP214' ),
    '1' );
FILE_NAME ('Micro_BEM-062-03.STEP',
    '2021-09-03T12:58:31',
    ( '' ),
    ( '' ),
    'SwSTEP 2.0',
    'SolidWorks 2020',
    '' );
FILE_SCHEMA (( 'AUTOMOTIVE_DESIGN' ));
ENDSEC;

DATA;
#1 = UNCERTAINTY_MEASURE_WITH_UNIT (LENGTH_MEASURE( 1.000000000000000082E-05 ), #84, 'distance_accuracy_value', 'NONE');
#2 = ORIENTED_EDGE ( 'NONE', *, *, #266, .F. ) ;
#3 = PRESENTATION_LAYER_ASSIGNMENT (  '', '', ( #123 ) ) ;
#4 = APPLICATION_PROTOCOL_DEFINITION ( 'draft international standard', 'automotive_design', 1998, #285 ) ;
#5 =( NAMED_UNIT ( * ) SI_UNIT ( $, .STERADIAN. ) SOLID_ANGLE_UNIT ( ) );
#6 = VECTOR ( 'NONE', #47, 39.37007874015748143 ) ;
#7 = EDGE_CURVE ( 'NONE', #66, #16, #301, .T. ) ;
#8 = LINE ( 'NONE', #62, #320 ) ;
#9 = DIRECTION ( 'NONE',  ( -0.0000000000000000000, -0.0000000000000000000, -1.000000000000000000 ) ) ;
#10 = FACE_OUTER_BOUND ( 'NONE', #143, .T. ) ;
#11 = CIRCLE ( 'NONE', #22, 0.03121874999999999997 ) ;
#12 = FACE_OUTER_BOUND ( 'NONE', #126, .T. ) ;
#13 =( GEOMETRIC_REPRESENTATION_CONTEXT ( 3 ) GLOBAL_UNCERTAINTY_ASSIGNED_CONTEXT ( ( #35 ) ) GLOBAL_UNIT_ASSIGNED_CONTEXT ( ( #254, #284, #130 ) ) REPRESENTATION_CONTEXT ( 'NONE', 'WORKASPACE' ) );
#14 = EDGE_CURVE ( 'NONE', #98, #96, #170, .T. ) ;
#15 = DIMENSIONAL_EXPONENTS ( 1.000000000000000000, 0.0000000000000000000, 0.0000000000000000000, 0.0000000000000000000, 0.0000000000000000000, 0.0000000000000000000, 0.0000000000000000000 ) ;
#16 = VERTEX_POINT ( 'NONE', #185 ) ;
#17 = CARTESIAN_POINT ( 'NONE',  ( 0.0000000000000000000, 0.0000000000000000000, 1.500000000000000222 ) ) ;
#18 = ORIENTED_EDGE ( 'NONE', *, *, #289, .T. ) ;
#19 = LINE ( 'NONE', #199, #202 ) ;
#20 = ORIENTED_EDGE ( 'NONE', *, *, #111, .T. ) ;
#21 = CARTESIAN_POINT ( 'NONE',  ( 0.04750000000000064587, 6.735557395310483192E-18, 1.500000000000000222 ) ) ;
#22 = AXIS2_PLACEMENT_3D ( 'NONE', #251, #42, #118 ) ;
#23 = ORIENTED_EDGE ( 'NONE', *, *, #208, .T. ) ;
#24 = EDGE_CURVE ( 'NONE', #200, #16, #206, .T. ) ;
#25 = CARTESIAN_POINT ( 'NONE',  ( -0.04750000000000064587, 0.0000000000000000000, 1.500000000000000222 ) ) ;
#26 = EDGE_LOOP ( 'NONE', ( #250, #225, #2, #73 ) ) ;
#27 = SURFACE_STYLE_FILL_AREA ( #133 ) ;
#28 = DIRECTION ( 'NONE',  ( 1.000000000000000000, 0.0000000000000000000, 0.0000000000000000000 ) ) ;
#29 = ADVANCED_FACE ( 'NONE', ( #306 ), #95, .T. ) ;
#30 = DIRECTION ( 'NONE',  ( 0.0000000000000000000, 0.0000000000000000000, 1.000000000000000000 ) ) ;
#31 = APPLICATION_CONTEXT ( 'automotive_design' ) ;
#32 = DIRECTION ( 'NONE',  ( -1.000000000000000000, 0.0000000000000000000, 0.0000000000000000000 ) ) ;
#33 = DIRECTION ( 'NONE',  ( -1.000000000000000000, 1.224646799147353454E-16, 0.0000000000000000000 ) ) ;
#34 = MANIFOLD_SOLID_BREP ( 'Fillet1', #134 ) ;
#35 = UNCERTAINTY_MEASURE_WITH_UNIT (LENGTH_MEASURE( 1.000000000000000082E-05 ), #254, 'distance_accuracy_value', 'NONE');
#36 = DIRECTION ( 'NONE',  ( 0.0000000000000000000, 0.0000000000000000000, 1.000000000000000000 ) ) ;
#37 = DIRECTION ( 'NONE',  ( -1.224646799147353700E-16, -0.0000000000000000000, -1.000000000000000000 ) ) ;
#38 = AXIS2_PLACEMENT_3D ( 'NONE', #213, #161, #33 ) ;
#39 = PRODUCT_DEFINITION_SHAPE ( 'NONE', 'NONE',  #48 ) ;
#40 = ADVANCED_FACE ( 'NONE', ( #129 ), #234, .T. ) ;
#41 = ORIENTED_EDGE ( 'NONE', *, *, #115, .F. ) ;
#42 = DIRECTION ( 'NONE',  ( -1.224646799147353700E-16, -0.0000000000000000000, -1.000000000000000000 ) ) ;
#43 = VECTOR ( 'NONE', #201, 39.37007874015748143 ) ;
#44 = VERTEX_POINT ( 'NONE', #25 ) ;
#45 = DIRECTION ( 'NONE',  ( 0.0000000000000000000, 0.0000000000000000000, 1.000000000000000000 ) ) ;
#46 = ORIENTED_EDGE ( 'NONE', *, *, #216, .F. ) ;
#47 = DIRECTION ( 'NONE',  ( -1.224646799147353700E-16, -0.0000000000000000000, -1.000000000000000000 ) ) ;
#48 = PRODUCT_DEFINITION ( 'UNKNOWN', '', #260, #310 ) ;
#49 = ORIENTED_EDGE ( 'NONE', *, *, #131, .T. ) ;
#50 = CARTESIAN_POINT ( 'NONE',  ( 3.823194226088145228E-18, 0.0000000000000000000, 0.03121874999999999997 ) ) ;
#51 = AXIS2_PLACEMENT_3D ( 'NONE', #61, #312, #163 ) ;
#52 = CARTESIAN_POINT ( 'NONE',  ( 3.823194226088145228E-18, 0.0000000000000000000, 0.03121874999999999997 ) ) ;
#53 = SURFACE_STYLE_USAGE ( .BOTH. , #80 ) ;
#54 = CARTESIAN_POINT ( 'NONE',  ( 2.302335982397025094E-17, 0.0000000000000000000, 0.1880000000000000282 ) ) ;
#55 = AXIS2_PLACEMENT_3D ( 'NONE', #270, #45, #249 ) ;
#56 = LENGTH_MEASURE_WITH_UNIT ( LENGTH_MEASURE( 0.02539999999999999897 ), #81 );
#57 = CARTESIAN_POINT ( 'NONE',  ( 0.0000000000000000000, 0.0000000000000000000, 1.500000000000000222 ) ) ;
#58 = EDGE_CURVE ( 'NONE', #175, #44, #85, .T. ) ;
#59 = DIRECTION ( 'NONE',  ( -1.000000000000000000, 0.0000000000000000000, 0.0000000000000000000 ) ) ;
#60 = VECTOR ( 'NONE', #116, 39.37007874015747433 ) ;
#61 = CARTESIAN_POINT ( 'NONE',  ( 0.0000000000000000000, 0.0000000000000000000, 1.485000000000000764 ) ) ;
#62 = CARTESIAN_POINT ( 'NONE',  ( -0.03121874999999999997, 0.0000000000000000000, 3.823194226088145228E-18 ) ) ;
#63 = CIRCLE ( 'NONE', #224, 0.06250000000000002776 ) ;
#64 = EDGE_CURVE ( 'NONE', #167, #16, #125, .T. ) ;
#65 = DIMENSIONAL_EXPONENTS ( 1.000000000000000000, 0.0000000000000000000, 0.0000000000000000000, 0.0000000000000000000, 0.0000000000000000000, 0.0000000000000000000, 0.0000000000000000000 ) ;
#66 = VERTEX_POINT ( 'NONE', #174 ) ;
#67 = CARTESIAN_POINT ( 'NONE',  ( 5.734791339132217072E-18, 0.0000000000000000000, 0.0000000000000000000 ) ) ;
#68 = ORIENTED_EDGE ( 'NONE', *, *, #106, .F. ) ;
#69 = FACE_OUTER_BOUND ( 'NONE', #274, .T. ) ;
#70 = AXIS2_PLACEMENT_3D ( 'NONE', #223, #122, #177 ) ;
#71 = ORIENTED_EDGE ( 'NONE', *, *, #289, .F. ) ;
#72 = CARTESIAN_POINT ( 'NONE',  ( 0.0000000000000000000, 0.0000000000000000000, 0.0000000000000000000 ) ) ;
#73 = ORIENTED_EDGE ( 'NONE', *, *, #168, .F. ) ;
#74 = LINE ( 'NONE', #176, #276 ) ;
#75 = DIRECTION ( 'NONE',  ( -0.7071067811865462405, 0.0000000000000000000, -0.7071067811865486830 ) ) ;
#76 = AXIS2_PLACEMENT_3D ( 'NONE', #283, #102, #105 ) ;
#77 = AXIS2_PLACEMENT_3D ( 'NONE', #17, #252, #323 ) ;
#78 =( LENGTH_UNIT ( ) NAMED_UNIT ( * ) SI_UNIT ( $, .METRE. ) );
#79 = CARTESIAN_POINT ( 'NONE',  ( -0.06250000000000002776, 0.0000000000000000000, 1.500000000000000222 ) ) ;
#80 = SURFACE_SIDE_STYLE ('',( #27 ) ) ;
#81 =( LENGTH_UNIT ( ) NAMED_UNIT ( * ) SI_UNIT ( $, .METRE. ) );
#82 = AXIS2_PLACEMENT_3D ( 'NONE', #288, #37, #138 ) ;
#83 = SURFACE_STYLE_USAGE ( .BOTH. , #281 ) ;
#84 =( CONVERSION_BASED_UNIT ( 'INCH', #240 ) LENGTH_UNIT ( ) NAMED_UNIT ( #65 ) );
#85 = CIRCLE ( 'NONE', #187, 0.04750000000000064587 ) ;
#86 = AXIS2_PLACEMENT_3D ( 'NONE', #241, #36, #261 ) ;
#87 = ADVANCED_FACE ( 'NONE', ( #221 ), #158, .T. ) ;
#88 = ORIENTED_EDGE ( 'NONE', *, *, #208, .F. ) ;
#89 = CYLINDRICAL_SURFACE ( 'NONE', #302, 0.03121874999999999997 ) ;
#90 = ORIENTED_EDGE ( 'NONE', *, *, #7, .F. ) ;
#91 = CARTESIAN_POINT ( 'NONE',  ( 0.06250000000000002776, 7.654042494670959086E-18, 1.485000000000000764 ) ) ;
#92 = ORIENTED_EDGE ( 'NONE', *, *, #131, .F. ) ;
#93 = EDGE_CURVE ( 'NONE', #246, #167, #280, .T. ) ;
#94 = DIRECTION ( 'NONE',  ( -1.000000000000000000, 0.0000000000000000000, 1.367291288120251888E-16 ) ) ;
#95 = CONICAL_SURFACE ( 'NONE', #287, 0.03121874999999999997, 0.1745329251994338915 ) ;
#96 = VERTEX_POINT ( 'NONE', #219 ) ;
#97 = DIRECTION ( 'NONE',  ( 1.000000000000000000, 0.0000000000000000000, 0.0000000000000000000 ) ) ;
#98 = VERTEX_POINT ( 'NONE', #67 ) ;
#99 = DIRECTION ( 'NONE',  ( -1.000000000000000000, 0.0000000000000000000, 1.367291288120251888E-16 ) ) ;
#100 = DIRECTION ( 'NONE',  ( 1.224646799147353700E-16, 0.0000000000000000000, 1.000000000000000000 ) ) ;
#101 = AXIS2_PLACEMENT_3D ( 'NONE', #239, #112, #215 ) ;
#102 = DIRECTION ( 'NONE',  ( -1.224646799147353700E-16, -0.0000000000000000000, -1.000000000000000000 ) ) ;
#103 = DIRECTION ( 'NONE',  ( 1.000000000000000000, 0.0000000000000000000, 0.0000000000000000000 ) ) ;
#104 = CARTESIAN_POINT ( 'NONE',  ( 0.0000000000000000000, 0.0000000000000000000, 1.500000000000000222 ) ) ;
#105 = DIRECTION ( 'NONE',  ( 1.000000000000000000, 0.0000000000000000000, 0.0000000000000000000 ) ) ;
#106 = EDGE_CURVE ( 'NONE', #96, #148, #294, .T. ) ;
#107 = AXIS2_PLACEMENT_3D ( 'NONE', #104, #205, #32 ) ;
#108 = DIRECTION ( 'NONE',  ( 0.0000000000000000000, 0.0000000000000000000, -1.000000000000000000 ) ) ;
#109 = PRODUCT ( 'Micro_BEM-062-03', 'Micro_BEM-062-03', '', ( #159 ) ) ;
#110 = CARTESIAN_POINT ( 'NONE',  ( 0.0000000000000000000, 0.0000000000000000000, 1.485000000000000764 ) ) ;
#111 = EDGE_CURVE ( 'NONE', #117, #66, #194, .T. ) ;
#112 = DIRECTION ( 'NONE',  ( -1.224646799147353700E-16, -0.0000000000000000000, -1.000000000000000000 ) ) ;
#113 = AXIS2_PLACEMENT_3D ( 'NONE', #279, #235, #181 ) ;
#114 = DIRECTION ( 'NONE',  ( 1.000000000000000000, 0.0000000000000000000, 0.0000000000000000000 ) ) ;
#115 = EDGE_CURVE ( 'NONE', #148, #96, #305, .T. ) ;
#116 = DIRECTION ( 'NONE',  ( -0.1736481776669311916, 2.126576849575783316E-17, 0.9848077530122080203 ) ) ;
#117 = VERTEX_POINT ( 'NONE', #91 ) ;
#118 = DIRECTION ( 'NONE',  ( -1.000000000000000000, 0.0000000000000000000, 0.0000000000000000000 ) ) ;
#119 = ORIENTED_EDGE ( 'NONE', *, *, #115, .T. ) ;
#120 = CARTESIAN_POINT ( 'NONE',  ( -0.03121874999999997916, 3.823194226088143687E-18, 0.1880000000000000282 ) ) ;
#121 = ORIENTED_EDGE ( 'NONE', *, *, #191, .F. ) ;
#122 = DIRECTION ( 'NONE',  ( 0.0000000000000000000, 1.000000000000000000, 0.0000000000000000000 ) ) ;
#123 = STYLED_ITEM ( 'NONE', ( #303 ), #34 ) ;
#124 = ORIENTED_EDGE ( 'NONE', *, *, #64, .F. ) ;
#125 = LINE ( 'NONE', #120, #60 ) ;
#126 = EDGE_LOOP ( 'NONE', ( #196, #20, #149, #318 ) ) ;
#127 = SURFACE_STYLE_FILL_AREA ( #203 ) ;
#128 = AXIS2_PLACEMENT_3D ( 'NONE', #228, #147, #150 ) ;
#129 = FACE_OUTER_BOUND ( 'NONE', #290, .T. ) ;
#130 =( NAMED_UNIT ( * ) SI_UNIT ( $, .STERADIAN. ) SOLID_ANGLE_UNIT ( ) );
#131 = EDGE_CURVE ( 'NONE', #246, #96, #293, .T. ) ;
#132 = ORIENTED_EDGE ( 'NONE', *, *, #191, .T. ) ;
#133 = FILL_AREA_STYLE ('',( #307 ) ) ;
#134 = CLOSED_SHELL ( 'NONE', ( #304, #165, #29, #152, #282, #40, #309, #315, #87, #271, #180 ) ) ;
#135 =( LENGTH_UNIT ( ) NAMED_UNIT ( * ) SI_UNIT ( $, .METRE. ) );
#136 = CYLINDRICAL_SURFACE ( 'NONE', #82, 0.03121874999999999997 ) ;
#137 = DIRECTION ( 'NONE',  ( 1.000000000000000000, 0.0000000000000000000, 0.0000000000000000000 ) ) ;
#138 = DIRECTION ( 'NONE',  ( -1.000000000000000000, 0.0000000000000000000, 1.224646799147353947E-16 ) ) ;
#139 = CIRCLE ( 'NONE', #101, 0.06250000000000002776 ) ;
#140 =( GEOMETRIC_REPRESENTATION_CONTEXT ( 3 ) GLOBAL_UNCERTAINTY_ASSIGNED_CONTEXT ( ( #1 ) ) GLOBAL_UNIT_ASSIGNED_CONTEXT ( ( #84, #278, #204 ) ) REPRESENTATION_CONTEXT ( 'NONE', 'WORKASPACE' ) );
#141 = DIMENSIONAL_EXPONENTS ( 1.000000000000000000, 0.0000000000000000000, 0.0000000000000000000, 0.0000000000000000000, 0.0000000000000000000, 0.0000000000000000000, 0.0000000000000000000 ) ;
#142 =( GEOMETRIC_REPRESENTATION_CONTEXT ( 3 ) GLOBAL_UNCERTAINTY_ASSIGNED_CONTEXT ( ( #166 ) ) GLOBAL_UNIT_ASSIGNED_CONTEXT ( ( #160, #157, #5 ) ) REPRESENTATION_CONTEXT ( 'NONE', 'WORKASPACE' ) );
#143 = EDGE_LOOP ( 'NONE', ( #257, #88, #227, #71 ) ) ;
#144 = CARTESIAN_POINT ( 'NONE',  ( -0.06250000000000002776, 0.0000000000000000000, 1.485000000000000764 ) ) ;
#145 = PRODUCT_RELATED_PRODUCT_CATEGORY ( 'part', '', ( #109 ) ) ;
#146 = EDGE_LOOP ( 'NONE', ( #92, #171, #272, #119 ) ) ;
#147 = DIRECTION ( 'NONE',  ( 1.224646799147353700E-16, 0.0000000000000000000, 1.000000000000000000 ) ) ;
#148 = VERTEX_POINT ( 'NONE', #153 ) ;
#149 = ORIENTED_EDGE ( 'NONE', *, *, #237, .F. ) ;
#150 = DIRECTION ( 'NONE',  ( 1.000000000000000000, 0.0000000000000000000, 0.0000000000000000000 ) ) ;
#151 = AXIS2_PLACEMENT_3D ( 'NONE', #209, #9, #59 ) ;
#152 = ADVANCED_FACE ( 'NONE', ( #296 ), #211, .T. ) ;
#153 = CARTESIAN_POINT ( 'NONE',  ( -0.03121874999999999650, 0.0000000000000000000, 0.03121875000000000691 ) ) ;
#154 = LENGTH_MEASURE_WITH_UNIT ( LENGTH_MEASURE( 0.02539999999999999897 ), #78 );
#155 = ORIENTED_EDGE ( 'NONE', *, *, #14, .F. ) ;
#156 = PRESENTATION_STYLE_ASSIGNMENT (( #53 ) ) ;
#157 =( NAMED_UNIT ( * ) PLANE_ANGLE_UNIT ( ) SI_UNIT ( $, .RADIAN. ) );
#158 = CONICAL_SURFACE ( 'NONE', #128, 0.03121874999999999997, 0.1745329251994338915 ) ;
#159 = PRODUCT_CONTEXT ( 'NONE', #285, 'mechanical' ) ;
#160 =( CONVERSION_BASED_UNIT ( 'INCH', #56 ) LENGTH_UNIT ( ) NAMED_UNIT ( #15 ) );
#161 = DIRECTION ( 'NONE',  ( 1.224646799147353207E-16, 1.000000000000000000, -0.0000000000000000000 ) ) ;
#162 = AXIS2_PLACEMENT_3D ( 'NONE', #57, #259, #311 ) ;
#163 = DIRECTION ( 'NONE',  ( 1.000000000000000000, 0.0000000000000000000, 0.0000000000000000000 ) ) ;
#164 = FACE_OUTER_BOUND ( 'NONE', #146, .T. ) ;
#165 = ADVANCED_FACE ( 'NONE', ( #69 ), #89, .T. ) ;
#166 = UNCERTAINTY_MEASURE_WITH_UNIT (LENGTH_MEASURE( 1.000000000000000082E-05 ), #160, 'distance_accuracy_value', 'NONE');
#167 = VERTEX_POINT ( 'NONE', #273 ) ;
#168 = EDGE_CURVE ( 'NONE', #44, #200, #253, .T. ) ;
#169 = SPHERICAL_SURFACE ( 'NONE', #70, 0.03121874999999999997 ) ;
#170 = CIRCLE ( 'NONE', #113, 0.03121874999999999997 ) ;
#171 = ORIENTED_EDGE ( 'NONE', *, *, #93, .T. ) ;
#172 = DIRECTION ( 'NONE',  ( -1.000000000000000000, 0.0000000000000000000, 1.224646799147353947E-16 ) ) ;
#173 = ORIENTED_EDGE ( 'NONE', *, *, #106, .T. ) ;
#174 = CARTESIAN_POINT ( 'NONE',  ( 0.06250000000000006939, 7.654042494670963708E-18, 0.3654047844199156403 ) ) ;
#175 = VERTEX_POINT ( 'NONE', #21 ) ;
#176 = CARTESIAN_POINT ( 'NONE',  ( 0.03121875000000002426, 0.0000000000000000000, 0.1880000000000000282 ) ) ;
#177 = DIRECTION ( 'NONE',  ( 1.000000000000000000, 0.0000000000000000000, 0.0000000000000000000 ) ) ;
#178 = SHAPE_DEFINITION_REPRESENTATION ( #39, #229 ) ;
#179 = FILL_AREA_STYLE_COLOUR ( '', #265 ) ;
#180 = ADVANCED_FACE ( 'NONE', ( #226 ), #169, .T. ) ;
#181 = DIRECTION ( 'NONE',  ( 0.0000000000000000000, 0.0000000000000000000, -1.000000000000000000 ) ) ;
#182 = CIRCLE ( 'NONE', #38, 0.03121874999999999997 ) ;
#183 = COLOUR_RGB ( '',0.7921568627450980005, 0.8196078431372548767, 0.9333333333333333481 ) ;
#184 = CARTESIAN_POINT ( 'NONE',  ( 0.0000000000000000000, 0.0000000000000000000, 0.0000000000000000000 ) ) ;
#185 = CARTESIAN_POINT ( 'NONE',  ( -0.06249999999999997918, 0.0000000000000000000, 0.3654047844199156403 ) ) ;
#186 = CARTESIAN_POINT ( 'NONE',  ( 0.03121875000000002426, 0.0000000000000000000, 0.1880000000000000282 ) ) ;
#187 = AXIS2_PLACEMENT_3D ( 'NONE', #277, #319, #97 ) ;
#188 = SPHERICAL_SURFACE ( 'NONE', #238, 0.03121874999999999997 ) ;
#189 = DIRECTION ( 'NONE',  ( -1.224646799147353700E-16, -0.0000000000000000000, -1.000000000000000000 ) ) ;
#190 = CIRCLE ( 'NONE', #51, 0.06250000000000002776 ) ;
#191 = EDGE_CURVE ( 'NONE', #167, #246, #11, .T. ) ;
#192 = ORIENTED_EDGE ( 'NONE', *, *, #237, .T. ) ;
#193 = CARTESIAN_POINT ( 'NONE',  ( -0.04750000000000064587, 0.0000000000000000000, 1.500000000000000222 ) ) ;
#194 = LINE ( 'NONE', #314, #43 ) ;
#195 = MECHANICAL_DESIGN_GEOMETRIC_PRESENTATION_REPRESENTATION (  '', ( #123 ), #142 ) ;
#196 = ORIENTED_EDGE ( 'NONE', *, *, #266, .T. ) ;
#197 = CARTESIAN_POINT ( 'NONE',  ( 0.03121874999999999997, 3.823194226088143687E-18, -3.823194226088145228E-18 ) ) ;
#198 = ORIENTED_EDGE ( 'NONE', *, *, #7, .T. ) ;
#199 = CARTESIAN_POINT ( 'NONE',  ( 0.04750000000000064587, 5.817072295950006528E-18, 1.500000000000000222 ) ) ;
#200 = VERTEX_POINT ( 'NONE', #144 ) ;
#201 = DIRECTION ( 'NONE',  ( -0.0000000000000000000, -0.0000000000000000000, -1.000000000000000000 ) ) ;
#202 = VECTOR ( 'NONE', #298, 39.37007874015748854 ) ;
#203 = FILL_AREA_STYLE ('',( #179 ) ) ;
#204 =( NAMED_UNIT ( * ) SI_UNIT ( $, .STERADIAN. ) SOLID_ANGLE_UNIT ( ) );
#205 = DIRECTION ( 'NONE',  ( -0.0000000000000000000, -0.0000000000000000000, -1.000000000000000000 ) ) ;
#206 = LINE ( 'NONE', #79, #242 ) ;
#207 = CIRCLE ( 'NONE', #55, 0.04750000000000064587 ) ;
#208 = EDGE_CURVE ( 'NONE', #44, #175, #207, .T. ) ;
#209 = CARTESIAN_POINT ( 'NONE',  ( 0.0000000000000000000, 0.0000000000000000000, 1.500000000000000222 ) ) ;
#210 = PLANE ( 'NONE',  #86 ) ;
#211 = CONICAL_SURFACE ( 'NONE', #77, 0.04750000000000064587, 0.7853981633974466137 ) ;
#212 = AXIS2_PLACEMENT_3D ( 'NONE', #184, #30, #103 ) ;
#213 = CARTESIAN_POINT ( 'NONE',  ( 3.823194226088145228E-18, 0.0000000000000000000, 0.03121874999999999997 ) ) ;
#214 = EDGE_CURVE ( 'NONE', #175, #117, #19, .T. ) ;
#215 = DIRECTION ( 'NONE',  ( 1.000000000000000000, 0.0000000000000000000, 0.0000000000000000000 ) ) ;
#216 = EDGE_CURVE ( 'NONE', #246, #66, #74, .T. ) ;
#217 = CONICAL_SURFACE ( 'NONE', #162, 0.04750000000000064587, 0.7853981633974466137 ) ;
#218 = AXIS2_PLACEMENT_3D ( 'NONE', #325, #247, #291 ) ;
#219 = CARTESIAN_POINT ( 'NONE',  ( 0.03121875000000000691, 3.823194226088143687E-18, 0.03121874999999999650 ) ) ;
#220 = ORIENTED_EDGE ( 'NONE', *, *, #111, .F. ) ;
#221 = FACE_OUTER_BOUND ( 'NONE', #322, .T. ) ;
#222 = EDGE_LOOP ( 'NONE', ( #121, #295, #192, #46 ) ) ;
#223 = CARTESIAN_POINT ( 'NONE',  ( 3.823194226088145228E-18, 0.0000000000000000000, 0.03121874999999999997 ) ) ;
#224 = AXIS2_PLACEMENT_3D ( 'NONE', #110, #108, #137 ) ;
#225 = ORIENTED_EDGE ( 'NONE', *, *, #214, .T. ) ;
#226 = FACE_OUTER_BOUND ( 'NONE', #269, .T. ) ;
#227 = ORIENTED_EDGE ( 'NONE', *, *, #168, .T. ) ;
#228 = CARTESIAN_POINT ( 'NONE',  ( 2.302335982397025094E-17, 0.0000000000000000000, 0.1880000000000000282 ) ) ;
#229 = ADVANCED_BREP_SHAPE_REPRESENTATION ( 'Micro_BEM-062-03', ( #34, #212 ), #140 ) ;
#230 = DIRECTION ( 'NONE',  ( -0.0000000000000000000, -0.0000000000000000000, -1.000000000000000000 ) ) ;
#231 = AXIS2_PLACEMENT_3D ( 'NONE', #50, #317, #94 ) ;
#232 = ORIENTED_EDGE ( 'NONE', *, *, #262, .F. ) ;
#233 = STYLED_ITEM ( 'NONE', ( #156 ), #229 ) ;
#234 = CYLINDRICAL_SURFACE ( 'NONE', #107, 0.06250000000000002776 ) ;
#235 = DIRECTION ( 'NONE',  ( 0.0000000000000000000, -1.000000000000000000, 0.0000000000000000000 ) ) ;
#236 = APPLICATION_PROTOCOL_DEFINITION ( 'draft international standard', 'automotive_design', 1998, #31 ) ;
#237 = EDGE_CURVE ( 'NONE', #16, #66, #139, .T. ) ;
#238 = AXIS2_PLACEMENT_3D ( 'NONE', #263, #308, #114 ) ;
#239 = CARTESIAN_POINT ( 'NONE',  ( 4.474917996329785777E-17, 0.0000000000000000000, 0.3654047844199156403 ) ) ;
#240 = LENGTH_MEASURE_WITH_UNIT ( LENGTH_MEASURE( 0.02539999999999999897 ), #135 );
#241 = CARTESIAN_POINT ( 'NONE',  ( 0.0000000000000000000, 0.0000000000000000000, 1.500000000000000222 ) ) ;
#242 = VECTOR ( 'NONE', #230, 39.37007874015748143 ) ;
#243 = MECHANICAL_DESIGN_GEOMETRIC_PRESENTATION_REPRESENTATION (  '', ( #233 ), #13 ) ;
#244 = FACE_OUTER_BOUND ( 'NONE', #255, .T. ) ;
#245 = VECTOR ( 'NONE', #75, 39.37007874015748854 ) ;
#246 = VERTEX_POINT ( 'NONE', #186 ) ;
#247 = DIRECTION ( 'NONE',  ( -1.224646799147353700E-16, -0.0000000000000000000, -1.000000000000000000 ) ) ;
#248 = ORIENTED_EDGE ( 'NONE', *, *, #14, .T. ) ;
#249 = DIRECTION ( 'NONE',  ( 1.000000000000000000, 0.0000000000000000000, 0.0000000000000000000 ) ) ;
#250 = ORIENTED_EDGE ( 'NONE', *, *, #58, .F. ) ;
#251 = CARTESIAN_POINT ( 'NONE',  ( 2.302335982397025094E-17, 0.0000000000000000000, 0.1880000000000000282 ) ) ;
#252 = DIRECTION ( 'NONE',  ( 0.0000000000000000000, 0.0000000000000000000, -1.000000000000000000 ) ) ;
#253 = LINE ( 'NONE', #193, #245 ) ;
#254 =( CONVERSION_BASED_UNIT ( 'INCH', #154 ) LENGTH_UNIT ( ) NAMED_UNIT ( #141 ) );
#255 = EDGE_LOOP ( 'NONE', ( #23, #297 ) ) ;
#256 = AXIS2_PLACEMENT_3D ( 'NONE', #52, #268, #99 ) ;
#257 = ORIENTED_EDGE ( 'NONE', *, *, #214, .F. ) ;
#258 = EDGE_CURVE ( 'NONE', #167, #148, #8, .T. ) ;
#259 = DIRECTION ( 'NONE',  ( 0.0000000000000000000, 0.0000000000000000000, -1.000000000000000000 ) ) ;
#260 = PRODUCT_DEFINITION_FORMATION_WITH_SPECIFIED_SOURCE ( 'ANY', '', #109, .NOT_KNOWN. ) ;
#261 = DIRECTION ( 'NONE',  ( 1.000000000000000000, 0.0000000000000000000, -0.0000000000000000000 ) ) ;
#262 = EDGE_CURVE ( 'NONE', #98, #148, #182, .T. ) ;
#263 = CARTESIAN_POINT ( 'NONE',  ( 3.823194226088145228E-18, 0.0000000000000000000, 0.03121874999999999997 ) ) ;
#264 = FACE_OUTER_BOUND ( 'NONE', #299, .T. ) ;
#265 = COLOUR_RGB ( '',0.7921568627450980005, 0.8196078431372548767, 0.9333333333333333481 ) ;
#266 = EDGE_CURVE ( 'NONE', #200, #117, #63, .T. ) ;
#267 = ORIENTED_EDGE ( 'NONE', *, *, #216, .T. ) ;
#268 = DIRECTION ( 'NONE',  ( 1.224646799147353700E-16, 0.0000000000000000000, 1.000000000000000000 ) ) ;
#269 = EDGE_LOOP ( 'NONE', ( #232, #248, #41 ) ) ;
#270 = CARTESIAN_POINT ( 'NONE',  ( 0.0000000000000000000, 0.0000000000000000000, 1.500000000000000222 ) ) ;
#271 = ADVANCED_FACE ( 'NONE', ( #164 ), #136, .T. ) ;
#272 = ORIENTED_EDGE ( 'NONE', *, *, #258, .T. ) ;
#273 = CARTESIAN_POINT ( 'NONE',  ( -0.03121874999999997916, 5.738618360379552157E-18, 0.1880000000000000282 ) ) ;
#274 = EDGE_LOOP ( 'NONE', ( #132, #49, #173, #324 ) ) ;
#275 = DIRECTION ( 'NONE',  ( 0.1736481776669313859, 0.0000000000000000000, 0.9848077530122077983 ) ) ;
#276 = VECTOR ( 'NONE', #275, 39.37007874015748143 ) ;
#277 = CARTESIAN_POINT ( 'NONE',  ( 0.0000000000000000000, 0.0000000000000000000, 1.500000000000000222 ) ) ;
#278 =( NAMED_UNIT ( * ) PLANE_ANGLE_UNIT ( ) SI_UNIT ( $, .RADIAN. ) );
#279 = CARTESIAN_POINT ( 'NONE',  ( 3.823194226088145228E-18, 0.0000000000000000000, 0.03121874999999999997 ) ) ;
#280 = CIRCLE ( 'NONE', #218, 0.03121874999999999997 ) ;
#281 = SURFACE_SIDE_STYLE ('',( #127 ) ) ;
#282 = ADVANCED_FACE ( 'NONE', ( #12 ), #286, .T. ) ;
#283 = CARTESIAN_POINT ( 'NONE',  ( 4.474917996329785777E-17, 0.0000000000000000000, 0.3654047844199156403 ) ) ;
#284 =( NAMED_UNIT ( * ) PLANE_ANGLE_UNIT ( ) SI_UNIT ( $, .RADIAN. ) );
#285 = APPLICATION_CONTEXT ( 'automotive_design' ) ;
#286 = CYLINDRICAL_SURFACE ( 'NONE', #151, 0.06250000000000002776 ) ;
#287 = AXIS2_PLACEMENT_3D ( 'NONE', #54, #100, #28 ) ;
#288 = CARTESIAN_POINT ( 'NONE',  ( 0.0000000000000000000, 0.0000000000000000000, 0.0000000000000000000 ) ) ;
#289 = EDGE_CURVE ( 'NONE', #117, #200, #190, .T. ) ;
#290 = EDGE_LOOP ( 'NONE', ( #220, #18, #313, #90 ) ) ;
#291 = DIRECTION ( 'NONE',  ( -1.000000000000000000, 0.0000000000000000000, 0.0000000000000000000 ) ) ;
#292 = ORIENTED_EDGE ( 'NONE', *, *, #93, .F. ) ;
#293 = LINE ( 'NONE', #197, #6 ) ;
#294 = CIRCLE ( 'NONE', #256, 0.03121874999999999997 ) ;
#295 = ORIENTED_EDGE ( 'NONE', *, *, #64, .T. ) ;
#296 = FACE_OUTER_BOUND ( 'NONE', #26, .T. ) ;
#297 = ORIENTED_EDGE ( 'NONE', *, *, #58, .T. ) ;
#298 = DIRECTION ( 'NONE',  ( 0.7071067811865462405, 8.659560562354916834E-17, -0.7071067811865486830 ) ) ;
#299 = EDGE_LOOP ( 'NONE', ( #155, #316, #68 ) ) ;
#300 = DIRECTION ( 'NONE',  ( -1.224646799147353700E-16, -0.0000000000000000000, -1.000000000000000000 ) ) ;
#301 = CIRCLE ( 'NONE', #76, 0.06250000000000002776 ) ;
#302 = AXIS2_PLACEMENT_3D ( 'NONE', #72, #300, #172 ) ;
#303 = PRESENTATION_STYLE_ASSIGNMENT (( #83 ) ) ;
#304 = ADVANCED_FACE ( 'NONE', ( #264 ), #188, .T. ) ;
#305 = CIRCLE ( 'NONE', #231, 0.03121874999999999997 ) ;
#306 = FACE_OUTER_BOUND ( 'NONE', #222, .T. ) ;
#307 = FILL_AREA_STYLE_COLOUR ( '', #183 ) ;
#308 = DIRECTION ( 'NONE',  ( 0.0000000000000000000, 1.000000000000000000, 0.0000000000000000000 ) ) ;
#309 = ADVANCED_FACE ( 'NONE', ( #244 ), #210, .T. ) ;
#310 = PRODUCT_DEFINITION_CONTEXT ( 'detailed design', #31, 'design' ) ;
#311 = DIRECTION ( 'NONE',  ( -1.000000000000000000, 0.0000000000000000000, 0.0000000000000000000 ) ) ;
#312 = DIRECTION ( 'NONE',  ( 0.0000000000000000000, 0.0000000000000000000, -1.000000000000000000 ) ) ;
#313 = ORIENTED_EDGE ( 'NONE', *, *, #24, .T. ) ;
#314 = CARTESIAN_POINT ( 'NONE',  ( 0.06250000000000002776, 7.654042494670959086E-18, 1.500000000000000222 ) ) ;
#315 = ADVANCED_FACE ( 'NONE', ( #10 ), #217, .T. ) ;
#316 = ORIENTED_EDGE ( 'NONE', *, *, #262, .T. ) ;
#317 = DIRECTION ( 'NONE',  ( 1.224646799147353700E-16, 0.0000000000000000000, 1.000000000000000000 ) ) ;
#318 = ORIENTED_EDGE ( 'NONE', *, *, #24, .F. ) ;
#319 = DIRECTION ( 'NONE',  ( 0.0000000000000000000, 0.0000000000000000000, 1.000000000000000000 ) ) ;
#320 = VECTOR ( 'NONE', #189, 39.37007874015748143 ) ;
#321 = PRESENTATION_LAYER_ASSIGNMENT (  '', '', ( #233 ) ) ;
#322 = EDGE_LOOP ( 'NONE', ( #124, #292, #267, #198 ) ) ;
#323 = DIRECTION ( 'NONE',  ( -1.000000000000000000, 0.0000000000000000000, 0.0000000000000000000 ) ) ;
#324 = ORIENTED_EDGE ( 'NONE', *, *, #258, .F. ) ;
#325 = CARTESIAN_POINT ( 'NONE',  ( 2.302335982397025094E-17, 0.0000000000000000000, 0.1880000000000000282 ) ) ;
ENDSEC;
END-ISO-10303-21;
