ISO-10303-21;
HEADER;
FILE_DESCRIPTION (( 'STEP AP214' ),
    '1' );
FILE_NAME ('Micro_SBMM-020-316X.STEP',
    '2021-09-02T17:05:08',
    ( '' ),
    ( '' ),
    'SwSTEP 2.0',
    'SolidWorks 2020',
    '' );
FILE_SCHEMA (( 'AUTOMOTIVE_DESIGN' ));
ENDSEC;

DATA;
#1 = CIRCLE ( 'NONE', #233, 0.1031099999999991745 ) ;
#2 = DIRECTION ( 'NONE',  ( 1.000000000000000000, 0.0000000000000000000, 0.0000000000000000000 ) ) ;
#3 = DIRECTION ( 'NONE',  ( -0.0000000000000000000, -0.0000000000000000000, -1.000000000000000000 ) ) ;
#4 = DIRECTION ( 'NONE',  ( -1.000000000000000000, 0.0000000000000000000, 0.0000000000000000000 ) ) ;
#5 = DIRECTION ( 'NONE',  ( 0.0000000000000000000, 0.0000000000000000000, 1.000000000000000000 ) ) ;
#6 = EDGE_CURVE ( 'NONE', #208, #219, #309, .T. ) ;
#7 = CARTESIAN_POINT ( 'NONE',  ( 0.0000000000000000000, 0.0000000000000000000, 2.952755999999999936 ) ) ;
#8 = CARTESIAN_POINT ( 'NONE',  ( 0.0000000000000000000, 0.0000000000000000000, 0.06928860975630385388 ) ) ;
#9 = DIRECTION ( 'NONE',  ( -0.0000000000000000000, -0.0000000000000000000, -1.000000000000000000 ) ) ;
#10 = AXIS2_PLACEMENT_3D ( 'NONE', #34, #240, #139 ) ;
#11 = DIRECTION ( 'NONE',  ( 0.0000000000000000000, 0.0000000000000000000, 1.000000000000000000 ) ) ;
#12 = DIRECTION ( 'NONE',  ( -1.000000000000000000, 0.0000000000000000000, 0.0000000000000000000 ) ) ;
#13 = EDGE_CURVE ( 'NONE', #208, #226, #145, .T. ) ;
#14 = CIRCLE ( 'NONE', #287, 0.02559049999999998132 ) ;
#15 = AXIS2_PLACEMENT_3D ( 'NONE', #144, #12, #151 ) ;
#16 = ORIENTED_EDGE ( 'NONE', *, *, #74, .F. ) ;
#17 = EDGE_LOOP ( 'NONE', ( #235, #345, #283, #99 ) ) ;
#18 = ADVANCED_FACE ( 'NONE', ( #212 ), #165, .T. ) ;
#19 = ORIENTED_EDGE ( 'NONE', *, *, #27, .T. ) ;
#20 = MANIFOLD_SOLID_BREP ( 'Cut-Revolve3', #193 ) ;
#21 = PRODUCT_DEFINITION_FORMATION_WITH_SPECIFIED_SOURCE ( 'ANY', '', #157, .NOT_KNOWN. ) ;
#22 = EDGE_LOOP ( 'NONE', ( #101, #179, #307, #125 ) ) ;
#23 = DIRECTION ( 'NONE',  ( 1.000000000000000000, 0.0000000000000000000, 0.0000000000000000000 ) ) ;
#24 = PRODUCT_DEFINITION_SHAPE ( 'NONE', 'NONE',  #237 ) ;
#25 = VERTEX_POINT ( 'NONE', #192 ) ;
#26 = DIRECTION ( 'NONE',  ( -1.224646799147352961E-16, 1.000000000000000000, 0.0000000000000000000 ) ) ;
#27 = EDGE_CURVE ( 'NONE', #232, #229, #206, .T. ) ;
#28 = LENGTH_MEASURE_WITH_UNIT ( LENGTH_MEASURE( 0.02539999999999999897 ), #185 );
#29 = FACE_OUTER_BOUND ( 'NONE', #311, .T. ) ;
#30 = COLOUR_RGB ( '',0.7921568627450980005, 0.8196078431372548767, 0.9333333333333333481 ) ;
#31 = DIRECTION ( 'NONE',  ( -0.0000000000000000000, -0.0000000000000000000, -1.000000000000000000 ) ) ;
#32 = ADVANCED_FACE ( 'NONE', ( #29 ), #91, .T. ) ;
#33 = CARTESIAN_POINT ( 'NONE',  ( 0.0000000000000000000, 0.0000000000000000000, 0.06928860975630385388 ) ) ;
#34 = CARTESIAN_POINT ( 'NONE',  ( 0.0000000000000000000, 0.0000000000000000000, 1.653542999999999985 ) ) ;
#35 = DIRECTION ( 'NONE',  ( -0.0000000000000000000, -0.0000000000000000000, -1.000000000000000000 ) ) ;
#36 = CARTESIAN_POINT ( 'NONE',  ( 0.0000000000000000000, 0.0000000000000000000, 0.0000000000000000000 ) ) ;
#37 = CYLINDRICAL_SURFACE ( 'NONE', #42, 0.1181100000000000344 ) ;
#38 = PRESENTATION_LAYER_ASSIGNMENT (  '', '', ( #220 ) ) ;
#39 = DIRECTION ( 'NONE',  ( -0.7071067811865486830, 0.0000000000000000000, -0.7071067811865462405 ) ) ;
#40 = FACE_OUTER_BOUND ( 'NONE', #17, .T. ) ;
#41 = ORIENTED_EDGE ( 'NONE', *, *, #102, .T. ) ;
#42 = AXIS2_PLACEMENT_3D ( 'NONE', #297, #300, #120 ) ;
#43 = ORIENTED_EDGE ( 'NONE', *, *, #252, .T. ) ;
#44 = ORIENTED_EDGE ( 'NONE', *, *, #50, .F. ) ;
#45 = ORIENTED_EDGE ( 'NONE', *, *, #61, .T. ) ;
#46 = PRESENTATION_STYLE_ASSIGNMENT (( #162 ) ) ;
#47 = AXIS2_PLACEMENT_3D ( 'NONE', #264, #292, #138 ) ;
#48 = MECHANICAL_DESIGN_GEOMETRIC_PRESENTATION_REPRESENTATION (  '', ( #221 ), #234 ) ;
#49 = ORIENTED_EDGE ( 'NONE', *, *, #332, .T. ) ;
#50 = EDGE_CURVE ( 'NONE', #209, #69, #118, .T. ) ;
#51 = FILL_AREA_STYLE ('',( #202 ) ) ;
#52 = EDGE_CURVE ( 'NONE', #219, #204, #214, .T. ) ;
#53 = DIRECTION ( 'NONE',  ( -1.000000000000000000, 0.0000000000000000000, 0.0000000000000000000 ) ) ;
#54 = CIRCLE ( 'NONE', #210, 0.1181100000000000344 ) ;
#55 = CARTESIAN_POINT ( 'NONE',  ( 0.1181100000000000344, 1.446430334472939084E-17, 2.952755999999999936 ) ) ;
#56 = ADVANCED_BREP_SHAPE_REPRESENTATION ( 'Micro_SBMM-020-316X', ( #20, #106 ), #190 ) ;
#57 = DIRECTION ( 'NONE',  ( 1.000000000000000000, 0.0000000000000000000, 0.0000000000000000000 ) ) ;
#58 = DIRECTION ( 'NONE',  ( -0.0000000000000000000, -0.0000000000000000000, -1.000000000000000000 ) ) ;
#59 = CARTESIAN_POINT ( 'NONE',  ( 0.1181100000000000344, 1.446430334472939084E-17, 2.937755999999999368 ) ) ;
#60 = PRESENTATION_LAYER_ASSIGNMENT (  '', '', ( #221 ) ) ;
#61 = EDGE_CURVE ( 'NONE', #229, #186, #243, .T. ) ;
#62 = CARTESIAN_POINT ( 'NONE',  ( -0.02559049999999998132, 0.0000000000000000000, 0.06928860975630385388 ) ) ;
#63 = DIRECTION ( 'NONE',  ( 1.000000000000000000, 0.0000000000000000000, 0.0000000000000000000 ) ) ;
#64 = CARTESIAN_POINT ( 'NONE',  ( 0.02559049999999995356, 3.133932391358028623E-18, 0.0000000000000000000 ) ) ;
#65 = EDGE_CURVE ( 'NONE', #186, #209, #14, .T. ) ;
#66 = CARTESIAN_POINT ( 'NONE',  ( -0.02559049999999992234, 8.799117868043706652E-18, 0.6299209999999999532 ) ) ;
#67 = ORIENTED_EDGE ( 'NONE', *, *, #74, .T. ) ;
#68 = DIRECTION ( 'NONE',  ( 0.0000000000000000000, 0.0000000000000000000, -1.000000000000000000 ) ) ;
#69 = VERTEX_POINT ( 'NONE', #108 ) ;
#70 = MECHANICAL_DESIGN_GEOMETRIC_PRESENTATION_REPRESENTATION (  '', ( #220 ), #268 ) ;
#71 = ORIENTED_EDGE ( 'NONE', *, *, #296, .F. ) ;
#72 = ORIENTED_EDGE ( 'NONE', *, *, #52, .T. ) ;
#73 = EDGE_LOOP ( 'NONE', ( #161, #262, #261, #133 ) ) ;
#74 = EDGE_CURVE ( 'NONE', #204, #187, #166, .T. ) ;
#75 = EDGE_CURVE ( 'NONE', #219, #126, #54, .T. ) ;
#76 =( NAMED_UNIT ( * ) PLANE_ANGLE_UNIT ( ) SI_UNIT ( $, .RADIAN. ) );
#77 = CIRCLE ( 'NONE', #160, 0.02559049999999998132 ) ;
#78 = ORIENTED_EDGE ( 'NONE', *, *, #114, .F. ) ;
#79 = PRESENTATION_STYLE_ASSIGNMENT (( #216 ) ) ;
#80 = CARTESIAN_POINT ( 'NONE',  ( 0.0000000000000000000, 0.0000000000000000000, 2.952755999999999936 ) ) ;
#81 = ADVANCED_FACE ( 'NONE', ( #248 ), #140, .T. ) ;
#82 =( CONVERSION_BASED_UNIT ( 'INCH', #107 ) LENGTH_UNIT ( ) NAMED_UNIT ( #97 ) );
#83 = VECTOR ( 'NONE', #194, 39.37007874015748854 ) ;
#84 = CARTESIAN_POINT ( 'NONE',  ( 0.0000000000000000000, 0.0000000000000000000, 0.0000000000000000000 ) ) ;
#85 = CONICAL_SURFACE ( 'NONE', #148, 0.1299209999999997867, 0.09013951093658498226 ) ;
#86 =( NAMED_UNIT ( * ) SI_UNIT ( $, .STERADIAN. ) SOLID_ANGLE_UNIT ( ) );
#87 = ADVANCED_FACE ( 'NONE', ( #167 ), #88, .T. ) ;
#88 = SPHERICAL_SURFACE ( 'NONE', #298, 0.03936999999999999528 ) ;
#89 = EDGE_CURVE ( 'NONE', #226, #208, #1, .T. ) ;
#90 = DIRECTION ( 'NONE',  ( -1.000000000000000000, 0.0000000000000000000, 0.0000000000000000000 ) ) ;
#91 = CONICAL_SURFACE ( 'NONE', #314, 0.1299209999999997867, 0.09013951093658498226 ) ;
#92 = VERTEX_POINT ( 'NONE', #197 ) ;
#93 = DIRECTION ( 'NONE',  ( -0.0000000000000000000, -0.0000000000000000000, -1.000000000000000000 ) ) ;
#94 = LINE ( 'NONE', #175, #333 ) ;
#95 = CARTESIAN_POINT ( 'NONE',  ( -0.1031099999999991745, 0.0000000000000000000, 2.952755999999999936 ) ) ;
#96 = ORIENTED_EDGE ( 'NONE', *, *, #61, .F. ) ;
#97 = DIMENSIONAL_EXPONENTS ( 1.000000000000000000, 0.0000000000000000000, 0.0000000000000000000, 0.0000000000000000000, 0.0000000000000000000, 0.0000000000000000000, 0.0000000000000000000 ) ;
#98 = DIRECTION ( 'NONE',  ( 0.0000000000000000000, 0.0000000000000000000, -1.000000000000000000 ) ) ;
#99 = ORIENTED_EDGE ( 'NONE', *, *, #184, .T. ) ;
#100 = EDGE_LOOP ( 'NONE', ( #183, #312, #153, #71 ) ) ;
#101 = ORIENTED_EDGE ( 'NONE', *, *, #319, .F. ) ;
#102 = EDGE_CURVE ( 'NONE', #229, #187, #250, .T. ) ;
#103 = ORIENTED_EDGE ( 'NONE', *, *, #335, .F. ) ;
#104 = ORIENTED_EDGE ( 'NONE', *, *, #6, .F. ) ;
#105 =( NAMED_UNIT ( * ) PLANE_ANGLE_UNIT ( ) SI_UNIT ( $, .RADIAN. ) );
#106 = AXIS2_PLACEMENT_3D ( 'NONE', #110, #217, #57 ) ;
#107 = LENGTH_MEASURE_WITH_UNIT ( LENGTH_MEASURE( 0.02539999999999999897 ), #191 );
#108 = CARTESIAN_POINT ( 'NONE',  ( 0.02559049999999998132, 3.133932391358031704E-18, 0.06928860975630385388 ) ) ;
#109 = DIRECTION ( 'NONE',  ( -0.0000000000000000000, -0.0000000000000000000, -1.000000000000000000 ) ) ;
#110 = CARTESIAN_POINT ( 'NONE',  ( 0.0000000000000000000, 0.0000000000000000000, 0.0000000000000000000 ) ) ;
#111 = AXIS2_PLACEMENT_3D ( 'NONE', #84, #31, #53 ) ;
#112 = VECTOR ( 'NONE', #93, 39.37007874015748143 ) ;
#113 = FILL_AREA_STYLE_COLOUR ( '', #189 ) ;
#114 = EDGE_CURVE ( 'NONE', #126, #187, #328, .T. ) ;
#115 = DIRECTION ( 'NONE',  ( 0.0000000000000000000, 0.0000000000000000000, -1.000000000000000000 ) ) ;
#116 = DIRECTION ( 'NONE',  ( 1.000000000000000000, 0.0000000000000000000, 0.0000000000000000000 ) ) ;
#117 = DIRECTION ( 'NONE',  ( -0.0000000000000000000, -0.0000000000000000000, -1.000000000000000000 ) ) ;
#118 = CIRCLE ( 'NONE', #47, 0.02559049999999998132 ) ;
#119 = UNCERTAINTY_MEASURE_WITH_UNIT (LENGTH_MEASURE( 1.000000000000000082E-05 ), #306, 'distance_accuracy_value', 'NONE');
#120 = DIRECTION ( 'NONE',  ( -1.000000000000000000, 0.0000000000000000000, 0.0000000000000000000 ) ) ;
#121 = DIRECTION ( 'NONE',  ( 0.0000000000000000000, 0.0000000000000000000, 1.000000000000000000 ) ) ;
#122 = DIRECTION ( 'NONE',  ( 0.09001749462147055902, 0.0000000000000000000, 0.9959401842791932857 ) ) ;
#123 = AXIS2_PLACEMENT_3D ( 'NONE', #242, #3, #236 ) ;
#124 = CARTESIAN_POINT ( 'NONE',  ( 0.0000000000000000000, 0.0000000000000000000, 0.03937000000000000915 ) ) ;
#125 = ORIENTED_EDGE ( 'NONE', *, *, #296, .T. ) ;
#126 = VERTEX_POINT ( 'NONE', #224 ) ;
#127 = EDGE_LOOP ( 'NONE', ( #258, #19, #45, #336, #342 ) ) ;
#128 = AXIS2_PLACEMENT_3D ( 'NONE', #267, #290, #188 ) ;
#129 = ADVANCED_FACE ( 'NONE', ( #251 ), #249, .T. ) ;
#130 = AXIS2_PLACEMENT_3D ( 'NONE', #36, #117, #90 ) ;
#131 = ORIENTED_EDGE ( 'NONE', *, *, #149, .T. ) ;
#132 = DIRECTION ( 'NONE',  ( 1.000000000000000000, 1.224646799147353207E-16, -0.0000000000000000000 ) ) ;
#133 = ORIENTED_EDGE ( 'NONE', *, *, #254, .F. ) ;
#134 = DIRECTION ( 'NONE',  ( 1.000000000000000000, 0.0000000000000000000, -0.0000000000000000000 ) ) ;
#135 = SURFACE_SIDE_STYLE ('',( #170 ) ) ;
#136 = DIMENSIONAL_EXPONENTS ( 1.000000000000000000, 0.0000000000000000000, 0.0000000000000000000, 0.0000000000000000000, 0.0000000000000000000, 0.0000000000000000000, 0.0000000000000000000 ) ;
#137 = AXIS2_PLACEMENT_3D ( 'NONE', #265, #68, #313 ) ;
#138 = DIRECTION ( 'NONE',  ( -1.000000000000000000, 0.0000000000000000000, 0.0000000000000000000 ) ) ;
#139 = DIRECTION ( 'NONE',  ( 1.000000000000000000, 0.0000000000000000000, 0.0000000000000000000 ) ) ;
#140 = CONICAL_SURFACE ( 'NONE', #256, 0.1031099999999991745, 0.7853981633974500554 ) ;
#141 = CIRCLE ( 'NONE', #123, 0.02559049999999992234 ) ;
#142 = DIRECTION ( 'NONE',  ( 0.0000000000000000000, 0.0000000000000000000, -1.000000000000000000 ) ) ;
#143 = APPLICATION_PROTOCOL_DEFINITION ( 'draft international standard', 'automotive_design', 1998, #308 ) ;
#144 = CARTESIAN_POINT ( 'NONE',  ( 0.0000000000000000000, 0.0000000000000000000, 0.03937000000000000915 ) ) ;
#145 = CIRCLE ( 'NONE', #215, 0.1031099999999991745 ) ;
#146 = CARTESIAN_POINT ( 'NONE',  ( 0.1031099999999991745, 1.354581824536882559E-17, 2.952755999999999936 ) ) ;
#147 = CARTESIAN_POINT ( 'NONE',  ( 0.0000000000000000000, 0.0000000000000000000, 0.03937000000000000915 ) ) ;
#148 = AXIS2_PLACEMENT_3D ( 'NONE', #222, #301, #63 ) ;
#149 = EDGE_CURVE ( 'NONE', #232, #69, #334, .T. ) ;
#150 = CARTESIAN_POINT ( 'NONE',  ( 0.0000000000000000000, 0.0000000000000000000, 0.06928860975630385388 ) ) ;
#151 = DIRECTION ( 'NONE',  ( 0.0000000000000000000, 0.0000000000000000000, 1.000000000000000000 ) ) ;
#152 = SPHERICAL_SURFACE ( 'NONE', #177, 0.03936999999999999528 ) ;
#153 = ORIENTED_EDGE ( 'NONE', *, *, #319, .T. ) ;
#154 = ORIENTED_EDGE ( 'NONE', *, *, #254, .T. ) ;
#155 = ORIENTED_EDGE ( 'NONE', *, *, #89, .F. ) ;
#156 = ADVANCED_FACE ( 'NONE', ( #331 ), #85, .T. ) ;
#157 = PRODUCT ( 'Micro_SBMM-020-316X', 'Micro_SBMM-020-316X', '', ( #324 ) ) ;
#158 = ORIENTED_EDGE ( 'NONE', *, *, #27, .F. ) ;
#159 = LENGTH_MEASURE_WITH_UNIT ( LENGTH_MEASURE( 0.02539999999999999897 ), #269 );
#160 = AXIS2_PLACEMENT_3D ( 'NONE', #150, #9, #253 ) ;
#161 = ORIENTED_EDGE ( 'NONE', *, *, #13, .F. ) ;
#162 = SURFACE_STYLE_USAGE ( .BOTH. , #291 ) ;
#163 = CARTESIAN_POINT ( 'NONE',  ( 0.0000000000000000000, 0.0000000000000000000, 1.784218148936167481 ) ) ;
#164 = DIRECTION ( 'NONE',  ( -1.000000000000000000, 0.0000000000000000000, 0.0000000000000000000 ) ) ;
#165 = CYLINDRICAL_SURFACE ( 'NONE', #111, 0.02559049999999995356 ) ;
#166 = CIRCLE ( 'NONE', #10, 0.1181100000000000344 ) ;
#167 = FACE_OUTER_BOUND ( 'NONE', #100, .T. ) ;
#168 = SHAPE_DEFINITION_REPRESENTATION ( #24, #56 ) ;
#169 =( NAMED_UNIT ( * ) PLANE_ANGLE_UNIT ( ) SI_UNIT ( $, .RADIAN. ) );
#170 = SURFACE_STYLE_FILL_AREA ( #273 ) ;
#171 = AXIS2_PLACEMENT_3D ( 'NONE', #280, #121, #275 ) ;
#172 = DIRECTION ( 'NONE',  ( -0.0000000000000000000, -0.0000000000000000000, -1.000000000000000000 ) ) ;
#173 = CARTESIAN_POINT ( 'NONE',  ( -0.1181100000000000344, 0.0000000000000000000, 1.653542999999999985 ) ) ;
#174 = CARTESIAN_POINT ( 'NONE',  ( -0.1299209999999997867, 1.591073367920230343E-17, 1.784218148936167481 ) ) ;
#175 = CARTESIAN_POINT ( 'NONE',  ( 0.1299209999999997867, 0.0000000000000000000, 1.784218148936167481 ) ) ;
#176 = VECTOR ( 'NONE', #326, 39.37007874015748143 ) ;
#177 = AXIS2_PLACEMENT_3D ( 'NONE', #286, #23, #338 ) ;
#178 = DIRECTION ( 'NONE',  ( 1.000000000000000000, 0.0000000000000000000, 0.0000000000000000000 ) ) ;
#179 = ORIENTED_EDGE ( 'NONE', *, *, #266, .T. ) ;
#180 = CIRCLE ( 'NONE', #137, 0.1181100000000000344 ) ;
#181 = ADVANCED_FACE ( 'NONE', ( #302 ), #37, .T. ) ;
#182 = CARTESIAN_POINT ( 'NONE',  ( 0.0000000000000000000, 0.0000000000000000000, 2.952755999999999936 ) ) ;
#183 = ORIENTED_EDGE ( 'NONE', *, *, #50, .T. ) ;
#184 = EDGE_CURVE ( 'NONE', #187, #204, #322, .T. ) ;
#185 =( LENGTH_UNIT ( ) NAMED_UNIT ( * ) SI_UNIT ( $, .METRE. ) );
#186 = VERTEX_POINT ( 'NONE', #62 ) ;
#187 = VERTEX_POINT ( 'NONE', #173 ) ;
#188 = DIRECTION ( 'NONE',  ( -1.000000000000000000, 0.0000000000000000000, 0.0000000000000000000 ) ) ;
#189 = COLOUR_RGB ( '',0.7921568627450980005, 0.8196078431372548767, 0.9333333333333333481 ) ;
#190 =( GEOMETRIC_REPRESENTATION_CONTEXT ( 3 ) GLOBAL_UNCERTAINTY_ASSIGNED_CONTEXT ( ( #119 ) ) GLOBAL_UNIT_ASSIGNED_CONTEXT ( ( #306, #105, #316 ) ) REPRESENTATION_CONTEXT ( 'NONE', 'WORKASPACE' ) );
#191 =( LENGTH_UNIT ( ) NAMED_UNIT ( * ) SI_UNIT ( $, .METRE. ) );
#192 = CARTESIAN_POINT ( 'NONE',  ( 3.133932391358032860E-18, -0.02559049999999999173, 0.06928860975630385388 ) ) ;
#193 = CLOSED_SHELL ( 'NONE', ( #129, #87, #32, #81, #181, #213, #337, #323, #156, #310, #18 ) ) ;
#194 = DIRECTION ( 'NONE',  ( -0.09001749462147055902, 1.102396366554480072E-17, 0.9959401842791932857 ) ) ;
#195 = AXIS2_PLACEMENT_3D ( 'NONE', #124, #132, #26 ) ;
#196 = DIRECTION ( 'NONE',  ( -1.000000000000000000, 0.0000000000000000000, 0.0000000000000000000 ) ) ;
#197 = CARTESIAN_POINT ( 'NONE',  ( 0.0000000000000000000, 2.410717224121564242E-18, 1.707404996040164512E-17 ) ) ;
#198 = UNCERTAINTY_MEASURE_WITH_UNIT (LENGTH_MEASURE( 1.000000000000000082E-05 ), #82, 'distance_accuracy_value', 'NONE');
#199 = CARTESIAN_POINT ( 'NONE',  ( -0.1031099999999991745, 0.0000000000000000000, 2.952755999999999936 ) ) ;
#200 = CARTESIAN_POINT ( 'NONE',  ( 0.02559049999999992234, 0.0000000000000000000, 0.6299209999999999532 ) ) ;
#201 = AXIS2_PLACEMENT_3D ( 'NONE', #255, #35, #276 ) ;
#202 = FILL_AREA_STYLE_COLOUR ( '', #30 ) ;
#203 = SURFACE_STYLE_FILL_AREA ( #51 ) ;
#204 = VERTEX_POINT ( 'NONE', #281 ) ;
#205 = EDGE_LOOP ( 'NONE', ( #305, #131, #44, #285, #96 ) ) ;
#206 = CIRCLE ( 'NONE', #128, 0.02559049999999992234 ) ;
#207 = EDGE_LOOP ( 'NONE', ( #49, #72, #67, #78 ) ) ;
#208 = VERTEX_POINT ( 'NONE', #146 ) ;
#209 = VERTEX_POINT ( 'NONE', #223 ) ;
#210 = AXIS2_PLACEMENT_3D ( 'NONE', #245, #142, #2 ) ;
#211 = AXIS2_PLACEMENT_3D ( 'NONE', #263, #98, #164 ) ;
#212 = FACE_OUTER_BOUND ( 'NONE', #127, .T. ) ;
#213 = ADVANCED_FACE ( 'NONE', ( #40 ), #330, .T. ) ;
#214 = LINE ( 'NONE', #55, #246 ) ;
#215 = AXIS2_PLACEMENT_3D ( 'NONE', #182, #270, #295 ) ;
#216 = SURFACE_STYLE_USAGE ( .BOTH. , #135 ) ;
#217 = DIRECTION ( 'NONE',  ( 0.0000000000000000000, 0.0000000000000000000, 1.000000000000000000 ) ) ;
#218 = LINE ( 'NONE', #199, #341 ) ;
#219 = VERTEX_POINT ( 'NONE', #59 ) ;
#220 = STYLED_ITEM ( 'NONE', ( #79 ), #20 ) ;
#221 = STYLED_ITEM ( 'NONE', ( #46 ), #56 ) ;
#222 = CARTESIAN_POINT ( 'NONE',  ( 0.0000000000000000000, 0.0000000000000000000, 1.784218148936167481 ) ) ;
#223 = CARTESIAN_POINT ( 'NONE',  ( 0.0000000000000000000, 0.02559049999999999173, 0.06928860975630385388 ) ) ;
#224 = CARTESIAN_POINT ( 'NONE',  ( -0.1181100000000000344, 0.0000000000000000000, 2.937755999999999368 ) ) ;
#225 = DIRECTION ( 'NONE',  ( 0.0000000000000000000, 1.000000000000000000, 0.0000000000000000000 ) ) ;
#226 = VERTEX_POINT ( 'NONE', #95 ) ;
#227 = APPLICATION_PROTOCOL_DEFINITION ( 'draft international standard', 'automotive_design', 1998, #271 ) ;
#228 = PRODUCT_RELATED_PRODUCT_CATEGORY ( 'part', '', ( #157 ) ) ;
#229 = VERTEX_POINT ( 'NONE', #66 ) ;
#230 = DIMENSIONAL_EXPONENTS ( 1.000000000000000000, 0.0000000000000000000, 0.0000000000000000000, 0.0000000000000000000, 0.0000000000000000000, 0.0000000000000000000, 0.0000000000000000000 ) ;
#231 = CARTESIAN_POINT ( 'NONE',  ( 0.1031099999999991745, 1.262733314600825725E-17, 2.952755999999999936 ) ) ;
#232 = VERTEX_POINT ( 'NONE', #200 ) ;
#233 = AXIS2_PLACEMENT_3D ( 'NONE', #325, #11, #116 ) ;
#234 =( GEOMETRIC_REPRESENTATION_CONTEXT ( 3 ) GLOBAL_UNCERTAINTY_ASSIGNED_CONTEXT ( ( #279 ) ) GLOBAL_UNIT_ASSIGNED_CONTEXT ( ( #244, #76, #304 ) ) REPRESENTATION_CONTEXT ( 'NONE', 'WORKASPACE' ) );
#235 = ORIENTED_EDGE ( 'NONE', *, *, #52, .F. ) ;
#236 = DIRECTION ( 'NONE',  ( -1.000000000000000000, 0.0000000000000000000, 0.0000000000000000000 ) ) ;
#237 = PRODUCT_DEFINITION ( 'UNKNOWN', '', #21, #329 ) ;
#238 = ORIENTED_EDGE ( 'NONE', *, *, #89, .T. ) ;
#239 = FACE_OUTER_BOUND ( 'NONE', #284, .T. ) ;
#240 = DIRECTION ( 'NONE',  ( 0.0000000000000000000, 0.0000000000000000000, 1.000000000000000000 ) ) ;
#241 = CIRCLE ( 'NONE', #15, 0.03936999999999999528 ) ;
#242 = CARTESIAN_POINT ( 'NONE',  ( 0.0000000000000000000, 0.0000000000000000000, 0.6299209999999999532 ) ) ;
#243 = LINE ( 'NONE', #272, #321 ) ;
#244 =( CONVERSION_BASED_UNIT ( 'INCH', #159 ) LENGTH_UNIT ( ) NAMED_UNIT ( #230 ) );
#245 = CARTESIAN_POINT ( 'NONE',  ( 0.0000000000000000000, 0.0000000000000000000, 2.937755999999999368 ) ) ;
#246 = VECTOR ( 'NONE', #58, 39.37007874015748143 ) ;
#247 = AXIS2_PLACEMENT_3D ( 'NONE', #8, #172, #196 ) ;
#248 = FACE_OUTER_BOUND ( 'NONE', #73, .T. ) ;
#249 = CYLINDRICAL_SURFACE ( 'NONE', #130, 0.02559049999999995356 ) ;
#250 = LINE ( 'NONE', #174, #83 ) ;
#251 = FACE_OUTER_BOUND ( 'NONE', #205, .T. ) ;
#252 = EDGE_CURVE ( 'NONE', #232, #204, #94, .T. ) ;
#253 = DIRECTION ( 'NONE',  ( -1.000000000000000000, 0.0000000000000000000, 0.0000000000000000000 ) ) ;
#254 = EDGE_CURVE ( 'NONE', #226, #126, #218, .T. ) ;
#255 = CARTESIAN_POINT ( 'NONE',  ( 0.0000000000000000000, 0.0000000000000000000, 2.952755999999999936 ) ) ;
#256 = AXIS2_PLACEMENT_3D ( 'NONE', #7, #115, #293 ) ;
#257 = FACE_OUTER_BOUND ( 'NONE', #260, .T. ) ;
#258 = ORIENTED_EDGE ( 'NONE', *, *, #149, .F. ) ;
#259 = EDGE_LOOP ( 'NONE', ( #288, #158, #43, #282 ) ) ;
#260 = EDGE_LOOP ( 'NONE', ( #238, #315 ) ) ;
#261 = ORIENTED_EDGE ( 'NONE', *, *, #332, .F. ) ;
#262 = ORIENTED_EDGE ( 'NONE', *, *, #6, .T. ) ;
#263 = CARTESIAN_POINT ( 'NONE',  ( 0.0000000000000000000, 0.0000000000000000000, 2.952755999999999936 ) ) ;
#264 = CARTESIAN_POINT ( 'NONE',  ( 0.0000000000000000000, 0.0000000000000000000, 0.06928860975630385388 ) ) ;
#265 = CARTESIAN_POINT ( 'NONE',  ( 0.0000000000000000000, 0.0000000000000000000, 2.937755999999999368 ) ) ;
#266 = EDGE_CURVE ( 'NONE', #25, #186, #299, .T. ) ;
#267 = CARTESIAN_POINT ( 'NONE',  ( 0.0000000000000000000, 0.0000000000000000000, 0.6299209999999999532 ) ) ;
#268 =( GEOMETRIC_REPRESENTATION_CONTEXT ( 3 ) GLOBAL_UNCERTAINTY_ASSIGNED_CONTEXT ( ( #198 ) ) GLOBAL_UNIT_ASSIGNED_CONTEXT ( ( #82, #169, #86 ) ) REPRESENTATION_CONTEXT ( 'NONE', 'WORKASPACE' ) );
#269 =( LENGTH_UNIT ( ) NAMED_UNIT ( * ) SI_UNIT ( $, .METRE. ) );
#270 = DIRECTION ( 'NONE',  ( 0.0000000000000000000, 0.0000000000000000000, 1.000000000000000000 ) ) ;
#271 = APPLICATION_CONTEXT ( 'automotive_design' ) ;
#272 = CARTESIAN_POINT ( 'NONE',  ( -0.02559049999999995356, 0.0000000000000000000, 0.0000000000000000000 ) ) ;
#273 = FILL_AREA_STYLE ('',( #113 ) ) ;
#274 = CONICAL_SURFACE ( 'NONE', #211, 0.1031099999999991745, 0.7853981633974500554 ) ;
#275 = DIRECTION ( 'NONE',  ( 1.000000000000000000, 0.0000000000000000000, 0.0000000000000000000 ) ) ;
#276 = DIRECTION ( 'NONE',  ( -1.000000000000000000, 0.0000000000000000000, 0.0000000000000000000 ) ) ;
#277 = VECTOR ( 'NONE', #340, 39.37007874015748854 ) ;
#278 = CARTESIAN_POINT ( 'NONE',  ( -0.1181100000000000344, 0.0000000000000000000, 2.952755999999999936 ) ) ;
#279 = UNCERTAINTY_MEASURE_WITH_UNIT (LENGTH_MEASURE( 1.000000000000000082E-05 ), #244, 'distance_accuracy_value', 'NONE');
#280 = CARTESIAN_POINT ( 'NONE',  ( 0.0000000000000000000, 0.0000000000000000000, 1.653542999999999985 ) ) ;
#281 = CARTESIAN_POINT ( 'NONE',  ( 0.1181100000000000344, 1.446430334472939084E-17, 1.653542999999999985 ) ) ;
#282 = ORIENTED_EDGE ( 'NONE', *, *, #184, .F. ) ;
#283 = ORIENTED_EDGE ( 'NONE', *, *, #114, .T. ) ;
#284 = EDGE_LOOP ( 'NONE', ( #104, #155, #154, #343 ) ) ;
#285 = ORIENTED_EDGE ( 'NONE', *, *, #65, .F. ) ;
#286 = CARTESIAN_POINT ( 'NONE',  ( 0.0000000000000000000, 0.0000000000000000000, 0.03937000000000000915 ) ) ;
#287 = AXIS2_PLACEMENT_3D ( 'NONE', #33, #320, #4 ) ;
#288 = ORIENTED_EDGE ( 'NONE', *, *, #102, .F. ) ;
#289 = CIRCLE ( 'NONE', #195, 0.03936999999999999528 ) ;
#290 = DIRECTION ( 'NONE',  ( -0.0000000000000000000, -0.0000000000000000000, -1.000000000000000000 ) ) ;
#291 = SURFACE_SIDE_STYLE ('',( #203 ) ) ;
#292 = DIRECTION ( 'NONE',  ( -0.0000000000000000000, -0.0000000000000000000, -1.000000000000000000 ) ) ;
#293 = DIRECTION ( 'NONE',  ( -1.000000000000000000, 0.0000000000000000000, 0.0000000000000000000 ) ) ;
#294 = EDGE_CURVE ( 'NONE', #69, #25, #77, .T. ) ;
#295 = DIRECTION ( 'NONE',  ( 1.000000000000000000, 0.0000000000000000000, 0.0000000000000000000 ) ) ;
#296 = EDGE_CURVE ( 'NONE', #209, #92, #241, .T. ) ;
#297 = CARTESIAN_POINT ( 'NONE',  ( 0.0000000000000000000, 0.0000000000000000000, 2.952755999999999936 ) ) ;
#298 = AXIS2_PLACEMENT_3D ( 'NONE', #147, #178, #225 ) ;
#299 = CIRCLE ( 'NONE', #247, 0.02559049999999998132 ) ;
#300 = DIRECTION ( 'NONE',  ( -0.0000000000000000000, -0.0000000000000000000, -1.000000000000000000 ) ) ;
#301 = DIRECTION ( 'NONE',  ( 0.0000000000000000000, 0.0000000000000000000, 1.000000000000000000 ) ) ;
#302 = FACE_OUTER_BOUND ( 'NONE', #207, .T. ) ;
#303 = FACE_OUTER_BOUND ( 'NONE', #22, .T. ) ;
#304 =( NAMED_UNIT ( * ) SI_UNIT ( $, .STERADIAN. ) SOLID_ANGLE_UNIT ( ) );
#305 = ORIENTED_EDGE ( 'NONE', *, *, #335, .T. ) ;
#306 =( CONVERSION_BASED_UNIT ( 'INCH', #28 ) LENGTH_UNIT ( ) NAMED_UNIT ( #136 ) );
#307 = ORIENTED_EDGE ( 'NONE', *, *, #65, .T. ) ;
#308 = APPLICATION_CONTEXT ( 'automotive_design' ) ;
#309 = LINE ( 'NONE', #231, #277 ) ;
#310 = ADVANCED_FACE ( 'NONE', ( #303 ), #152, .T. ) ;
#311 = EDGE_LOOP ( 'NONE', ( #103, #41, #16, #339 ) ) ;
#312 = ORIENTED_EDGE ( 'NONE', *, *, #294, .T. ) ;
#313 = DIRECTION ( 'NONE',  ( 1.000000000000000000, 0.0000000000000000000, 0.0000000000000000000 ) ) ;
#314 = AXIS2_PLACEMENT_3D ( 'NONE', #163, #5, #317 ) ;
#315 = ORIENTED_EDGE ( 'NONE', *, *, #13, .T. ) ;
#316 =( NAMED_UNIT ( * ) SI_UNIT ( $, .STERADIAN. ) SOLID_ANGLE_UNIT ( ) );
#317 = DIRECTION ( 'NONE',  ( 1.000000000000000000, 0.0000000000000000000, 0.0000000000000000000 ) ) ;
#318 = DIRECTION ( 'NONE',  ( 0.0000000000000000000, 0.0000000000000000000, 1.000000000000000000 ) ) ;
#319 = EDGE_CURVE ( 'NONE', #25, #92, #289, .T. ) ;
#320 = DIRECTION ( 'NONE',  ( -0.0000000000000000000, -0.0000000000000000000, -1.000000000000000000 ) ) ;
#321 = VECTOR ( 'NONE', #109, 39.37007874015748143 ) ;
#322 = CIRCLE ( 'NONE', #171, 0.1181100000000000344 ) ;
#323 = ADVANCED_FACE ( 'NONE', ( #239 ), #274, .T. ) ;
#324 = PRODUCT_CONTEXT ( 'NONE', #271, 'mechanical' ) ;
#325 = CARTESIAN_POINT ( 'NONE',  ( 0.0000000000000000000, 0.0000000000000000000, 2.952755999999999936 ) ) ;
#326 = DIRECTION ( 'NONE',  ( -0.0000000000000000000, -0.0000000000000000000, -1.000000000000000000 ) ) ;
#327 = AXIS2_PLACEMENT_3D ( 'NONE', #80, #318, #134 ) ;
#328 = LINE ( 'NONE', #278, #176 ) ;
#329 = PRODUCT_DEFINITION_CONTEXT ( 'detailed design', #308, 'design' ) ;
#330 = CYLINDRICAL_SURFACE ( 'NONE', #201, 0.1181100000000000344 ) ;
#331 = FACE_OUTER_BOUND ( 'NONE', #259, .T. ) ;
#332 = EDGE_CURVE ( 'NONE', #126, #219, #180, .T. ) ;
#333 = VECTOR ( 'NONE', #122, 39.37007874015748854 ) ;
#334 = LINE ( 'NONE', #64, #112 ) ;
#335 = EDGE_CURVE ( 'NONE', #229, #232, #141, .T. ) ;
#336 = ORIENTED_EDGE ( 'NONE', *, *, #266, .F. ) ;
#337 = ADVANCED_FACE ( 'NONE', ( #257 ), #344, .T. ) ;
#338 = DIRECTION ( 'NONE',  ( 0.0000000000000000000, 1.000000000000000000, 0.0000000000000000000 ) ) ;
#339 = ORIENTED_EDGE ( 'NONE', *, *, #252, .F. ) ;
#340 = DIRECTION ( 'NONE',  ( 0.7071067811865486830, 8.659560562354947649E-17, -0.7071067811865462405 ) ) ;
#341 = VECTOR ( 'NONE', #39, 39.37007874015748854 ) ;
#342 = ORIENTED_EDGE ( 'NONE', *, *, #294, .F. ) ;
#343 = ORIENTED_EDGE ( 'NONE', *, *, #75, .F. ) ;
#344 = PLANE ( 'NONE',  #327 ) ;
#345 = ORIENTED_EDGE ( 'NONE', *, *, #75, .T. ) ;
ENDSEC;
END-ISO-10303-21;
