ISO-10303-21;
HEADER;
FILE_DESCRIPTION (( 'STEP AP214' ),
    '1' );
FILE_NAME ('86063.STEP',
    '2023-06-23T16:07:04',
    ( '' ),
    ( '' ),
    'SwSTEP 2.0',
    'SolidWorks 2023',
    '' );
FILE_SCHEMA (( 'AUTOMOTIVE_DESIGN' ));
ENDSEC;

DATA;
#1 = ADVANCED_FACE ( 'NONE', ( #92 ), #275, .T. ) ;
#2 = LENGTH_MEASURE_WITH_UNIT ( LENGTH_MEASURE( 0.02539999999999999897 ), #52 );
#3 = DIRECTION ( 'NONE',  ( -1.000000000000000000, 0.000000000000000000, 0.000000000000000000 ) ) ;
#4 =( NAMED_UNIT ( * ) SI_UNIT ( $, .STERADIAN. ) SOLID_ANGLE_UNIT ( ) );
#5 = CIRCLE ( 'NONE', #301, 0.09374999999999998612 ) ;
#6 = PLANE ( 'NONE',  #293 ) ;
#7 = EDGE_CURVE ( 'NONE', #39, #165, #281, .T. ) ;
#8 = PRESENTATION_STYLE_ASSIGNMENT (( #221 ) ) ;
#9 = ORIENTED_EDGE ( 'NONE', *, *, #259, .T. ) ;
#10 = ADVANCED_BREP_SHAPE_REPRESENTATION ( '86063', ( #194, #291, #36 ), #149 ) ;
#11 = STYLED_ITEM ( 'NONE', ( #243 ), #70 ) ;
#12 = ORIENTED_EDGE ( 'NONE', *, *, #263, .T. ) ;
#13 = MECHANICAL_DESIGN_GEOMETRIC_PRESENTATION_REPRESENTATION (  '', ( #112 ), #87 ) ;
#14 = COLOUR_RGB ( '',1.000000000000000000, 0.000000000000000000, 0.000000000000000000 ) ;
#15 = DIRECTION ( 'NONE',  ( 5.024191996501961812E-17, 1.000000000000000000, -0.000000000000000000 ) ) ;
#16 = EDGE_CURVE ( 'NONE', #226, #73, #170, .T. ) ;
#17 = ORIENTED_EDGE ( 'NONE', *, *, #16, .F. ) ;
#18 = PRESENTATION_STYLE_ASSIGNMENT (( #255 ) ) ;
#19 = FILL_AREA_STYLE_COLOUR ( '', #26 ) ;
#20 = CARTESIAN_POINT ( 'NONE',  ( 0.000000000000000000, 0.000000000000000000, 0.000000000000000000 ) ) ;
#21 = DIRECTION ( 'NONE',  ( -0.000000000000000000, -1.000000000000000000, -0.000000000000000000 ) ) ;
#22 = AXIS2_PLACEMENT_3D ( 'NONE', #303, #97, #74 ) ;
#23 = CARTESIAN_POINT ( 'NONE',  ( 1.183242432080360929E-34, 1.562500000000000000, 0.000000000000000000 ) ) ;
#24 = CARTESIAN_POINT ( 'NONE',  ( 0.09374999999999998612, 1.562500000000000000, 1.148106374200643247E-17 ) ) ;
#25 = CARTESIAN_POINT ( 'NONE',  ( 1.148106374200643401E-17, 1.562500000000000000, 0.09374999999999998612 ) ) ;
#26 = COLOUR_RGB ( '',1.000000000000000000, 0.000000000000000000, 0.000000000000000000 ) ;
#27 = MECHANICAL_DESIGN_GEOMETRIC_PRESENTATION_REPRESENTATION (  '', ( #200 ), #67 ) ;
#28 = APPLICATION_CONTEXT ( 'automotive_design' ) ;
#29 = PRODUCT_CONTEXT ( 'NONE', #28, 'mechanical' ) ;
#30 = CARTESIAN_POINT ( 'NONE',  ( 0.09375000000000004163, 4.000000000000000000, 1.148106374200642630E-17 ) ) ;
#31 = AXIS2_PLACEMENT_3D ( 'NONE', #225, #227, #276 ) ;
#32 = CARTESIAN_POINT ( 'NONE',  ( 0.09374999999999998612, 4.000000000000000000, 1.148106374200643247E-17 ) ) ;
#33 = DIRECTION ( 'NONE',  ( -5.024191996501961812E-17, -1.000000000000000000, 0.000000000000000000 ) ) ;
#34 = MECHANICAL_DESIGN_GEOMETRIC_PRESENTATION_REPRESENTATION (  '', ( #187 ), #271 ) ;
#35 = ORIENTED_EDGE ( 'NONE', *, *, #93, .T. ) ;
#36 = AXIS2_PLACEMENT_3D ( 'NONE', #309, #108, #201 ) ;
#37 = LINE ( 'NONE', #65, #296 ) ;
#38 = FILL_AREA_STYLE ('',( #254 ) ) ;
#39 = VERTEX_POINT ( 'NONE', #100 ) ;
#40 = SHAPE_DEFINITION_REPRESENTATION ( #238, #10 ) ;
#41 = FILL_AREA_STYLE ('',( #169 ) ) ;
#42 = ORIENTED_EDGE ( 'NONE', *, *, #152, .T. ) ;
#43 = MECHANICAL_DESIGN_GEOMETRIC_PRESENTATION_REPRESENTATION (  '', ( #267 ), #164 ) ;
#44 = CARTESIAN_POINT ( 'NONE',  ( 0.000000000000000000, 0.000000000000000000, -0.09374999999999998612 ) ) ;
#45 = CARTESIAN_POINT ( 'NONE',  ( 0.000000000000000000, 1.562500000000000000, 0.000000000000000000 ) ) ;
#46 = DIMENSIONAL_EXPONENTS ( 1.000000000000000000, 0.000000000000000000, 0.000000000000000000, 0.000000000000000000, 0.000000000000000000, 0.000000000000000000, 0.000000000000000000 ) ;
#47 = DIRECTION ( 'NONE',  ( 5.024191996501961812E-17, 1.000000000000000000, -0.000000000000000000 ) ) ;
#48 = LENGTH_MEASURE_WITH_UNIT ( LENGTH_MEASURE( 0.02539999999999999897 ), #175 );
#49 = SURFACE_STYLE_USAGE ( .BOTH. , #130 ) ;
#50 = UNCERTAINTY_MEASURE_WITH_UNIT (LENGTH_MEASURE( 1.000000000000000082E-05 ), #173, 'distance_accuracy_value', 'NONE');
#51 = CLOSED_SHELL ( 'NONE', ( #158, #242, #223, #141 ) ) ;
#52 =( LENGTH_UNIT ( ) NAMED_UNIT ( * ) SI_UNIT ( $, .METRE. ) );
#53 = CYLINDRICAL_SURFACE ( 'NONE', #76, 0.09374999999999998612 ) ;
#54 = CARTESIAN_POINT ( 'NONE',  ( 0.000000000000000000, 1.562500000000000000, 0.000000000000000000 ) ) ;
#55 =( CONVERSION_BASED_UNIT ( 'INCH', #106 ) LENGTH_UNIT ( ) NAMED_UNIT ( #289 ) );
#56 = SURFACE_STYLE_FILL_AREA ( #58 ) ;
#57 = COLOUR_RGB ( '',1.000000000000000000, 0.000000000000000000, 0.000000000000000000 ) ;
#58 = FILL_AREA_STYLE ('',( #140 ) ) ;
#59 = APPLICATION_CONTEXT ( 'automotive_design' ) ;
#60 = SURFACE_STYLE_USAGE ( .BOTH. , #88 ) ;
#61 = CARTESIAN_POINT ( 'NONE',  ( 0.000000000000000000, 1.562500000000000000, 0.000000000000000000 ) ) ;
#62 = PRESENTATION_LAYER_ASSIGNMENT (  '', '', ( #187 ) ) ;
#63 = DIRECTION ( 'NONE',  ( 5.024191996501961812E-17, 1.000000000000000000, -0.000000000000000000 ) ) ;
#64 = ORIENTED_EDGE ( 'NONE', *, *, #132, .F. ) ;
#65 = CARTESIAN_POINT ( 'NONE',  ( -0.09374999999999980571, 4.000000000000000000, 0.000000000000000000 ) ) ;
#66 = VERTEX_POINT ( 'NONE', #128 ) ;
#67 =( GEOMETRIC_REPRESENTATION_CONTEXT ( 3 ) GLOBAL_UNCERTAINTY_ASSIGNED_CONTEXT ( ( #102 ) ) GLOBAL_UNIT_ASSIGNED_CONTEXT ( ( #180, #111, #218 ) ) REPRESENTATION_CONTEXT ( 'NONE', 'WORKASPACE' ) );
#68 = EDGE_LOOP ( 'NONE', ( #299, #251, #115, #233 ) ) ;
#69 = EDGE_LOOP ( 'NONE', ( #185, #9 ) ) ;
#70 = ADVANCED_FACE ( 'NONE', ( #235 ), #53, .T. ) ;
#71 = CARTESIAN_POINT ( 'NONE',  ( -0.09374999999999998612, 1.562500000000000000, 0.000000000000000000 ) ) ;
#72 = DIRECTION ( 'NONE',  ( 1.000000000000000000, -5.024191996501961812E-17, 0.000000000000000000 ) ) ;
#73 = VERTEX_POINT ( 'NONE', #24 ) ;
#74 = DIRECTION ( 'NONE',  ( -1.000000000000000000, 0.000000000000000000, 0.000000000000000000 ) ) ;
#75 =( LENGTH_UNIT ( ) NAMED_UNIT ( * ) SI_UNIT ( $, .METRE. ) );
#76 = AXIS2_PLACEMENT_3D ( 'NONE', #284, #83, #264 ) ;
#77 = DIMENSIONAL_EXPONENTS ( 1.000000000000000000, 0.000000000000000000, 0.000000000000000000, 0.000000000000000000, 0.000000000000000000, 0.000000000000000000, 0.000000000000000000 ) ;
#78 = PLANE ( 'NONE',  #118 ) ;
#79 = CARTESIAN_POINT ( 'NONE',  ( 0.000000000000000000, 0.000000000000000000, 0.000000000000000000 ) ) ;
#80 = FILL_AREA_STYLE ('',( #174 ) ) ;
#81 = EDGE_CURVE ( 'NONE', #167, #300, #5, .T. ) ;
#82 =( NAMED_UNIT ( * ) PLANE_ANGLE_UNIT ( ) SI_UNIT ( $, .RADIAN. ) );
#83 = DIRECTION ( 'NONE',  ( -0.000000000000000000, -1.000000000000000000, -0.000000000000000000 ) ) ;
#84 =( GEOMETRIC_REPRESENTATION_CONTEXT ( 3 ) GLOBAL_UNCERTAINTY_ASSIGNED_CONTEXT ( ( #136 ) ) GLOBAL_UNIT_ASSIGNED_CONTEXT ( ( #188, #82, #277 ) ) REPRESENTATION_CONTEXT ( 'NONE', 'WORKASPACE' ) );
#85 = EDGE_CURVE ( 'NONE', #66, #150, #232, .T. ) ;
#86 = FACE_OUTER_BOUND ( 'NONE', #96, .T. ) ;
#87 =( GEOMETRIC_REPRESENTATION_CONTEXT ( 3 ) GLOBAL_UNCERTAINTY_ASSIGNED_CONTEXT ( ( #50 ) ) GLOBAL_UNIT_ASSIGNED_CONTEXT ( ( #173, #105, #177 ) ) REPRESENTATION_CONTEXT ( 'NONE', 'WORKASPACE' ) );
#88 = SURFACE_SIDE_STYLE ('',( #268 ) ) ;
#89 = LINE ( 'NONE', #30, #203 ) ;
#90 = PLANE ( 'NONE',  #245 ) ;
#91 = ORIENTED_EDGE ( 'NONE', *, *, #16, .T. ) ;
#92 = FACE_OUTER_BOUND ( 'NONE', #297, .T. ) ;
#93 = EDGE_CURVE ( 'NONE', #73, #150, #89, .T. ) ;
#94 = STYLED_ITEM ( 'NONE', ( #18 ), #194 ) ;
#95 = FACE_OUTER_BOUND ( 'NONE', #228, .T. ) ;
#96 = EDGE_LOOP ( 'NONE', ( #279, #209 ) ) ;
#97 = DIRECTION ( 'NONE',  ( 5.024191996501961812E-17, 1.000000000000000000, -0.000000000000000000 ) ) ;
#98 = DIRECTION ( 'NONE',  ( 5.024191996501961812E-17, 1.000000000000000000, -0.000000000000000000 ) ) ;
#99 = SURFACE_SIDE_STYLE ('',( #104 ) ) ;
#100 = CARTESIAN_POINT ( 'NONE',  ( 1.148106374200643401E-17, 0.000000000000000000, 0.09374999999999998612 ) ) ;
#101 = CIRCLE ( 'NONE', #220, 0.09374999999999998612 ) ;
#102 = UNCERTAINTY_MEASURE_WITH_UNIT (LENGTH_MEASURE( 1.000000000000000082E-05 ), #180, 'distance_accuracy_value', 'NONE');
#103 =( NAMED_UNIT ( * ) PLANE_ANGLE_UNIT ( ) SI_UNIT ( $, .RADIAN. ) );
#104 = SURFACE_STYLE_FILL_AREA ( #41 ) ;
#105 =( NAMED_UNIT ( * ) PLANE_ANGLE_UNIT ( ) SI_UNIT ( $, .RADIAN. ) );
#106 = LENGTH_MEASURE_WITH_UNIT ( LENGTH_MEASURE( 0.02539999999999999897 ), #159 );
#107 = MECHANICAL_DESIGN_GEOMETRIC_PRESENTATION_REPRESENTATION (  '', ( #11 ), #292 ) ;
#108 = DIRECTION ( 'NONE',  ( 0.000000000000000000, 0.000000000000000000, 1.000000000000000000 ) ) ;
#109 = CARTESIAN_POINT ( 'NONE',  ( 0.000000000000000000, 0.000000000000000000, 0.000000000000000000 ) ) ;
#110 = COLOUR_RGB ( '',0.7921568627450980005, 0.8196078431372548767, 0.9333333333333333481 ) ;
#111 =( NAMED_UNIT ( * ) PLANE_ANGLE_UNIT ( ) SI_UNIT ( $, .RADIAN. ) );
#112 = STYLED_ITEM ( 'NONE', ( #280 ), #1 ) ;
#113 = PRESENTATION_LAYER_ASSIGNMENT (  '', '', ( #94 ) ) ;
#114 = ORIENTED_EDGE ( 'NONE', *, *, #7, .T. ) ;
#115 = ORIENTED_EDGE ( 'NONE', *, *, #263, .F. ) ;
#116 = ADVANCED_FACE ( 'NONE', ( #86 ), #6, .T. ) ;
#117 = SURFACE_SIDE_STYLE ('',( #145 ) ) ;
#118 = AXIS2_PLACEMENT_3D ( 'NONE', #23, #15, #260 ) ;
#119 = SURFACE_STYLE_USAGE ( .BOTH. , #117 ) ;
#120 = DIRECTION ( 'NONE',  ( 0.000000000000000000, 0.000000000000000000, -1.000000000000000000 ) ) ;
#121 = EDGE_LOOP ( 'NONE', ( #168, #182, #42, #302 ) ) ;
#122 =( LENGTH_UNIT ( ) NAMED_UNIT ( * ) SI_UNIT ( $, .METRE. ) );
#123 = UNCERTAINTY_MEASURE_WITH_UNIT (LENGTH_MEASURE( 1.000000000000000082E-05 ), #155, 'distance_accuracy_value', 'NONE');
#124 = DIRECTION ( 'NONE',  ( 0.000000000000000000, -1.000000000000000000, -0.000000000000000000 ) ) ;
#125 = PRODUCT_RELATED_PRODUCT_CATEGORY ( 'part', '', ( #306 ) ) ;
#126 = DIRECTION ( 'NONE',  ( -0.000000000000000000, -1.000000000000000000, -0.000000000000000000 ) ) ;
#127 = COLOUR_RGB ( '',1.000000000000000000, 0.000000000000000000, 0.000000000000000000 ) ;
#128 = CARTESIAN_POINT ( 'NONE',  ( -0.09374999999999975020, 4.000000000000000000, 0.000000000000000000 ) ) ;
#129 = AXIS2_PLACEMENT_3D ( 'NONE', #305, #98, #3 ) ;
#130 = SURFACE_SIDE_STYLE ('',( #172 ) ) ;
#131 = FILL_AREA_STYLE ('',( #19 ) ) ;
#132 = EDGE_CURVE ( 'NONE', #73, #226, #248, .T. ) ;
#133 =( NAMED_UNIT ( * ) PLANE_ANGLE_UNIT ( ) SI_UNIT ( $, .RADIAN. ) );
#134 = MECHANICAL_DESIGN_GEOMETRIC_PRESENTATION_REPRESENTATION (  '', ( #94 ), #84 ) ;
#135 =( NAMED_UNIT ( * ) SI_UNIT ( $, .STERADIAN. ) SOLID_ANGLE_UNIT ( ) );
#136 = UNCERTAINTY_MEASURE_WITH_UNIT (LENGTH_MEASURE( 1.000000000000000082E-05 ), #188, 'distance_accuracy_value', 'NONE');
#137 = EDGE_CURVE ( 'NONE', #300, #39, #253, .T. ) ;
#138 =( NAMED_UNIT ( * ) PLANE_ANGLE_UNIT ( ) SI_UNIT ( $, .RADIAN. ) );
#139 = DIRECTION ( 'NONE',  ( 5.024191996501961812E-17, 1.000000000000000000, -0.000000000000000000 ) ) ;
#140 = FILL_AREA_STYLE_COLOUR ( '', #57 ) ;
#141 = ADVANCED_FACE ( 'NONE', ( #298 ), #90, .F. ) ;
#142 = CYLINDRICAL_SURFACE ( 'NONE', #31, 0.09374999999999991673 ) ;
#143 = PRESENTATION_LAYER_ASSIGNMENT (  '', '', ( #267 ) ) ;
#144 = ORIENTED_EDGE ( 'NONE', *, *, #7, .F. ) ;
#145 = SURFACE_STYLE_FILL_AREA ( #38 ) ;
#146 = CARTESIAN_POINT ( 'NONE',  ( 1.148106374200643401E-17, 0.000000000000000000, 0.09374999999999998612 ) ) ;
#147 = ORIENTED_EDGE ( 'NONE', *, *, #152, .F. ) ;
#148 = UNCERTAINTY_MEASURE_WITH_UNIT (LENGTH_MEASURE( 1.000000000000000082E-05 ), #202, 'distance_accuracy_value', 'NONE');
#149 =( GEOMETRIC_REPRESENTATION_CONTEXT ( 3 ) GLOBAL_UNCERTAINTY_ASSIGNED_CONTEXT ( ( #261 ) ) GLOBAL_UNIT_ASSIGNED_CONTEXT ( ( #55, #247, #286 ) ) REPRESENTATION_CONTEXT ( 'NONE', 'WORKASPACE' ) );
#150 = VERTEX_POINT ( 'NONE', #32 ) ;
#151 = DIMENSIONAL_EXPONENTS ( 1.000000000000000000, 0.000000000000000000, 0.000000000000000000, 0.000000000000000000, 0.000000000000000000, 0.000000000000000000, 0.000000000000000000 ) ;
#152 = EDGE_CURVE ( 'NONE', #226, #66, #37, .T. ) ;
#153 = DIRECTION ( 'NONE',  ( -1.000000000000000000, 0.000000000000000000, 0.000000000000000000 ) ) ;
#154 = DIRECTION ( 'NONE',  ( -1.000000000000000000, 0.000000000000000000, 0.000000000000000000 ) ) ;
#155 =( CONVERSION_BASED_UNIT ( 'INCH', #48 ) LENGTH_UNIT ( ) NAMED_UNIT ( #215 ) );
#156 = CARTESIAN_POINT ( 'NONE',  ( 0.000000000000000000, 0.000000000000000000, 0.000000000000000000 ) ) ;
#157 = PRESENTATION_LAYER_ASSIGNMENT (  '', '', ( #200 ) ) ;
#158 = ADVANCED_FACE ( 'NONE', ( #250 ), #142, .T. ) ;
#159 =( LENGTH_UNIT ( ) NAMED_UNIT ( * ) SI_UNIT ( $, .METRE. ) );
#160 = DIRECTION ( 'NONE',  ( 0.000000000000000000, 0.000000000000000000, -1.000000000000000000 ) ) ;
#161 = LENGTH_MEASURE_WITH_UNIT ( LENGTH_MEASURE( 0.02539999999999999897 ), #176 );
#162 = PRODUCT_DEFINITION_CONTEXT ( 'detailed design', #59, 'design' ) ;
#163 = AXIS2_PLACEMENT_3D ( 'NONE', #258, #47, #154 ) ;
#164 =( GEOMETRIC_REPRESENTATION_CONTEXT ( 3 ) GLOBAL_UNCERTAINTY_ASSIGNED_CONTEXT ( ( #148 ) ) GLOBAL_UNIT_ASSIGNED_CONTEXT ( ( #202, #133, #135 ) ) REPRESENTATION_CONTEXT ( 'NONE', 'WORKASPACE' ) );
#165 = VERTEX_POINT ( 'NONE', #206 ) ;
#166 = CARTESIAN_POINT ( 'NONE',  ( 0.000000000000000000, 1.562500000000000000, -0.09374999999999998612 ) ) ;
#167 = VERTEX_POINT ( 'NONE', #166 ) ;
#168 = ORIENTED_EDGE ( 'NONE', *, *, #93, .F. ) ;
#169 = FILL_AREA_STYLE_COLOUR ( '', #191 ) ;
#170 = CIRCLE ( 'NONE', #199, 0.09374999999999998612 ) ;
#171 = LINE ( 'NONE', #44, #216 ) ;
#172 = SURFACE_STYLE_FILL_AREA ( #80 ) ;
#173 =( CONVERSION_BASED_UNIT ( 'INCH', #241 ) LENGTH_UNIT ( ) NAMED_UNIT ( #195 ) );
#174 = FILL_AREA_STYLE_COLOUR ( '', #14 ) ;
#175 =( LENGTH_UNIT ( ) NAMED_UNIT ( * ) SI_UNIT ( $, .METRE. ) );
#176 =( LENGTH_UNIT ( ) NAMED_UNIT ( * ) SI_UNIT ( $, .METRE. ) );
#177 =( NAMED_UNIT ( * ) SI_UNIT ( $, .STERADIAN. ) SOLID_ANGLE_UNIT ( ) );
#178 = PRODUCT_DEFINITION ( 'UNKNOWN', '', #272, #162 ) ;
#179 = PRESENTATION_STYLE_ASSIGNMENT (( #60 ) ) ;
#180 =( CONVERSION_BASED_UNIT ( 'INCH', #308 ) LENGTH_UNIT ( ) NAMED_UNIT ( #229 ) );
#181 =( LENGTH_UNIT ( ) NAMED_UNIT ( * ) SI_UNIT ( $, .METRE. ) );
#182 = ORIENTED_EDGE ( 'NONE', *, *, #132, .T. ) ;
#183 = DIRECTION ( 'NONE',  ( 0.000000000000000000, 0.000000000000000000, -1.000000000000000000 ) ) ;
#184 = DIRECTION ( 'NONE',  ( 5.024191996501961812E-17, 1.000000000000000000, -0.000000000000000000 ) ) ;
#185 = ORIENTED_EDGE ( 'NONE', *, *, #85, .T. ) ;
#186 = ORIENTED_EDGE ( 'NONE', *, *, #190, .T. ) ;
#187 = STYLED_ITEM ( 'NONE', ( #179 ), #291 ) ;
#188 =( CONVERSION_BASED_UNIT ( 'INCH', #231 ) LENGTH_UNIT ( ) NAMED_UNIT ( #46 ) );
#189 = DIRECTION ( 'NONE',  ( -0.000000000000000000, -1.000000000000000000, -0.000000000000000000 ) ) ;
#190 = EDGE_CURVE ( 'NONE', #300, #167, #208, .T. ) ;
#191 = COLOUR_RGB ( '',0.7921568627450980005, 0.8196078431372548767, 0.9333333333333333481 ) ;
#192 = SURFACE_STYLE_FILL_AREA ( #131 ) ;
#193 = DIRECTION ( 'NONE',  ( -0.000000000000000000, -1.000000000000000000, -0.000000000000000000 ) ) ;
#194 = MANIFOLD_SOLID_BREP ( 'Revolve - Cutting Edge', #244 ) ;
#195 = DIMENSIONAL_EXPONENTS ( 1.000000000000000000, 0.000000000000000000, 0.000000000000000000, 0.000000000000000000, 0.000000000000000000, 0.000000000000000000, 0.000000000000000000 ) ;
#196 = DIRECTION ( 'NONE',  ( 0.000000000000000000, 0.000000000000000000, -1.000000000000000000 ) ) ;
#197 = FILL_AREA_STYLE_COLOUR ( '', #110 ) ;
#198 = PRESENTATION_LAYER_ASSIGNMENT (  '', '', ( #11 ) ) ;
#199 = AXIS2_PLACEMENT_3D ( 'NONE', #45, #210, #153 ) ;
#200 = STYLED_ITEM ( 'NONE', ( #8 ), #116 ) ;
#201 = DIRECTION ( 'NONE',  ( 1.000000000000000000, 0.000000000000000000, 0.000000000000000000 ) ) ;
#202 =( CONVERSION_BASED_UNIT ( 'INCH', #2 ) LENGTH_UNIT ( ) NAMED_UNIT ( #77 ) );
#203 = VECTOR ( 'NONE', #139, 39.37007874015748143 ) ;
#204 = CARTESIAN_POINT ( 'NONE',  ( 0.000000000000000000, 1.562500000000000000, 0.000000000000000000 ) ) ;
#205 = AXIS2_PLACEMENT_3D ( 'NONE', #61, #63, #217 ) ;
#206 = CARTESIAN_POINT ( 'NONE',  ( 0.000000000000000000, 0.000000000000000000, -0.09374999999999998612 ) ) ;
#207 = ORIENTED_EDGE ( 'NONE', *, *, #137, .F. ) ;
#208 = CIRCLE ( 'NONE', #282, 0.09374999999999998612 ) ;
#209 = ORIENTED_EDGE ( 'NONE', *, *, #190, .F. ) ;
#210 = DIRECTION ( 'NONE',  ( 5.024191996501961812E-17, 1.000000000000000000, -0.000000000000000000 ) ) ;
#211 = PRESENTATION_LAYER_ASSIGNMENT (  '', '', ( #112 ) ) ;
#212 = PRESENTATION_STYLE_ASSIGNMENT (( #49 ) ) ;
#213 = SURFACE_SIDE_STYLE ('',( #192 ) ) ;
#214 =( CONVERSION_BASED_UNIT ( 'INCH', #161 ) LENGTH_UNIT ( ) NAMED_UNIT ( #151 ) );
#215 = DIMENSIONAL_EXPONENTS ( 1.000000000000000000, 0.000000000000000000, 0.000000000000000000, 0.000000000000000000, 0.000000000000000000, 0.000000000000000000, 0.000000000000000000 ) ;
#216 = VECTOR ( 'NONE', #193, 39.37007874015748143 ) ;
#217 = DIRECTION ( 'NONE',  ( -1.000000000000000000, 0.000000000000000000, 0.000000000000000000 ) ) ;
#218 =( NAMED_UNIT ( * ) SI_UNIT ( $, .STERADIAN. ) SOLID_ANGLE_UNIT ( ) );
#219 = FILL_AREA_STYLE ('',( #197 ) ) ;
#220 = AXIS2_PLACEMENT_3D ( 'NONE', #20, #126, #120 ) ;
#221 = SURFACE_STYLE_USAGE ( .BOTH. , #270 ) ;
#222 = CARTESIAN_POINT ( 'NONE',  ( 0.000000000000000000, 1.562500000000000000, 0.000000000000000000 ) ) ;
#223 = ADVANCED_FACE ( 'NONE', ( #239 ), #236, .T. ) ;
#224 = EDGE_LOOP ( 'NONE', ( #91, #35, #273, #147 ) ) ;
#225 = CARTESIAN_POINT ( 'NONE',  ( 1.224646799147353207E-16, 4.000000000000000000, 0.000000000000000000 ) ) ;
#226 = VERTEX_POINT ( 'NONE', #71 ) ;
#227 = DIRECTION ( 'NONE',  ( 5.024191996501961812E-17, 1.000000000000000000, -0.000000000000000000 ) ) ;
#228 = EDGE_LOOP ( 'NONE', ( #17, #64 ) ) ;
#229 = DIMENSIONAL_EXPONENTS ( 1.000000000000000000, 0.000000000000000000, 0.000000000000000000, 0.000000000000000000, 0.000000000000000000, 0.000000000000000000, 0.000000000000000000 ) ;
#230 = AXIS2_PLACEMENT_3D ( 'NONE', #156, #124, #196 ) ;
#231 = LENGTH_MEASURE_WITH_UNIT ( LENGTH_MEASURE( 0.02539999999999999897 ), #122 );
#232 = CIRCLE ( 'NONE', #129, 0.09374999999999987510 ) ;
#233 = ORIENTED_EDGE ( 'NONE', *, *, #249, .F. ) ;
#234 = DIRECTION ( 'NONE',  ( -0.000000000000000000, -1.000000000000000000, -0.000000000000000000 ) ) ;
#235 = FACE_OUTER_BOUND ( 'NONE', #68, .T. ) ;
#236 = CYLINDRICAL_SURFACE ( 'NONE', #22, 0.09374999999999991673 ) ;
#237 = SURFACE_STYLE_USAGE ( .BOTH. , #213 ) ;
#238 = PRODUCT_DEFINITION_SHAPE ( 'NONE', 'NONE',  #178 ) ;
#239 = FACE_OUTER_BOUND ( 'NONE', #121, .T. ) ;
#240 = DIRECTION ( 'NONE',  ( 0.000000000000000000, 0.000000000000000000, -1.000000000000000000 ) ) ;
#241 = LENGTH_MEASURE_WITH_UNIT ( LENGTH_MEASURE( 0.02539999999999999897 ), #75 );
#242 = ADVANCED_FACE ( 'NONE', ( #95 ), #78, .F. ) ;
#243 = PRESENTATION_STYLE_ASSIGNMENT (( #237 ) ) ;
#244 = CLOSED_SHELL ( 'NONE', ( #70, #116, #283, #1 ) ) ;
#245 = AXIS2_PLACEMENT_3D ( 'NONE', #278, #33, #72 ) ;
#246 = DIRECTION ( 'NONE',  ( -0.000000000000000000, -1.000000000000000000, -0.000000000000000000 ) ) ;
#247 =( NAMED_UNIT ( * ) PLANE_ANGLE_UNIT ( ) SI_UNIT ( $, .RADIAN. ) );
#248 = CIRCLE ( 'NONE', #205, 0.09374999999999998612 ) ;
#249 = EDGE_CURVE ( 'NONE', #167, #165, #171, .T. ) ;
#250 = FACE_OUTER_BOUND ( 'NONE', #224, .T. ) ;
#251 = ORIENTED_EDGE ( 'NONE', *, *, #137, .T. ) ;
#252 = UNCERTAINTY_MEASURE_WITH_UNIT (LENGTH_MEASURE( 1.000000000000000082E-05 ), #214, 'distance_accuracy_value', 'NONE');
#253 = LINE ( 'NONE', #146, #257 ) ;
#254 = FILL_AREA_STYLE_COLOUR ( '', #127 ) ;
#255 = SURFACE_STYLE_USAGE ( .BOTH. , #99 ) ;
#256 = ORIENTED_EDGE ( 'NONE', *, *, #249, .T. ) ;
#257 = VECTOR ( 'NONE', #189, 39.37007874015748143 ) ;
#258 = CARTESIAN_POINT ( 'NONE',  ( 1.224646799147353207E-16, 4.000000000000000000, 0.000000000000000000 ) ) ;
#259 = EDGE_CURVE ( 'NONE', #150, #66, #287, .T. ) ;
#260 = DIRECTION ( 'NONE',  ( -1.000000000000000000, 5.024191996501961812E-17, 0.000000000000000000 ) ) ;
#261 = UNCERTAINTY_MEASURE_WITH_UNIT (LENGTH_MEASURE( 1.000000000000000082E-05 ), #55, 'distance_accuracy_value', 'NONE');
#262 = DIRECTION ( 'NONE',  ( -0.000000000000000000, -1.000000000000000000, -0.000000000000000000 ) ) ;
#263 = EDGE_CURVE ( 'NONE', #165, #39, #101, .T. ) ;
#264 = DIRECTION ( 'NONE',  ( 0.000000000000000000, 0.000000000000000000, -1.000000000000000000 ) ) ;
#265 = APPLICATION_PROTOCOL_DEFINITION ( 'draft international standard', 'automotive_design', 1998, #28 ) ;
#266 = DIRECTION ( 'NONE',  ( 0.000000000000000000, 0.000000000000000000, -1.000000000000000000 ) ) ;
#267 = STYLED_ITEM ( 'NONE', ( #212 ), #283 ) ;
#268 = SURFACE_STYLE_FILL_AREA ( #219 ) ;
#269 = DIRECTION ( 'NONE',  ( 0.000000000000000000, -0.000000000000000000, 1.000000000000000000 ) ) ;
#270 = SURFACE_SIDE_STYLE ('',( #56 ) ) ;
#271 =( GEOMETRIC_REPRESENTATION_CONTEXT ( 3 ) GLOBAL_UNCERTAINTY_ASSIGNED_CONTEXT ( ( #252 ) ) GLOBAL_UNIT_ASSIGNED_CONTEXT ( ( #214, #138, #4 ) ) REPRESENTATION_CONTEXT ( 'NONE', 'WORKASPACE' ) );
#272 = PRODUCT_DEFINITION_FORMATION_WITH_SPECIFIED_SOURCE ( 'ANY', '', #306, .NOT_KNOWN. ) ;
#273 = ORIENTED_EDGE ( 'NONE', *, *, #85, .F. ) ;
#274 = EDGE_LOOP ( 'NONE', ( #207, #186, #256, #144 ) ) ;
#275 = PLANE ( 'NONE',  #230 ) ;
#276 = DIRECTION ( 'NONE',  ( -1.000000000000000000, 0.000000000000000000, 0.000000000000000000 ) ) ;
#277 =( NAMED_UNIT ( * ) SI_UNIT ( $, .STERADIAN. ) SOLID_ANGLE_UNIT ( ) );
#278 = CARTESIAN_POINT ( 'NONE',  ( 0.09374999999999998612, 4.000000000000000000, 0.000000000000000000 ) ) ;
#279 = ORIENTED_EDGE ( 'NONE', *, *, #81, .F. ) ;
#280 = PRESENTATION_STYLE_ASSIGNMENT (( #119 ) ) ;
#281 = CIRCLE ( 'NONE', #295, 0.09374999999999998612 ) ;
#282 = AXIS2_PLACEMENT_3D ( 'NONE', #222, #234, #183 ) ;
#283 = ADVANCED_FACE ( 'NONE', ( #304 ), #285, .T. ) ;
#284 = CARTESIAN_POINT ( 'NONE',  ( 0.000000000000000000, 0.000000000000000000, 0.000000000000000000 ) ) ;
#285 = CYLINDRICAL_SURFACE ( 'NONE', #307, 0.09374999999999998612 ) ;
#286 =( NAMED_UNIT ( * ) SI_UNIT ( $, .STERADIAN. ) SOLID_ANGLE_UNIT ( ) );
#287 = CIRCLE ( 'NONE', #163, 0.09374999999999987510 ) ;
#288 =( NAMED_UNIT ( * ) SI_UNIT ( $, .STERADIAN. ) SOLID_ANGLE_UNIT ( ) );
#289 = DIMENSIONAL_EXPONENTS ( 1.000000000000000000, 0.000000000000000000, 0.000000000000000000, 0.000000000000000000, 0.000000000000000000, 0.000000000000000000, 0.000000000000000000 ) ;
#290 = APPLICATION_PROTOCOL_DEFINITION ( 'draft international standard', 'automotive_design', 1998, #59 ) ;
#291 = MANIFOLD_SOLID_BREP ( 'Revolve - Tool Body (Straight Shanked)', #51 ) ;
#292 =( GEOMETRIC_REPRESENTATION_CONTEXT ( 3 ) GLOBAL_UNCERTAINTY_ASSIGNED_CONTEXT ( ( #123 ) ) GLOBAL_UNIT_ASSIGNED_CONTEXT ( ( #155, #103, #288 ) ) REPRESENTATION_CONTEXT ( 'NONE', 'WORKASPACE' ) );
#293 = AXIS2_PLACEMENT_3D ( 'NONE', #204, #294, #269 ) ;
#294 = DIRECTION ( 'NONE',  ( 0.000000000000000000, 1.000000000000000000, 0.000000000000000000 ) ) ;
#295 = AXIS2_PLACEMENT_3D ( 'NONE', #79, #21, #240 ) ;
#296 = VECTOR ( 'NONE', #184, 39.37007874015748143 ) ;
#297 = EDGE_LOOP ( 'NONE', ( #12, #114 ) ) ;
#298 = FACE_OUTER_BOUND ( 'NONE', #69, .T. ) ;
#299 = ORIENTED_EDGE ( 'NONE', *, *, #81, .T. ) ;
#300 = VERTEX_POINT ( 'NONE', #25 ) ;
#301 = AXIS2_PLACEMENT_3D ( 'NONE', #54, #262, #160 ) ;
#302 = ORIENTED_EDGE ( 'NONE', *, *, #259, .F. ) ;
#303 = CARTESIAN_POINT ( 'NONE',  ( 1.224646799147353207E-16, 4.000000000000000000, 0.000000000000000000 ) ) ;
#304 = FACE_OUTER_BOUND ( 'NONE', #274, .T. ) ;
#305 = CARTESIAN_POINT ( 'NONE',  ( 1.224646799147353207E-16, 4.000000000000000000, 0.000000000000000000 ) ) ;
#306 = PRODUCT ( '86063', '86063', '', ( #29 ) ) ;
#307 = AXIS2_PLACEMENT_3D ( 'NONE', #109, #246, #266 ) ;
#308 = LENGTH_MEASURE_WITH_UNIT ( LENGTH_MEASURE( 0.02539999999999999897 ), #181 );
#309 = CARTESIAN_POINT ( 'NONE',  ( 0.000000000000000000, 0.000000000000000000, 0.000000000000000000 ) ) ;
ENDSEC;
END-ISO-10303-21;
