ISO-10303-21;
HEADER;
FILE_DESCRIPTION (( 'STEP AP214' ),
    '1' );
FILE_NAME ('17105.STEP',
    '2023-06-30T21:52:19',
    ( '' ),
    ( '' ),
    'SwSTEP 2.0',
    'SolidWorks 2023',
    '' );
FILE_SCHEMA (( 'AUTOMOTIVE_DESIGN' ));
ENDSEC;

DATA;
#1 = CARTESIAN_POINT ( 'NONE',  ( 1.148106374200643555E-17, 0.09375000000000004163, 0.09374999999999998612 ) ) ;
#2 = MANIFOLD_SOLID_BREP ( 'Revolve - Cutting Edge', #140 ) ;
#3 = DIRECTION ( 'NONE',  ( -0.000000000000000000, -1.000000000000000000, -0.000000000000000000 ) ) ;
#4 = FILL_AREA_STYLE ('',( #197 ) ) ;
#5 = COLOUR_RGB ( '',0.7921568627450980005, 0.8196078431372548767, 0.9333333333333333481 ) ;
#6 = COLOUR_RGB ( '',1.000000000000000000, 0.000000000000000000, 0.000000000000000000 ) ;
#7 = ORIENTED_EDGE ( 'NONE', *, *, #306, .T. ) ;
#8 = ORIENTED_EDGE ( 'NONE', *, *, #364, .F. ) ;
#9 = EDGE_CURVE ( 'NONE', #64, #219, #145, .T. ) ;
#10 = EDGE_LOOP ( 'NONE', ( #198, #149, #66, #136, #85 ) ) ;
#11 = ORIENTED_EDGE ( 'NONE', *, *, #294, .F. ) ;
#12 = CARTESIAN_POINT ( 'NONE',  ( 0.09374999999999991673, 2.500000000000000000, 1.148106374200642938E-17 ) ) ;
#13 = VECTOR ( 'NONE', #222, 39.37007874015748143 ) ;
#14 = DIMENSIONAL_EXPONENTS ( 1.000000000000000000, 0.000000000000000000, 0.000000000000000000, 0.000000000000000000, 0.000000000000000000, 0.000000000000000000, 0.000000000000000000 ) ;
#15 = SURFACE_SIDE_STYLE ('',( #232 ) ) ;
#16 = DIMENSIONAL_EXPONENTS ( 1.000000000000000000, 0.000000000000000000, 0.000000000000000000, 0.000000000000000000, 0.000000000000000000, 0.000000000000000000, 0.000000000000000000 ) ;
#17 = CARTESIAN_POINT ( 'NONE',  ( 0.000000000000000000, 0.5625000000000000000, 0.000000000000000000 ) ) ;
#18 = PRODUCT_DEFINITION_FORMATION_WITH_SPECIFIED_SOURCE ( 'ANY', '', #276, .NOT_KNOWN. ) ;
#19 = AXIS2_PLACEMENT_3D ( 'NONE', #261, #62, #320 ) ;
#20 = AXIS2_PLACEMENT_3D ( 'NONE', #281, #3, #223 ) ;
#21 =( LENGTH_UNIT ( ) NAMED_UNIT ( * ) SI_UNIT ( $, .METRE. ) );
#22 = SURFACE_STYLE_FILL_AREA ( #4 ) ;
#23 = CARTESIAN_POINT ( 'NONE',  ( -6.123233995736766036E-17, 2.500000000000000000, 0.000000000000000000 ) ) ;
#24 = STYLED_ITEM ( 'NONE', ( #27 ), #107 ) ;
#25 =( CONVERSION_BASED_UNIT ( 'INCH', #309 ) LENGTH_UNIT ( ) NAMED_UNIT ( #155 ) );
#26 = SURFACE_STYLE_FILL_AREA ( #48 ) ;
#27 = PRESENTATION_STYLE_ASSIGNMENT (( #241 ) ) ;
#28 = AXIS2_PLACEMENT_3D ( 'NONE', #46, #277, #366 ) ;
#29 = FACE_OUTER_BOUND ( 'NONE', #176, .T. ) ;
#30 = CARTESIAN_POINT ( 'NONE',  ( -0.09374999999999959754, 0.5625000000000001110, 0.000000000000000000 ) ) ;
#31 = UNCERTAINTY_MEASURE_WITH_UNIT (LENGTH_MEASURE( 1.000000000000000082E-05 ), #67, 'distance_accuracy_value', 'NONE');
#32 = DIRECTION ( 'NONE',  ( 0.000000000000000000, 0.000000000000000000, -1.000000000000000000 ) ) ;
#33 = DIRECTION ( 'NONE',  ( -1.224646799147353207E-16, 1.000000000000000000, -0.000000000000000000 ) ) ;
#34 = AXIS2_PLACEMENT_3D ( 'NONE', #131, #229, #212 ) ;
#35 = PRESENTATION_LAYER_ASSIGNMENT (  '', '', ( #256 ) ) ;
#36 = ORIENTED_EDGE ( 'NONE', *, *, #78, .T. ) ;
#37 = ORIENTED_EDGE ( 'NONE', *, *, #50, .F. ) ;
#38 = CARTESIAN_POINT ( 'NONE',  ( -6.123233995736766036E-17, 2.500000000000000000, 0.000000000000000000 ) ) ;
#39 = ORIENTED_EDGE ( 'NONE', *, *, #50, .T. ) ;
#40 = DIRECTION ( 'NONE',  ( -0.000000000000000000, -1.000000000000000000, -0.000000000000000000 ) ) ;
#41 = DIMENSIONAL_EXPONENTS ( 1.000000000000000000, 0.000000000000000000, 0.000000000000000000, 0.000000000000000000, 0.000000000000000000, 0.000000000000000000, 0.000000000000000000 ) ;
#42 = FILL_AREA_STYLE ('',( #287 ) ) ;
#43 = AXIS2_PLACEMENT_3D ( 'NONE', #341, #168, #32 ) ;
#44 = EDGE_CURVE ( 'NONE', #288, #116, #355, .T. ) ;
#45 = EDGE_CURVE ( 'NONE', #112, #94, #284, .T. ) ;
#46 = CARTESIAN_POINT ( 'NONE',  ( 0.09374999999999994449, 2.500000000000000000, 0.000000000000000000 ) ) ;
#47 = AXIS2_PLACEMENT_3D ( 'NONE', #350, #316, #283 ) ;
#48 = FILL_AREA_STYLE ('',( #166 ) ) ;
#49 = CARTESIAN_POINT ( 'NONE',  ( 0.09374999999999981959, 2.500000000000000000, 1.148106374200642322E-17 ) ) ;
#50 = EDGE_CURVE ( 'NONE', #152, #64, #109, .T. ) ;
#51 = DIRECTION ( 'NONE',  ( -0.000000000000000000, -1.000000000000000000, -0.000000000000000000 ) ) ;
#52 = UNCERTAINTY_MEASURE_WITH_UNIT (LENGTH_MEASURE( 1.000000000000000082E-05 ), #311, 'distance_accuracy_value', 'NONE');
#53 = PRESENTATION_STYLE_ASSIGNMENT (( #272 ) ) ;
#54 = STYLED_ITEM ( 'NONE', ( #53 ), #204 ) ;
#55 = DIRECTION ( 'NONE',  ( 1.000000000000000000, 0.000000000000000000, 0.000000000000000000 ) ) ;
#56 =( NAMED_UNIT ( * ) PLANE_ANGLE_UNIT ( ) SI_UNIT ( $, .RADIAN. ) );
#57 = SURFACE_STYLE_USAGE ( .BOTH. , #335 ) ;
#58 = EDGE_LOOP ( 'NONE', ( #39, #315, #233, #120 ) ) ;
#59 = FACE_OUTER_BOUND ( 'NONE', #10, .T. ) ;
#60 = EDGE_CURVE ( 'NONE', #94, #152, #369, .T. ) ;
#61 = VERTEX_POINT ( 'NONE', #71 ) ;
#62 = DIRECTION ( 'NONE',  ( -0.000000000000000000, -1.000000000000000000, -0.000000000000000000 ) ) ;
#63 = AXIS2_PLACEMENT_3D ( 'NONE', #347, #82, #246 ) ;
#64 = VERTEX_POINT ( 'NONE', #327 ) ;
#65 = ADVANCED_FACE ( 'NONE', ( #362 ), #108, .F. ) ;
#66 = ORIENTED_EDGE ( 'NONE', *, *, #60, .F. ) ;
#67 =( CONVERSION_BASED_UNIT ( 'INCH', #118 ) LENGTH_UNIT ( ) NAMED_UNIT ( #16 ) );
#68 = DIMENSIONAL_EXPONENTS ( 1.000000000000000000, 0.000000000000000000, 0.000000000000000000, 0.000000000000000000, 0.000000000000000000, 0.000000000000000000, 0.000000000000000000 ) ;
#69 = SURFACE_STYLE_USAGE ( .BOTH. , #238 ) ;
#70 = DIRECTION ( 'NONE',  ( -1.000000000000000000, 0.000000000000000000, 0.000000000000000000 ) ) ;
#71 = CARTESIAN_POINT ( 'NONE',  ( 0.000000000000000000, 0.5625000000000000000, -0.09374999999999994449 ) ) ;
#72 = DIMENSIONAL_EXPONENTS ( 1.000000000000000000, 0.000000000000000000, 0.000000000000000000, 0.000000000000000000, 0.000000000000000000, 0.000000000000000000, 0.000000000000000000 ) ;
#73 = SHAPE_DEFINITION_REPRESENTATION ( #189, #91 ) ;
#74 = MECHANICAL_DESIGN_GEOMETRIC_PRESENTATION_REPRESENTATION (  '', ( #54 ), #303 ) ;
#75 = DIRECTION ( 'NONE',  ( -1.000000000000000000, -1.224646799147353207E-16, 0.000000000000000000 ) ) ;
#76 = VECTOR ( 'NONE', #51, 39.37007874015748143 ) ;
#77 = FACE_OUTER_BOUND ( 'NONE', #259, .T. ) ;
#78 = EDGE_CURVE ( 'NONE', #94, #219, #135, .T. ) ;
#79 = CARTESIAN_POINT ( 'NONE',  ( 0.000000000000000000, 0.09375000000000004163, 0.000000000000000000 ) ) ;
#80 = DIRECTION ( 'NONE',  ( 1.000000000000000000, 0.000000000000000000, 0.000000000000000000 ) ) ;
#81 = CARTESIAN_POINT ( 'NONE',  ( 0.000000000000000000, 0.09375000000000004163, -0.09374999999999998612 ) ) ;
#82 = DIRECTION ( 'NONE',  ( -0.000000000000000000, -1.000000000000000000, -0.000000000000000000 ) ) ;
#83 = CLOSED_SHELL ( 'NONE', ( #191, #208, #354, #65 ) ) ;
#84 =( LENGTH_UNIT ( ) NAMED_UNIT ( * ) SI_UNIT ( $, .METRE. ) );
#85 = ORIENTED_EDGE ( 'NONE', *, *, #117, .F. ) ;
#86 = DIRECTION ( 'NONE',  ( 0.000000000000000000, 0.000000000000000000, -1.000000000000000000 ) ) ;
#87 = SPHERICAL_SURFACE ( 'NONE', #371, 0.09375000000000002776 ) ;
#88 =( NAMED_UNIT ( * ) PLANE_ANGLE_UNIT ( ) SI_UNIT ( $, .RADIAN. ) );
#89 = SURFACE_SIDE_STYLE ('',( #251 ) ) ;
#90 = PRESENTATION_LAYER_ASSIGNMENT (  '', '', ( #159 ) ) ;
#91 = ADVANCED_BREP_SHAPE_REPRESENTATION ( '17105', ( #2, #107, #235 ), #181 ) ;
#92 = EDGE_LOOP ( 'NONE', ( #255, #7, #130, #36 ) ) ;
#93 =( CONVERSION_BASED_UNIT ( 'INCH', #349 ) LENGTH_UNIT ( ) NAMED_UNIT ( #14 ) );
#94 = VERTEX_POINT ( 'NONE', #338 ) ;
#95 = SURFACE_SIDE_STYLE ('',( #151 ) ) ;
#96 = ORIENTED_EDGE ( 'NONE', *, *, #294, .T. ) ;
#97 = SURFACE_STYLE_FILL_AREA ( #318 ) ;
#98 = FACE_OUTER_BOUND ( 'NONE', #119, .T. ) ;
#99 = ORIENTED_EDGE ( 'NONE', *, *, #364, .T. ) ;
#100 = EDGE_CURVE ( 'NONE', #269, #273, #201, .T. ) ;
#101 = DIRECTION ( 'NONE',  ( -1.224646799147353207E-16, 1.000000000000000000, 0.000000000000000000 ) ) ;
#102 = CARTESIAN_POINT ( 'NONE',  ( -5.740531871003220085E-18, 0.000000000000000000, 0.000000000000000000 ) ) ;
#103 = DIRECTION ( 'NONE',  ( 0.000000000000000000, 0.000000000000000000, -1.000000000000000000 ) ) ;
#104 = FILL_AREA_STYLE_COLOUR ( '', #5 ) ;
#105 = PRESENTATION_STYLE_ASSIGNMENT (( #363 ) ) ;
#106 = LINE ( 'NONE', #49, #13 ) ;
#107 = MANIFOLD_SOLID_BREP ( 'Revolve - Tool Body (Straight Shanked)', #83 ) ;
#108 = PLANE ( 'NONE',  #28 ) ;
#109 = CIRCLE ( 'NONE', #158, 0.09374999999999998612 ) ;
#110 = STYLED_ITEM ( 'NONE', ( #169 ), #326 ) ;
#111 = MECHANICAL_DESIGN_GEOMETRIC_PRESENTATION_REPRESENTATION (  '', ( #110 ), #160 ) ;
#112 = VERTEX_POINT ( 'NONE', #81 ) ;
#113 = DIRECTION ( 'NONE',  ( -1.224646799147353207E-16, 1.000000000000000000, -0.000000000000000000 ) ) ;
#114 = SURFACE_SIDE_STYLE ('',( #22 ) ) ;
#115 = APPLICATION_PROTOCOL_DEFINITION ( 'draft international standard', 'automotive_design', 1998, #358 ) ;
#116 = VERTEX_POINT ( 'NONE', #271 ) ;
#117 = EDGE_CURVE ( 'NONE', #61, #112, #361, .T. ) ;
#118 = LENGTH_MEASURE_WITH_UNIT ( LENGTH_MEASURE( 0.02539999999999999897 ), #227 );
#119 = EDGE_LOOP ( 'NONE', ( #147, #99, #96, #200 ) ) ;
#120 = ORIENTED_EDGE ( 'NONE', *, *, #60, .T. ) ;
#121 = LENGTH_MEASURE_WITH_UNIT ( LENGTH_MEASURE( 0.02539999999999999897 ), #21 );
#122 = STYLED_ITEM ( 'NONE', ( #331 ), #2 ) ;
#123 =( GEOMETRIC_REPRESENTATION_CONTEXT ( 3 ) GLOBAL_UNCERTAINTY_ASSIGNED_CONTEXT ( ( #156 ) ) GLOBAL_UNIT_ASSIGNED_CONTEXT ( ( #167, #372, #333 ) ) REPRESENTATION_CONTEXT ( 'NONE', 'WORKASPACE' ) );
#124 = FILL_AREA_STYLE ('',( #262 ) ) ;
#125 = CARTESIAN_POINT ( 'NONE',  ( 0.000000000000000000, 0.09375000000000004163, 0.000000000000000000 ) ) ;
#126 = SURFACE_STYLE_USAGE ( .BOTH. , #15 ) ;
#127 = FACE_OUTER_BOUND ( 'NONE', #339, .T. ) ;
#128 =( GEOMETRIC_REPRESENTATION_CONTEXT ( 3 ) GLOBAL_UNCERTAINTY_ASSIGNED_CONTEXT ( ( #325 ) ) GLOBAL_UNIT_ASSIGNED_CONTEXT ( ( #321, #236, #352 ) ) REPRESENTATION_CONTEXT ( 'NONE', 'WORKASPACE' ) );
#129 =( GEOMETRIC_REPRESENTATION_CONTEXT ( 3 ) GLOBAL_UNCERTAINTY_ASSIGNED_CONTEXT ( ( #31 ) ) GLOBAL_UNIT_ASSIGNED_CONTEXT ( ( #67, #260, #179 ) ) REPRESENTATION_CONTEXT ( 'NONE', 'WORKASPACE' ) );
#130 = ORIENTED_EDGE ( 'NONE', *, *, #45, .T. ) ;
#131 = CARTESIAN_POINT ( 'NONE',  ( 1.760429773774320220E-16, 0.5625000000000001110, 0.000000000000000000 ) ) ;
#132 = DIMENSIONAL_EXPONENTS ( 1.000000000000000000, 0.000000000000000000, 0.000000000000000000, 0.000000000000000000, 0.000000000000000000, 0.000000000000000000, 0.000000000000000000 ) ;
#133 = CARTESIAN_POINT ( 'NONE',  ( -6.123233995736766036E-17, 2.500000000000000000, 0.000000000000000000 ) ) ;
#134 = PRODUCT_RELATED_PRODUCT_CATEGORY ( 'part', '', ( #276 ) ) ;
#135 = CIRCLE ( 'NONE', #370, 0.09375000000000002776 ) ;
#136 = ORIENTED_EDGE ( 'NONE', *, *, #45, .F. ) ;
#137 = DIRECTION ( 'NONE',  ( -1.224646799147353207E-16, 1.000000000000000000, -0.000000000000000000 ) ) ;
#138 = ORIENTED_EDGE ( 'NONE', *, *, #44, .T. ) ;
#139 = DIRECTION ( 'NONE',  ( -1.000000000000000000, 0.000000000000000000, 0.000000000000000000 ) ) ;
#140 = CLOSED_SHELL ( 'NONE', ( #326, #270, #204, #244, #237 ) ) ;
#141 = UNCERTAINTY_MEASURE_WITH_UNIT (LENGTH_MEASURE( 1.000000000000000082E-05 ), #334, 'distance_accuracy_value', 'NONE');
#142 = EDGE_CURVE ( 'NONE', #116, #269, #106, .T. ) ;
#143 = CARTESIAN_POINT ( 'NONE',  ( 0.000000000000000000, 0.000000000000000000, -0.09374999999999995837 ) ) ;
#144 = EDGE_LOOP ( 'NONE', ( #312, #170 ) ) ;
#145 = CIRCLE ( 'NONE', #266, 0.09375000000000002776 ) ;
#146 = AXIS2_PLACEMENT_3D ( 'NONE', #346, #224, #80 ) ;
#147 = ORIENTED_EDGE ( 'NONE', *, *, #142, .F. ) ;
#148 =( NAMED_UNIT ( * ) SI_UNIT ( $, .STERADIAN. ) SOLID_ANGLE_UNIT ( ) );
#149 = ORIENTED_EDGE ( 'NONE', *, *, #356, .T. ) ;
#150 = DIRECTION ( 'NONE',  ( -1.000000000000000000, 0.000000000000000000, 0.000000000000000000 ) ) ;
#151 = SURFACE_STYLE_FILL_AREA ( #42 ) ;
#152 = VERTEX_POINT ( 'NONE', #1 ) ;
#153 =( NAMED_UNIT ( * ) PLANE_ANGLE_UNIT ( ) SI_UNIT ( $, .RADIAN. ) );
#154 = MECHANICAL_DESIGN_GEOMETRIC_PRESENTATION_REPRESENTATION (  '', ( #187 ), #182 ) ;
#155 = DIMENSIONAL_EXPONENTS ( 1.000000000000000000, 0.000000000000000000, 0.000000000000000000, 0.000000000000000000, 0.000000000000000000, 0.000000000000000000, 0.000000000000000000 ) ;
#156 = UNCERTAINTY_MEASURE_WITH_UNIT (LENGTH_MEASURE( 1.000000000000000082E-05 ), #167, 'distance_accuracy_value', 'NONE');
#157 = PRESENTATION_STYLE_ASSIGNMENT (( #126 ) ) ;
#158 = AXIS2_PLACEMENT_3D ( 'NONE', #207, #289, #230 ) ;
#159 = STYLED_ITEM ( 'NONE', ( #105 ), #244 ) ;
#160 =( GEOMETRIC_REPRESENTATION_CONTEXT ( 3 ) GLOBAL_UNCERTAINTY_ASSIGNED_CONTEXT ( ( #221 ) ) GLOBAL_UNIT_ASSIGNED_CONTEXT ( ( #305, #188, #279 ) ) REPRESENTATION_CONTEXT ( 'NONE', 'WORKASPACE' ) );
#161 = DIRECTION ( 'NONE',  ( -1.000000000000000000, 0.000000000000000000, 0.000000000000000000 ) ) ;
#162 = COLOUR_RGB ( '',1.000000000000000000, 0.000000000000000000, 0.000000000000000000 ) ;
#163 = SPHERICAL_SURFACE ( 'NONE', #146, 0.09375000000000002776 ) ;
#164 = ORIENTED_EDGE ( 'NONE', *, *, #180, .F. ) ;
#165 = ORIENTED_EDGE ( 'NONE', *, *, #356, .F. ) ;
#166 = FILL_AREA_STYLE_COLOUR ( '', #267 ) ;
#167 =( CONVERSION_BASED_UNIT ( 'INCH', #249 ) LENGTH_UNIT ( ) NAMED_UNIT ( #293 ) );
#168 = DIRECTION ( 'NONE',  ( -0.000000000000000000, -1.000000000000000000, -0.000000000000000000 ) ) ;
#169 = PRESENTATION_STYLE_ASSIGNMENT (( #57 ) ) ;
#170 = ORIENTED_EDGE ( 'NONE', *, *, #100, .T. ) ;
#171 = LINE ( 'NONE', #348, #175 ) ;
#172 = DIRECTION ( 'NONE',  ( 0.000000000000000000, 0.000000000000000000, 1.000000000000000000 ) ) ;
#173 = PRESENTATION_STYLE_ASSIGNMENT (( #319 ) ) ;
#174 = ORIENTED_EDGE ( 'NONE', *, *, #332, .F. ) ;
#175 = VECTOR ( 'NONE', #33, 39.37007874015748143 ) ;
#176 = EDGE_LOOP ( 'NONE', ( #304, #174 ) ) ;
#177 = DIRECTION ( 'NONE',  ( 1.000000000000000000, 0.000000000000000000, -1.224646799147353207E-16 ) ) ;
#178 = APPLICATION_PROTOCOL_DEFINITION ( 'draft international standard', 'automotive_design', 1998, #314 ) ;
#179 =( NAMED_UNIT ( * ) SI_UNIT ( $, .STERADIAN. ) SOLID_ANGLE_UNIT ( ) );
#180 = EDGE_CURVE ( 'NONE', #273, #269, #344, .T. ) ;
#181 =( GEOMETRIC_REPRESENTATION_CONTEXT ( 3 ) GLOBAL_UNCERTAINTY_ASSIGNED_CONTEXT ( ( #252 ) ) GLOBAL_UNIT_ASSIGNED_CONTEXT ( ( #93, #153, #148 ) ) REPRESENTATION_CONTEXT ( 'NONE', 'WORKASPACE' ) );
#182 =( GEOMETRIC_REPRESENTATION_CONTEXT ( 3 ) GLOBAL_UNCERTAINTY_ASSIGNED_CONTEXT ( ( #278 ) ) GLOBAL_UNIT_ASSIGNED_CONTEXT ( ( #25, #88, #239 ) ) REPRESENTATION_CONTEXT ( 'NONE', 'WORKASPACE' ) );
#183 =( NAMED_UNIT ( * ) PLANE_ANGLE_UNIT ( ) SI_UNIT ( $, .RADIAN. ) );
#184 = AXIS2_PLACEMENT_3D ( 'NONE', #125, #323, #210 ) ;
#185 = DIRECTION ( 'NONE',  ( -1.224646799147353207E-16, 1.000000000000000000, -0.000000000000000000 ) ) ;
#186 = CIRCLE ( 'NONE', #367, 0.09374999999999976408 ) ;
#187 = STYLED_ITEM ( 'NONE', ( #157 ), #237 ) ;
#188 =( NAMED_UNIT ( * ) PLANE_ANGLE_UNIT ( ) SI_UNIT ( $, .RADIAN. ) );
#189 = PRODUCT_DEFINITION_SHAPE ( 'NONE', 'NONE',  #265 ) ;
#190 = FILL_AREA_STYLE_COLOUR ( '', #298 ) ;
#191 = ADVANCED_FACE ( 'NONE', ( #342 ), #302, .T. ) ;
#192 = CARTESIAN_POINT ( 'NONE',  ( -1.148106374200644017E-17, 0.09375000000000002776, 0.000000000000000000 ) ) ;
#193 = LENGTH_MEASURE_WITH_UNIT ( LENGTH_MEASURE( 0.02539999999999999897 ), #243 );
#194 = AXIS2_PLACEMENT_3D ( 'NONE', #297, #101, #75 ) ;
#195 = CARTESIAN_POINT ( 'NONE',  ( -0.09375000000000006939, 2.500000000000000000, 0.000000000000000000 ) ) ;
#196 = LINE ( 'NONE', #206, #328 ) ;
#197 = FILL_AREA_STYLE_COLOUR ( '', #360 ) ;
#198 = ORIENTED_EDGE ( 'NONE', *, *, #345, .T. ) ;
#199 = DIRECTION ( 'NONE',  ( -1.224646799147353207E-16, 1.000000000000000000, -0.000000000000000000 ) ) ;
#200 = ORIENTED_EDGE ( 'NONE', *, *, #100, .F. ) ;
#201 = CIRCLE ( 'NONE', #231, 0.09375000000000001388 ) ;
#202 = CIRCLE ( 'NONE', #43, 0.09374999999999994449 ) ;
#203 = CARTESIAN_POINT ( 'NONE',  ( 1.760429773774320220E-16, 0.5625000000000001110, 0.000000000000000000 ) ) ;
#204 = ADVANCED_FACE ( 'NONE', ( #29 ), #340, .T. ) ;
#205 = DIRECTION ( 'NONE',  ( 1.224646799147353207E-16, -0.000000000000000000, 1.000000000000000000 ) ) ;
#206 = CARTESIAN_POINT ( 'NONE',  ( 1.148106374200643092E-17, 0.000000000000000000, 0.09374999999999995837 ) ) ;
#207 = CARTESIAN_POINT ( 'NONE',  ( 0.000000000000000000, 0.09375000000000004163, 0.000000000000000000 ) ) ;
#208 = ADVANCED_FACE ( 'NONE', ( #127 ), #209, .F. ) ;
#209 = PLANE ( 'NONE',  #194 ) ;
#210 = DIRECTION ( 'NONE',  ( 0.000000000000000000, 0.000000000000000000, -1.000000000000000000 ) ) ;
#211 = DIRECTION ( 'NONE',  ( 0.000000000000000000, 1.000000000000000000, 0.000000000000000000 ) ) ;
#212 = DIRECTION ( 'NONE',  ( -1.000000000000000000, 0.000000000000000000, 0.000000000000000000 ) ) ;
#213 = SURFACE_SIDE_STYLE ('',( #307 ) ) ;
#214 = LENGTH_MEASURE_WITH_UNIT ( LENGTH_MEASURE( 0.02539999999999999897 ), #242 );
#215 = DIRECTION ( 'NONE',  ( -1.000000000000000000, 0.000000000000000000, 0.000000000000000000 ) ) ;
#216 = LENGTH_MEASURE_WITH_UNIT ( LENGTH_MEASURE( 0.02539999999999999897 ), #282 );
#217 = CIRCLE ( 'NONE', #63, 0.09374999999999998612 ) ;
#218 = FILL_AREA_STYLE_COLOUR ( '', #280 ) ;
#219 = VERTEX_POINT ( 'NONE', #102 ) ;
#220 = DIRECTION ( 'NONE',  ( -1.000000000000000000, 0.000000000000000000, 0.000000000000000000 ) ) ;
#221 = UNCERTAINTY_MEASURE_WITH_UNIT (LENGTH_MEASURE( 1.000000000000000082E-05 ), #305, 'distance_accuracy_value', 'NONE');
#222 = DIRECTION ( 'NONE',  ( -1.224646799147353207E-16, 1.000000000000000000, -0.000000000000000000 ) ) ;
#223 = DIRECTION ( 'NONE',  ( 0.000000000000000000, 0.000000000000000000, -1.000000000000000000 ) ) ;
#224 = DIRECTION ( 'NONE',  ( 0.000000000000000000, 0.000000000000000000, 1.000000000000000000 ) ) ;
#225 = CARTESIAN_POINT ( 'NONE',  ( 0.000000000000000000, 0.000000000000000000, 0.000000000000000000 ) ) ;
#226 = ORIENTED_EDGE ( 'NONE', *, *, #332, .T. ) ;
#227 =( LENGTH_UNIT ( ) NAMED_UNIT ( * ) SI_UNIT ( $, .METRE. ) );
#228 = ORIENTED_EDGE ( 'NONE', *, *, #117, .T. ) ;
#229 = DIRECTION ( 'NONE',  ( -1.224646799147353207E-16, 1.000000000000000000, -0.000000000000000000 ) ) ;
#230 = DIRECTION ( 'NONE',  ( 0.000000000000000000, 0.000000000000000000, -1.000000000000000000 ) ) ;
#231 = AXIS2_PLACEMENT_3D ( 'NONE', #300, #185, #215 ) ;
#232 = SURFACE_STYLE_FILL_AREA ( #124 ) ;
#233 = ORIENTED_EDGE ( 'NONE', *, *, #78, .F. ) ;
#234 =( LENGTH_UNIT ( ) NAMED_UNIT ( * ) SI_UNIT ( $, .METRE. ) );
#235 = AXIS2_PLACEMENT_3D ( 'NONE', #225, #172, #313 ) ;
#236 =( NAMED_UNIT ( * ) PLANE_ANGLE_UNIT ( ) SI_UNIT ( $, .RADIAN. ) );
#237 = ADVANCED_FACE ( 'NONE', ( #299 ), #163, .T. ) ;
#238 = SURFACE_SIDE_STYLE ('',( #97 ) ) ;
#239 =( NAMED_UNIT ( * ) SI_UNIT ( $, .STERADIAN. ) SOLID_ANGLE_UNIT ( ) );
#240 =( GEOMETRIC_REPRESENTATION_CONTEXT ( 3 ) GLOBAL_UNCERTAINTY_ASSIGNED_CONTEXT ( ( #141 ) ) GLOBAL_UNIT_ASSIGNED_CONTEXT ( ( #334, #56, #258 ) ) REPRESENTATION_CONTEXT ( 'NONE', 'WORKASPACE' ) );
#241 = SURFACE_STYLE_USAGE ( .BOTH. , #89 ) ;
#242 =( LENGTH_UNIT ( ) NAMED_UNIT ( * ) SI_UNIT ( $, .METRE. ) );
#243 =( LENGTH_UNIT ( ) NAMED_UNIT ( * ) SI_UNIT ( $, .METRE. ) );
#244 = ADVANCED_FACE ( 'NONE', ( #77 ), #253, .T. ) ;
#245 = ORIENTED_EDGE ( 'NONE', *, *, #306, .F. ) ;
#246 = DIRECTION ( 'NONE',  ( 0.000000000000000000, 0.000000000000000000, -1.000000000000000000 ) ) ;
#247 = FILL_AREA_STYLE ('',( #190 ) ) ;
#248 = MECHANICAL_DESIGN_GEOMETRIC_PRESENTATION_REPRESENTATION (  '', ( #159 ), #240 ) ;
#249 = LENGTH_MEASURE_WITH_UNIT ( LENGTH_MEASURE( 0.02539999999999999897 ), #84 );
#250 = CIRCLE ( 'NONE', #20, 0.09374999999999994449 ) ;
#251 = SURFACE_STYLE_FILL_AREA ( #336 ) ;
#252 = UNCERTAINTY_MEASURE_WITH_UNIT (LENGTH_MEASURE( 1.000000000000000082E-05 ), #93, 'distance_accuracy_value', 'NONE');
#253 = CYLINDRICAL_SURFACE ( 'NONE', #47, 0.09374999999999995837 ) ;
#254 =( LENGTH_UNIT ( ) NAMED_UNIT ( * ) SI_UNIT ( $, .METRE. ) );
#255 = ORIENTED_EDGE ( 'NONE', *, *, #9, .F. ) ;
#256 = STYLED_ITEM ( 'NONE', ( #173 ), #270 ) ;
#257 = CARTESIAN_POINT ( 'NONE',  ( 1.148106374200642938E-17, 0.5625000000000000000, 0.09374999999999994449 ) ) ;
#258 =( NAMED_UNIT ( * ) SI_UNIT ( $, .STERADIAN. ) SOLID_ANGLE_UNIT ( ) );
#259 = EDGE_LOOP ( 'NONE', ( #165, #226, #228, #245, #37 ) ) ;
#260 =( NAMED_UNIT ( * ) PLANE_ANGLE_UNIT ( ) SI_UNIT ( $, .RADIAN. ) );
#261 = CARTESIAN_POINT ( 'NONE',  ( 0.000000000000000000, 0.000000000000000000, 0.000000000000000000 ) ) ;
#262 = FILL_AREA_STYLE_COLOUR ( '', #6 ) ;
#263 = PRESENTATION_LAYER_ASSIGNMENT (  '', '', ( #54 ) ) ;
#264 = PRODUCT_CONTEXT ( 'NONE', #314, 'mechanical' ) ;
#265 = PRODUCT_DEFINITION ( 'UNKNOWN', '', #18, #373 ) ;
#266 = AXIS2_PLACEMENT_3D ( 'NONE', #359, #205, #177 ) ;
#267 = COLOUR_RGB ( '',1.000000000000000000, 0.000000000000000000, 0.000000000000000000 ) ;
#268 = PRESENTATION_LAYER_ASSIGNMENT (  '', '', ( #110 ) ) ;
#269 = VERTEX_POINT ( 'NONE', #12 ) ;
#270 = ADVANCED_FACE ( 'NONE', ( #59 ), #290, .T. ) ;
#271 = CARTESIAN_POINT ( 'NONE',  ( 0.09374999999999991673, 0.5625000000000001110, 1.148106374200642938E-17 ) ) ;
#272 = SURFACE_STYLE_USAGE ( .BOTH. , #213 ) ;
#273 = VERTEX_POINT ( 'NONE', #195 ) ;
#274 = CARTESIAN_POINT ( 'NONE',  ( -1.148106374200644017E-17, 0.09375000000000002776, 0.000000000000000000 ) ) ;
#275 = ORIENTED_EDGE ( 'NONE', *, *, #142, .T. ) ;
#276 = PRODUCT ( '17105', '17105', '', ( #264 ) ) ;
#277 = DIRECTION ( 'NONE',  ( 1.224646799147353207E-16, -1.000000000000000000, 0.000000000000000000 ) ) ;
#278 = UNCERTAINTY_MEASURE_WITH_UNIT (LENGTH_MEASURE( 1.000000000000000082E-05 ), #25, 'distance_accuracy_value', 'NONE');
#279 =( NAMED_UNIT ( * ) SI_UNIT ( $, .STERADIAN. ) SOLID_ANGLE_UNIT ( ) );
#280 = COLOUR_RGB ( '',0.7921568627450980005, 0.8196078431372548767, 0.9333333333333333481 ) ;
#281 = CARTESIAN_POINT ( 'NONE',  ( 0.000000000000000000, 0.5625000000000000000, 0.000000000000000000 ) ) ;
#282 =( LENGTH_UNIT ( ) NAMED_UNIT ( * ) SI_UNIT ( $, .METRE. ) );
#283 = DIRECTION ( 'NONE',  ( 0.000000000000000000, 0.000000000000000000, -1.000000000000000000 ) ) ;
#284 = CIRCLE ( 'NONE', #337, 0.09374999999999998612 ) ;
#285 = VERTEX_POINT ( 'NONE', #257 ) ;
#286 = MECHANICAL_DESIGN_GEOMETRIC_PRESENTATION_REPRESENTATION (  '', ( #256 ), #129 ) ;
#287 = FILL_AREA_STYLE_COLOUR ( '', #162 ) ;
#288 = VERTEX_POINT ( 'NONE', #30 ) ;
#289 = DIRECTION ( 'NONE',  ( -0.000000000000000000, -1.000000000000000000, -0.000000000000000000 ) ) ;
#290 = CYLINDRICAL_SURFACE ( 'NONE', #19, 0.09374999999999995837 ) ;
#291 = ORIENTED_EDGE ( 'NONE', *, *, #44, .F. ) ;
#292 = DIRECTION ( 'NONE',  ( -1.224646799147353207E-16, 1.000000000000000000, -0.000000000000000000 ) ) ;
#293 = DIMENSIONAL_EXPONENTS ( 1.000000000000000000, 0.000000000000000000, 0.000000000000000000, 0.000000000000000000, 0.000000000000000000, 0.000000000000000000, 0.000000000000000000 ) ;
#294 = EDGE_CURVE ( 'NONE', #288, #273, #171, .T. ) ;
#295 = AXIS2_PLACEMENT_3D ( 'NONE', #38, #292, #150 ) ;
#296 = MECHANICAL_DESIGN_GEOMETRIC_PRESENTATION_REPRESENTATION (  '', ( #24 ), #123 ) ;
#297 = CARTESIAN_POINT ( 'NONE',  ( 1.760429773774320220E-16, 0.5625000000000000000, 0.000000000000000000 ) ) ;
#298 = COLOUR_RGB ( '',1.000000000000000000, 0.000000000000000000, 0.000000000000000000 ) ;
#299 = FACE_OUTER_BOUND ( 'NONE', #92, .T. ) ;
#300 = CARTESIAN_POINT ( 'NONE',  ( -6.123233995736766036E-17, 2.500000000000000000, 0.000000000000000000 ) ) ;
#301 =( NAMED_UNIT ( * ) SI_UNIT ( $, .STERADIAN. ) SOLID_ANGLE_UNIT ( ) );
#302 = CYLINDRICAL_SURFACE ( 'NONE', #317, 0.09374999999999988898 ) ;
#303 =( GEOMETRIC_REPRESENTATION_CONTEXT ( 3 ) GLOBAL_UNCERTAINTY_ASSIGNED_CONTEXT ( ( #52 ) ) GLOBAL_UNIT_ASSIGNED_CONTEXT ( ( #311, #183, #301 ) ) REPRESENTATION_CONTEXT ( 'NONE', 'WORKASPACE' ) );
#304 = ORIENTED_EDGE ( 'NONE', *, *, #345, .F. ) ;
#305 =( CONVERSION_BASED_UNIT ( 'INCH', #216 ) LENGTH_UNIT ( ) NAMED_UNIT ( #132 ) );
#306 = EDGE_CURVE ( 'NONE', #64, #112, #217, .T. ) ;
#307 = SURFACE_STYLE_FILL_AREA ( #247 ) ;
#308 = DIRECTION ( 'NONE',  ( 0.000000000000000000, 0.000000000000000000, 1.000000000000000000 ) ) ;
#309 = LENGTH_MEASURE_WITH_UNIT ( LENGTH_MEASURE( 0.02539999999999999897 ), #234 );
#310 = PRESENTATION_LAYER_ASSIGNMENT (  '', '', ( #187 ) ) ;
#311 =( CONVERSION_BASED_UNIT ( 'INCH', #193 ) LENGTH_UNIT ( ) NAMED_UNIT ( #41 ) );
#312 = ORIENTED_EDGE ( 'NONE', *, *, #180, .T. ) ;
#313 = DIRECTION ( 'NONE',  ( 1.000000000000000000, 0.000000000000000000, 0.000000000000000000 ) ) ;
#314 = APPLICATION_CONTEXT ( 'automotive_design' ) ;
#315 = ORIENTED_EDGE ( 'NONE', *, *, #9, .T. ) ;
#316 = DIRECTION ( 'NONE',  ( -0.000000000000000000, -1.000000000000000000, -0.000000000000000000 ) ) ;
#317 = AXIS2_PLACEMENT_3D ( 'NONE', #133, #137, #161 ) ;
#318 = FILL_AREA_STYLE ('',( #104 ) ) ;
#319 = SURFACE_STYLE_USAGE ( .BOTH. , #95 ) ;
#320 = DIRECTION ( 'NONE',  ( 0.000000000000000000, 0.000000000000000000, -1.000000000000000000 ) ) ;
#321 =( CONVERSION_BASED_UNIT ( 'INCH', #121 ) LENGTH_UNIT ( ) NAMED_UNIT ( #72 ) );
#322 = DIRECTION ( 'NONE',  ( -0.000000000000000000, -1.000000000000000000, -0.000000000000000000 ) ) ;
#323 = DIRECTION ( 'NONE',  ( -0.000000000000000000, -1.000000000000000000, -0.000000000000000000 ) ) ;
#324 = AXIS2_PLACEMENT_3D ( 'NONE', #23, #113, #220 ) ;
#325 = UNCERTAINTY_MEASURE_WITH_UNIT (LENGTH_MEASURE( 1.000000000000000082E-05 ), #321, 'distance_accuracy_value', 'NONE');
#326 = ADVANCED_FACE ( 'NONE', ( #365 ), #87, .T. ) ;
#327 = CARTESIAN_POINT ( 'NONE',  ( -0.09375000000000002776, 0.09375000000000004163, 1.148106374200643555E-17 ) ) ;
#328 = VECTOR ( 'NONE', #322, 39.37007874015748143 ) ;
#329 = PRESENTATION_LAYER_ASSIGNMENT (  '', '', ( #122 ) ) ;
#330 = PRESENTATION_LAYER_ASSIGNMENT (  '', '', ( #24 ) ) ;
#331 = PRESENTATION_STYLE_ASSIGNMENT (( #69 ) ) ;
#332 = EDGE_CURVE ( 'NONE', #285, #61, #202, .T. ) ;
#333 =( NAMED_UNIT ( * ) SI_UNIT ( $, .STERADIAN. ) SOLID_ANGLE_UNIT ( ) );
#334 =( CONVERSION_BASED_UNIT ( 'INCH', #214 ) LENGTH_UNIT ( ) NAMED_UNIT ( #68 ) );
#335 = SURFACE_SIDE_STYLE ('',( #26 ) ) ;
#336 = FILL_AREA_STYLE ('',( #218 ) ) ;
#337 = AXIS2_PLACEMENT_3D ( 'NONE', #79, #40, #103 ) ;
#338 = CARTESIAN_POINT ( 'NONE',  ( 0.09374999999999998612, 0.09375000000000004163, 0.000000000000000000 ) ) ;
#339 = EDGE_LOOP ( 'NONE', ( #291, #8 ) ) ;
#340 = PLANE ( 'NONE',  #351 ) ;
#341 = CARTESIAN_POINT ( 'NONE',  ( 0.000000000000000000, 0.5625000000000000000, 0.000000000000000000 ) ) ;
#342 = FACE_OUTER_BOUND ( 'NONE', #368, .T. ) ;
#343 = MECHANICAL_DESIGN_GEOMETRIC_PRESENTATION_REPRESENTATION (  '', ( #122 ), #128 ) ;
#344 = CIRCLE ( 'NONE', #324, 0.09375000000000001388 ) ;
#345 = EDGE_CURVE ( 'NONE', #61, #285, #250, .T. ) ;
#346 = CARTESIAN_POINT ( 'NONE',  ( -1.148106374200644017E-17, 0.09375000000000002776, 0.000000000000000000 ) ) ;
#347 = CARTESIAN_POINT ( 'NONE',  ( 0.000000000000000000, 0.09375000000000004163, 0.000000000000000000 ) ) ;
#348 = CARTESIAN_POINT ( 'NONE',  ( -0.09374999999999995837, 2.500000000000000000, 0.000000000000000000 ) ) ;
#349 = LENGTH_MEASURE_WITH_UNIT ( LENGTH_MEASURE( 0.02539999999999999897 ), #254 );
#350 = CARTESIAN_POINT ( 'NONE',  ( 0.000000000000000000, 0.000000000000000000, 0.000000000000000000 ) ) ;
#351 = AXIS2_PLACEMENT_3D ( 'NONE', #17, #211, #357 ) ;
#352 =( NAMED_UNIT ( * ) SI_UNIT ( $, .STERADIAN. ) SOLID_ANGLE_UNIT ( ) );
#353 = CYLINDRICAL_SURFACE ( 'NONE', #295, 0.09374999999999988898 ) ;
#354 = ADVANCED_FACE ( 'NONE', ( #98 ), #353, .T. ) ;
#355 = CIRCLE ( 'NONE', #34, 0.09374999999999976408 ) ;
#356 = EDGE_CURVE ( 'NONE', #285, #152, #196, .T. ) ;
#357 = DIRECTION ( 'NONE',  ( 0.000000000000000000, -0.000000000000000000, 1.000000000000000000 ) ) ;
#358 = APPLICATION_CONTEXT ( 'automotive_design' ) ;
#359 = CARTESIAN_POINT ( 'NONE',  ( -1.148106374200644017E-17, 0.09375000000000002776, 0.000000000000000000 ) ) ;
#360 = COLOUR_RGB ( '',1.000000000000000000, 0.000000000000000000, 0.000000000000000000 ) ;
#361 = LINE ( 'NONE', #143, #76 ) ;
#362 = FACE_OUTER_BOUND ( 'NONE', #144, .T. ) ;
#363 = SURFACE_STYLE_USAGE ( .BOTH. , #114 ) ;
#364 = EDGE_CURVE ( 'NONE', #116, #288, #186, .T. ) ;
#365 = FACE_OUTER_BOUND ( 'NONE', #58, .T. ) ;
#366 = DIRECTION ( 'NONE',  ( 1.000000000000000000, 1.224646799147353207E-16, 0.000000000000000000 ) ) ;
#367 = AXIS2_PLACEMENT_3D ( 'NONE', #203, #199, #70 ) ;
#368 = EDGE_LOOP ( 'NONE', ( #138, #275, #164, #11 ) ) ;
#369 = CIRCLE ( 'NONE', #184, 0.09374999999999998612 ) ;
#370 = AXIS2_PLACEMENT_3D ( 'NONE', #274, #86, #139 ) ;
#371 = AXIS2_PLACEMENT_3D ( 'NONE', #192, #308, #55 ) ;
#372 =( NAMED_UNIT ( * ) PLANE_ANGLE_UNIT ( ) SI_UNIT ( $, .RADIAN. ) );
#373 = PRODUCT_DEFINITION_CONTEXT ( 'detailed design', #358, 'design' ) ;
ENDSEC;
END-ISO-10303-21;
