ISO-10303-21;
HEADER;
FILE_DESCRIPTION (( 'STEP AP214' ),
    '1' );
FILE_NAME ('Micro_GEM-093-3X.STEP',
    '2021-09-01T19:18:36',
    ( '' ),
    ( '' ),
    'SwSTEP 2.0',
    'SolidWorks 2020',
    '' );
FILE_SCHEMA (( 'AUTOMOTIVE_DESIGN' ));
ENDSEC;

DATA;
#1 =( LENGTH_UNIT ( ) NAMED_UNIT ( * ) SI_UNIT ( $, .METRE. ) );
#2 = FACE_OUTER_BOUND ( 'NONE', #257, .T. ) ;
#3 = EDGE_CURVE ( 'NONE', #244, #181, #251, .T. ) ;
#4 = ORIENTED_EDGE ( 'NONE', *, *, #142, .F. ) ;
#5 = AXIS2_PLACEMENT_3D ( 'NONE', #166, #281, #72 ) ;
#6 = EDGE_LOOP ( 'NONE', ( #110, #40, #246, #63 ) ) ;
#7 = DIRECTION ( 'NONE',  ( 1.000000000000000000, 0.0000000000000000000, 0.0000000000000000000 ) ) ;
#8 = DIRECTION ( 'NONE',  ( 0.0000000000000000000, 0.0000000000000000000, 1.000000000000000000 ) ) ;
#9 = ORIENTED_EDGE ( 'NONE', *, *, #10, .T. ) ;
#10 = EDGE_CURVE ( 'NONE', #242, #48, #73, .T. ) ;
#11 = DIRECTION ( 'NONE',  ( -0.0000000000000000000, -0.0000000000000000000, -1.000000000000000000 ) ) ;
#12 = EDGE_CURVE ( 'NONE', #242, #153, #149, .T. ) ;
#13 = DIRECTION ( 'NONE',  ( 1.000000000000000000, 0.0000000000000000000, 0.0000000000000000000 ) ) ;
#14 =( LENGTH_UNIT ( ) NAMED_UNIT ( * ) SI_UNIT ( $, .METRE. ) );
#15 = VERTEX_POINT ( 'NONE', #204 ) ;
#16 = CIRCLE ( 'NONE', #291, 0.06250000000000002776 ) ;
#17 = PRODUCT_DEFINITION_SHAPE ( 'NONE', 'NONE',  #207 ) ;
#18 = DIRECTION ( 'NONE',  ( 0.0000000000000000000, 0.0000000000000000000, -1.000000000000000000 ) ) ;
#19 =( GEOMETRIC_REPRESENTATION_CONTEXT ( 3 ) GLOBAL_UNCERTAINTY_ASSIGNED_CONTEXT ( ( #133 ) ) GLOBAL_UNIT_ASSIGNED_CONTEXT ( ( #255, #191, #277 ) ) REPRESENTATION_CONTEXT ( 'NONE', 'WORKASPACE' ) );
#20 = ORIENTED_EDGE ( 'NONE', *, *, #247, .F. ) ;
#21 = DIRECTION ( 'NONE',  ( -1.000000000000000000, 0.0000000000000000000, 0.0000000000000000000 ) ) ;
#22 = EDGE_CURVE ( 'NONE', #292, #153, #143, .T. ) ;
#23 = CARTESIAN_POINT ( 'NONE',  ( 0.0000000000000000000, 0.0000000000000000000, 1.500000000000000222 ) ) ;
#24 = LINE ( 'NONE', #208, #26 ) ;
#25 = APPLICATION_CONTEXT ( 'automotive_design' ) ;
#26 = VECTOR ( 'NONE', #140, 39.37007874015748854 ) ;
#27 = CIRCLE ( 'NONE', #65, 0.04750000000000064587 ) ;
#28 = DIRECTION ( 'NONE',  ( 0.0000000000000000000, 0.0000000000000000000, -1.000000000000000000 ) ) ;
#29 = CARTESIAN_POINT ( 'NONE',  ( -0.04750000000000064587, 0.0000000000000000000, 1.500000000000000222 ) ) ;
#30 = DIRECTION ( 'NONE',  ( -1.224646799147353700E-16, -0.0000000000000000000, -1.000000000000000000 ) ) ;
#31 = ORIENTED_EDGE ( 'NONE', *, *, #232, .F. ) ;
#32 = ORIENTED_EDGE ( 'NONE', *, *, #118, .T. ) ;
#33 = ORIENTED_EDGE ( 'NONE', *, *, #113, .F. ) ;
#34 = ADVANCED_FACE ( 'NONE', ( #176 ), #245, .T. ) ;
#35 = AXIS2_PLACEMENT_3D ( 'NONE', #60, #130, #7 ) ;
#36 = FACE_OUTER_BOUND ( 'NONE', #215, .T. ) ;
#37 = SURFACE_STYLE_FILL_AREA ( #220 ) ;
#38 = ORIENTED_EDGE ( 'NONE', *, *, #193, .F. ) ;
#39 = FACE_OUTER_BOUND ( 'NONE', #6, .T. ) ;
#40 = ORIENTED_EDGE ( 'NONE', *, *, #142, .T. ) ;
#41 = FACE_OUTER_BOUND ( 'NONE', #107, .T. ) ;
#42 = DIRECTION ( 'NONE',  ( 1.224646799147353700E-16, 0.0000000000000000000, 1.000000000000000000 ) ) ;
#43 = CIRCLE ( 'NONE', #175, 0.04685310000000000169 ) ;
#44 = ADVANCED_FACE ( 'NONE', ( #173 ), #87, .T. ) ;
#45 = CARTESIAN_POINT ( 'NONE',  ( 7.026839507303433011E-34, 0.0000000000000000000, 5.737849894513087439E-18 ) ) ;
#46 = CARTESIAN_POINT ( 'NONE',  ( 7.026839507303433011E-34, 0.0000000000000000000, 5.737849894513087439E-18 ) ) ;
#47 = CIRCLE ( 'NONE', #5, 0.04685310000000000169 ) ;
#48 = VERTEX_POINT ( 'NONE', #81 ) ;
#49 = VECTOR ( 'NONE', #223, 39.37007874015748143 ) ;
#50 = PRESENTATION_STYLE_ASSIGNMENT (( #278 ) ) ;
#51 = DIRECTION ( 'NONE',  ( -1.000000000000000000, 0.0000000000000000000, 0.0000000000000000000 ) ) ;
#52 = DIMENSIONAL_EXPONENTS ( 1.000000000000000000, 0.0000000000000000000, 0.0000000000000000000, 0.0000000000000000000, 0.0000000000000000000, 0.0000000000000000000, 0.0000000000000000000 ) ;
#53 = DIRECTION ( 'NONE',  ( -0.1736481776669311916, 2.126576849575783316E-17, 0.9848077530122080203 ) ) ;
#54 = CLOSED_SHELL ( 'NONE', ( #134, #44, #93, #68, #296, #34, #275, #144, #163, #270 ) ) ;
#55 =( GEOMETRIC_REPRESENTATION_CONTEXT ( 3 ) GLOBAL_UNCERTAINTY_ASSIGNED_CONTEXT ( ( #297 ) ) GLOBAL_UNIT_ASSIGNED_CONTEXT ( ( #187, #276, #70 ) ) REPRESENTATION_CONTEXT ( 'NONE', 'WORKASPACE' ) );
#56 = ORIENTED_EDGE ( 'NONE', *, *, #92, .T. ) ;
#57 = DIRECTION ( 'NONE',  ( 1.000000000000000000, 0.0000000000000000000, -0.0000000000000000000 ) ) ;
#58 = CONICAL_SURFACE ( 'NONE', #221, 0.04685310000000000169, 0.1745329251994338915 ) ;
#59 = CARTESIAN_POINT ( 'NONE',  ( 0.04685310000000004332, 0.0000000000000000000, 0.3750000000000000555 ) ) ;
#60 = CARTESIAN_POINT ( 'NONE',  ( 5.679152322418705982E-17, 0.0000000000000000000, 0.4637379795033760299 ) ) ;
#61 = EDGE_CURVE ( 'NONE', #231, #292, #230, .T. ) ;
#62 = DIRECTION ( 'NONE',  ( 0.0000000000000000000, 0.0000000000000000000, 1.000000000000000000 ) ) ;
#63 = ORIENTED_EDGE ( 'NONE', *, *, #61, .F. ) ;
#64 = SURFACE_STYLE_FILL_AREA ( #183 ) ;
#65 = AXIS2_PLACEMENT_3D ( 'NONE', #23, #88, #159 ) ;
#66 = LINE ( 'NONE', #122, #136 ) ;
#67 = ORIENTED_EDGE ( 'NONE', *, *, #248, .T. ) ;
#68 = ADVANCED_FACE ( 'NONE', ( #39 ), #266, .T. ) ;
#69 = AXIS2_PLACEMENT_3D ( 'NONE', #83, #243, #21 ) ;
#70 =( NAMED_UNIT ( * ) SI_UNIT ( $, .STERADIAN. ) SOLID_ANGLE_UNIT ( ) );
#71 = UNCERTAINTY_MEASURE_WITH_UNIT (LENGTH_MEASURE( 1.000000000000000082E-05 ), #263, 'distance_accuracy_value', 'NONE');
#72 = DIRECTION ( 'NONE',  ( -1.000000000000000000, 0.0000000000000000000, 0.0000000000000000000 ) ) ;
#73 = CIRCLE ( 'NONE', #69, 0.04685310000000000169 ) ;
#74 = DIRECTION ( 'NONE',  ( 0.0000000000000000000, 0.0000000000000000000, 1.000000000000000000 ) ) ;
#75 = DIRECTION ( 'NONE',  ( 0.0000000000000000000, 0.0000000000000000000, -1.000000000000000000 ) ) ;
#76 = AXIS2_PLACEMENT_3D ( 'NONE', #273, #177, #271 ) ;
#77 = EDGE_LOOP ( 'NONE', ( #31, #9, #203, #286 ) ) ;
#78 = PRODUCT_DEFINITION_FORMATION_WITH_SPECIFIED_SOURCE ( 'ANY', '', #269, .NOT_KNOWN. ) ;
#79 = ORIENTED_EDGE ( 'NONE', *, *, #92, .F. ) ;
#80 = DIRECTION ( 'NONE',  ( 1.000000000000000000, 0.0000000000000000000, 0.0000000000000000000 ) ) ;
#81 = CARTESIAN_POINT ( 'NONE',  ( -0.04685309999999995312, 6.695946194592023262E-18, 0.3750000000000000555 ) ) ;
#82 = STYLED_ITEM ( 'NONE', ( #199 ), #131 ) ;
#83 = CARTESIAN_POINT ( 'NONE',  ( 4.592425496802576684E-17, 0.0000000000000000000, 0.3750000000000000555 ) ) ;
#84 = CARTESIAN_POINT ( 'NONE',  ( 0.0000000000000000000, 0.0000000000000000000, 1.500000000000000222 ) ) ;
#85 = ORIENTED_EDGE ( 'NONE', *, *, #171, .T. ) ;
#86 = CARTESIAN_POINT ( 'NONE',  ( -0.06250000000000002776, 0.0000000000000000000, 1.500000000000000222 ) ) ;
#87 = CONICAL_SURFACE ( 'NONE', #186, 0.04685310000000000169, 0.1745329251994338915 ) ;
#88 = DIRECTION ( 'NONE',  ( 0.0000000000000000000, 0.0000000000000000000, 1.000000000000000000 ) ) ;
#89 = AXIS2_PLACEMENT_3D ( 'NONE', #109, #293, #80 ) ;
#90 = PRESENTATION_LAYER_ASSIGNMENT (  '', '', ( #101 ) ) ;
#91 =( LENGTH_UNIT ( ) NAMED_UNIT ( * ) SI_UNIT ( $, .METRE. ) );
#92 = EDGE_CURVE ( 'NONE', #153, #292, #108, .T. ) ;
#93 = ADVANCED_FACE ( 'NONE', ( #129 ), #262, .T. ) ;
#94 = CARTESIAN_POINT ( 'NONE',  ( 0.04685310000000000169, 5.737849894513085128E-18, -5.737849894513087439E-18 ) ) ;
#95 = CARTESIAN_POINT ( 'NONE',  ( 0.04750000000000064587, 6.735557395310483192E-18, 1.500000000000000222 ) ) ;
#96 = VECTOR ( 'NONE', #198, 39.37007874015748143 ) ;
#97 = LENGTH_MEASURE_WITH_UNIT ( LENGTH_MEASURE( 0.02539999999999999897 ), #1 );
#98 = CYLINDRICAL_SURFACE ( 'NONE', #240, 0.06250000000000002776 ) ;
#99 = PRODUCT_CONTEXT ( 'NONE', #174, 'mechanical' ) ;
#100 = ORIENTED_EDGE ( 'NONE', *, *, #22, .T. ) ;
#101 = STYLED_ITEM ( 'NONE', ( #50 ), #179 ) ;
#102 = DIRECTION ( 'NONE',  ( -0.0000000000000000000, -0.0000000000000000000, -1.000000000000000000 ) ) ;
#103 = SURFACE_SIDE_STYLE ('',( #37 ) ) ;
#104 = CARTESIAN_POINT ( 'NONE',  ( 0.0000000000000000000, 0.0000000000000000000, 1.500000000000000222 ) ) ;
#105 = CARTESIAN_POINT ( 'NONE',  ( 0.0000000000000000000, 0.0000000000000000000, 0.0000000000000000000 ) ) ;
#106 = LINE ( 'NONE', #249, #267 ) ;
#107 = EDGE_LOOP ( 'NONE', ( #264, #226, #158, #150 ) ) ;
#108 = CIRCLE ( 'NONE', #274, 0.06250000000000002776 ) ;
#109 = CARTESIAN_POINT ( 'NONE',  ( 0.0000000000000000000, 0.0000000000000000000, 1.485000000000000764 ) ) ;
#110 = ORIENTED_EDGE ( 'NONE', *, *, #214, .T. ) ;
#111 = DIRECTION ( 'NONE',  ( 0.7071067811865462405, 8.659560562354916834E-17, -0.7071067811865486830 ) ) ;
#112 = ORIENTED_EDGE ( 'NONE', *, *, #10, .F. ) ;
#113 = EDGE_CURVE ( 'NONE', #15, #231, #190, .T. ) ;
#114 = DIMENSIONAL_EXPONENTS ( 1.000000000000000000, 0.0000000000000000000, 0.0000000000000000000, 0.0000000000000000000, 0.0000000000000000000, 0.0000000000000000000, 0.0000000000000000000 ) ;
#115 = VECTOR ( 'NONE', #102, 39.37007874015748143 ) ;
#116 = CARTESIAN_POINT ( 'NONE',  ( 0.04685310000000000169, 5.737849894513085128E-18, 0.0000000000000000000 ) ) ;
#117 = CARTESIAN_POINT ( 'NONE',  ( 0.04685310000000004332, 0.0000000000000000000, 0.3750000000000000555 ) ) ;
#118 = EDGE_CURVE ( 'NONE', #250, #15, #106, .T. ) ;
#119 = DIRECTION ( 'NONE',  ( -1.000000000000000000, 0.0000000000000000000, 1.224646799147353700E-16 ) ) ;
#120 = EDGE_LOOP ( 'NONE', ( #4, #236, #169, #79 ) ) ;
#121 = AXIS2_PLACEMENT_3D ( 'NONE', #127, #18, #268 ) ;
#122 = CARTESIAN_POINT ( 'NONE',  ( -0.04685310000000000169, 0.0000000000000000000, 5.737849894513087439E-18 ) ) ;
#123 =( NAMED_UNIT ( * ) PLANE_ANGLE_UNIT ( ) SI_UNIT ( $, .RADIAN. ) );
#124 = ORIENTED_EDGE ( 'NONE', *, *, #171, .F. ) ;
#125 = CARTESIAN_POINT ( 'NONE',  ( 4.592425496802576684E-17, 0.0000000000000000000, 0.3750000000000000555 ) ) ;
#126 = EDGE_LOOP ( 'NONE', ( #85, #67 ) ) ;
#127 = CARTESIAN_POINT ( 'NONE',  ( 0.0000000000000000000, 0.0000000000000000000, 1.500000000000000222 ) ) ;
#128 = ORIENTED_EDGE ( 'NONE', *, *, #12, .T. ) ;
#129 = FACE_OUTER_BOUND ( 'NONE', #285, .T. ) ;
#130 = DIRECTION ( 'NONE',  ( -1.224646799147353700E-16, -0.0000000000000000000, -1.000000000000000000 ) ) ;
#131 = ADVANCED_BREP_SHAPE_REPRESENTATION ( 'Micro_GEM-093-3X', ( #179, #217 ), #19 ) ;
#132 = CARTESIAN_POINT ( 'NONE',  ( -0.04685309999999995312, 5.737849894513085128E-18, 0.3750000000000000555 ) ) ;
#133 = UNCERTAINTY_MEASURE_WITH_UNIT (LENGTH_MEASURE( 1.000000000000000082E-05 ), #255, 'distance_accuracy_value', 'NONE');
#134 = ADVANCED_FACE ( 'NONE', ( #41 ), #295, .T. ) ;
#135 = CARTESIAN_POINT ( 'NONE',  ( 0.0000000000000000000, 0.0000000000000000000, 1.485000000000000764 ) ) ;
#136 = VECTOR ( 'NONE', #201, 39.37007874015748143 ) ;
#137 = DIMENSIONAL_EXPONENTS ( 1.000000000000000000, 0.0000000000000000000, 0.0000000000000000000, 0.0000000000000000000, 0.0000000000000000000, 0.0000000000000000000, 0.0000000000000000000 ) ;
#138 = EDGE_CURVE ( 'NONE', #48, #181, #66, .T. ) ;
#139 = LINE ( 'NONE', #132, #185 ) ;
#140 = DIRECTION ( 'NONE',  ( -0.7071067811865462405, 0.0000000000000000000, -0.7071067811865486830 ) ) ;
#141 = DIRECTION ( 'NONE',  ( -1.000000000000000000, 0.0000000000000000000, 0.0000000000000000000 ) ) ;
#142 = EDGE_CURVE ( 'NONE', #15, #153, #290, .T. ) ;
#143 = CIRCLE ( 'NONE', #35, 0.06250000000000002776 ) ;
#144 = ADVANCED_FACE ( 'NONE', ( #36 ), #58, .T. ) ;
#145 = SURFACE_STYLE_USAGE ( .BOTH. , #103 ) ;
#146 = ORIENTED_EDGE ( 'NONE', *, *, #12, .F. ) ;
#147 = ORIENTED_EDGE ( 'NONE', *, *, #214, .F. ) ;
#148 = CARTESIAN_POINT ( 'NONE',  ( 0.0000000000000000000, 0.0000000000000000000, 0.0000000000000000000 ) ) ;
#149 = LINE ( 'NONE', #59, #49 ) ;
#150 = ORIENTED_EDGE ( 'NONE', *, *, #138, .F. ) ;
#151 = CARTESIAN_POINT ( 'NONE',  ( 0.06250000000000002776, 7.654042494670959086E-18, 1.500000000000000222 ) ) ;
#152 = MECHANICAL_DESIGN_GEOMETRIC_PRESENTATION_REPRESENTATION (  '', ( #101 ), #55 ) ;
#153 = VERTEX_POINT ( 'NONE', #254 ) ;
#154 = AXIS2_PLACEMENT_3D ( 'NONE', #104, #11, #200 ) ;
#155 = AXIS2_PLACEMENT_3D ( 'NONE', #282, #74, #259 ) ;
#156 = SURFACE_SIDE_STYLE ('',( #64 ) ) ;
#157 = DIRECTION ( 'NONE',  ( -1.224646799147353700E-16, -0.0000000000000000000, -1.000000000000000000 ) ) ;
#158 = ORIENTED_EDGE ( 'NONE', *, *, #280, .F. ) ;
#159 = DIRECTION ( 'NONE',  ( 1.000000000000000000, 0.0000000000000000000, 0.0000000000000000000 ) ) ;
#160 = PRODUCT_DEFINITION_CONTEXT ( 'detailed design', #25, 'design' ) ;
#161 = PLANE ( 'NONE',  #155 ) ;
#162 = DIRECTION ( 'NONE',  ( 1.000000000000000000, 0.0000000000000000000, 0.0000000000000000000 ) ) ;
#163 = ADVANCED_FACE ( 'NONE', ( #170 ), #265, .T. ) ;
#164 = ORIENTED_EDGE ( 'NONE', *, *, #229, .F. ) ;
#165 = CARTESIAN_POINT ( 'NONE',  ( 0.0000000000000000000, 0.0000000000000000000, 1.500000000000000222 ) ) ;
#166 = CARTESIAN_POINT ( 'NONE',  ( 4.592425496802576684E-17, 0.0000000000000000000, 0.3750000000000000555 ) ) ;
#167 = FILL_AREA_STYLE_COLOUR ( '', #209 ) ;
#168 = PRODUCT_RELATED_PRODUCT_CATEGORY ( 'part', '', ( #269 ) ) ;
#169 = ORIENTED_EDGE ( 'NONE', *, *, #61, .T. ) ;
#170 = FACE_OUTER_BOUND ( 'NONE', #77, .T. ) ;
#171 = EDGE_CURVE ( 'NONE', #194, #250, #27, .T. ) ;
#172 =( NAMED_UNIT ( * ) SI_UNIT ( $, .STERADIAN. ) SOLID_ANGLE_UNIT ( ) );
#173 = FACE_OUTER_BOUND ( 'NONE', #272, .T. ) ;
#174 = APPLICATION_CONTEXT ( 'automotive_design' ) ;
#175 = AXIS2_PLACEMENT_3D ( 'NONE', #46, #30, #119 ) ;
#176 = FACE_OUTER_BOUND ( 'NONE', #126, .T. ) ;
#177 = DIRECTION ( 'NONE',  ( -1.224646799147353700E-16, -0.0000000000000000000, -1.000000000000000000 ) ) ;
#178 = DIRECTION ( 'NONE',  ( 1.000000000000000000, 0.0000000000000000000, 0.0000000000000000000 ) ) ;
#179 = MANIFOLD_SOLID_BREP ( 'Cut-Revolve1', #54 ) ;
#180 = VECTOR ( 'NONE', #258, 39.37007874015748143 ) ;
#181 = VERTEX_POINT ( 'NONE', #235 ) ;
#182 = AXIS2_PLACEMENT_3D ( 'NONE', #84, #62, #57 ) ;
#183 = FILL_AREA_STYLE ('',( #233 ) ) ;
#184 = LENGTH_MEASURE_WITH_UNIT ( LENGTH_MEASURE( 0.02539999999999999897 ), #91 );
#185 = VECTOR ( 'NONE', #53, 39.37007874015747433 ) ;
#186 = AXIS2_PLACEMENT_3D ( 'NONE', #125, #289, #178 ) ;
#187 =( CONVERSION_BASED_UNIT ( 'INCH', #184 ) LENGTH_UNIT ( ) NAMED_UNIT ( #137 ) );
#188 = FACE_OUTER_BOUND ( 'NONE', #120, .T. ) ;
#189 = DIRECTION ( 'NONE',  ( 0.0000000000000000000, 0.0000000000000000000, 1.000000000000000000 ) ) ;
#190 = CIRCLE ( 'NONE', #89, 0.06250000000000002776 ) ;
#191 =( NAMED_UNIT ( * ) PLANE_ANGLE_UNIT ( ) SI_UNIT ( $, .RADIAN. ) );
#192 = CARTESIAN_POINT ( 'NONE',  ( 0.0000000000000000000, 0.0000000000000000000, 1.500000000000000222 ) ) ;
#193 = EDGE_CURVE ( 'NONE', #194, #231, #24, .T. ) ;
#194 = VERTEX_POINT ( 'NONE', #29 ) ;
#195 = MECHANICAL_DESIGN_GEOMETRIC_PRESENTATION_REPRESENTATION (  '', ( #82 ), #212 ) ;
#196 = AXIS2_PLACEMENT_3D ( 'NONE', #148, #234, #256 ) ;
#197 = PRESENTATION_LAYER_ASSIGNMENT (  '', '', ( #82 ) ) ;
#198 = DIRECTION ( 'NONE',  ( -0.0000000000000000000, -0.0000000000000000000, -1.000000000000000000 ) ) ;
#199 = PRESENTATION_STYLE_ASSIGNMENT (( #145 ) ) ;
#200 = DIRECTION ( 'NONE',  ( -1.000000000000000000, 0.0000000000000000000, 0.0000000000000000000 ) ) ;
#201 = DIRECTION ( 'NONE',  ( -1.224646799147353700E-16, -0.0000000000000000000, -1.000000000000000000 ) ) ;
#202 = CIRCLE ( 'NONE', #227, 0.04750000000000064587 ) ;
#203 = ORIENTED_EDGE ( 'NONE', *, *, #138, .T. ) ;
#204 = CARTESIAN_POINT ( 'NONE',  ( 0.06250000000000002776, 7.654042494670959086E-18, 1.485000000000000764 ) ) ;
#205 = DIRECTION ( 'NONE',  ( -1.000000000000000000, 0.0000000000000000000, 1.224646799147353700E-16 ) ) ;
#206 = ORIENTED_EDGE ( 'NONE', *, *, #280, .T. ) ;
#207 = PRODUCT_DEFINITION ( 'UNKNOWN', '', #78, #160 ) ;
#208 = CARTESIAN_POINT ( 'NONE',  ( -0.04750000000000064587, 0.0000000000000000000, 1.500000000000000222 ) ) ;
#209 = COLOUR_RGB ( '',0.7921568627450980005, 0.8196078431372548767, 0.9333333333333333481 ) ;
#210 = LINE ( 'NONE', #94, #180 ) ;
#211 = AXIS2_PLACEMENT_3D ( 'NONE', #45, #228, #205 ) ;
#212 =( GEOMETRIC_REPRESENTATION_CONTEXT ( 3 ) GLOBAL_UNCERTAINTY_ASSIGNED_CONTEXT ( ( #71 ) ) GLOBAL_UNIT_ASSIGNED_CONTEXT ( ( #263, #123, #172 ) ) REPRESENTATION_CONTEXT ( 'NONE', 'WORKASPACE' ) );
#213 = EDGE_LOOP ( 'NONE', ( #294, #124, #261, #33 ) ) ;
#214 = EDGE_CURVE ( 'NONE', #231, #15, #16, .T. ) ;
#215 = EDGE_LOOP ( 'NONE', ( #20, #112, #128, #56 ) ) ;
#216 = DIRECTION ( 'NONE',  ( 1.000000000000000000, 0.0000000000000000000, 0.0000000000000000000 ) ) ;
#217 = AXIS2_PLACEMENT_3D ( 'NONE', #105, #8, #283 ) ;
#218 = CARTESIAN_POINT ( 'NONE',  ( -0.06249999999999996531, 0.0000000000000000000, 0.4637379795033760299 ) ) ;
#219 = ORIENTED_EDGE ( 'NONE', *, *, #248, .F. ) ;
#220 = FILL_AREA_STYLE ('',( #167 ) ) ;
#221 = AXIS2_PLACEMENT_3D ( 'NONE', #252, #42, #287 ) ;
#222 = ORIENTED_EDGE ( 'NONE', *, *, #247, .T. ) ;
#223 = DIRECTION ( 'NONE',  ( 0.1736481776669313859, 0.0000000000000000000, 0.9848077530122077983 ) ) ;
#224 = APPLICATION_PROTOCOL_DEFINITION ( 'draft international standard', 'automotive_design', 1998, #174 ) ;
#225 = CARTESIAN_POINT ( 'NONE',  ( 5.679152322418705982E-17, 0.0000000000000000000, 0.4637379795033760299 ) ) ;
#226 = ORIENTED_EDGE ( 'NONE', *, *, #232, .T. ) ;
#227 = AXIS2_PLACEMENT_3D ( 'NONE', #299, #189, #216 ) ;
#228 = DIRECTION ( 'NONE',  ( -1.224646799147353700E-16, -0.0000000000000000000, -1.000000000000000000 ) ) ;
#229 = EDGE_CURVE ( 'NONE', #48, #242, #47, .T. ) ;
#230 = LINE ( 'NONE', #86, #96 ) ;
#231 = VERTEX_POINT ( 'NONE', #239 ) ;
#232 = EDGE_CURVE ( 'NONE', #242, #244, #210, .T. ) ;
#233 = FILL_AREA_STYLE_COLOUR ( '', #238 ) ;
#234 = DIRECTION ( 'NONE',  ( -1.224646799147353700E-16, -0.0000000000000000000, -1.000000000000000000 ) ) ;
#235 = CARTESIAN_POINT ( 'NONE',  ( -0.04685310000000000169, 0.0000000000000000000, 1.147569978902617488E-17 ) ) ;
#236 = ORIENTED_EDGE ( 'NONE', *, *, #113, .T. ) ;
#237 = FACE_OUTER_BOUND ( 'NONE', #213, .T. ) ;
#238 = COLOUR_RGB ( '',0.7921568627450980005, 0.8196078431372548767, 0.9333333333333333481 ) ;
#239 = CARTESIAN_POINT ( 'NONE',  ( -0.06250000000000002776, 0.0000000000000000000, 1.485000000000000764 ) ) ;
#240 = AXIS2_PLACEMENT_3D ( 'NONE', #192, #279, #51 ) ;
#241 = SHAPE_DEFINITION_REPRESENTATION ( #17, #131 ) ;
#242 = VERTEX_POINT ( 'NONE', #117 ) ;
#243 = DIRECTION ( 'NONE',  ( -1.224646799147353700E-16, -0.0000000000000000000, -1.000000000000000000 ) ) ;
#244 = VERTEX_POINT ( 'NONE', #116 ) ;
#245 = PLANE ( 'NONE',  #182 ) ;
#246 = ORIENTED_EDGE ( 'NONE', *, *, #22, .F. ) ;
#247 = EDGE_CURVE ( 'NONE', #48, #292, #139, .T. ) ;
#248 = EDGE_CURVE ( 'NONE', #250, #194, #202, .T. ) ;
#249 = CARTESIAN_POINT ( 'NONE',  ( 0.04750000000000064587, 5.817072295950006528E-18, 1.500000000000000222 ) ) ;
#250 = VERTEX_POINT ( 'NONE', #95 ) ;
#251 = CIRCLE ( 'NONE', #211, 0.04685310000000000169 ) ;
#252 = CARTESIAN_POINT ( 'NONE',  ( 4.592425496802576684E-17, 0.0000000000000000000, 0.3750000000000000555 ) ) ;
#253 = AXIS2_PLACEMENT_3D ( 'NONE', #165, #28, #141 ) ;
#254 = CARTESIAN_POINT ( 'NONE',  ( 0.06250000000000008327, 7.654042494670966789E-18, 0.4637379795033760299 ) ) ;
#255 =( CONVERSION_BASED_UNIT ( 'INCH', #97 ) LENGTH_UNIT ( ) NAMED_UNIT ( #52 ) );
#256 = DIRECTION ( 'NONE',  ( -1.000000000000000000, 0.0000000000000000000, 1.224646799147353700E-16 ) ) ;
#257 = EDGE_LOOP ( 'NONE', ( #206, #288 ) ) ;
#258 = DIRECTION ( 'NONE',  ( -1.224646799147353700E-16, -0.0000000000000000000, -1.000000000000000000 ) ) ;
#259 = DIRECTION ( 'NONE',  ( 1.000000000000000000, 0.0000000000000000000, -0.0000000000000000000 ) ) ;
#260 = LENGTH_MEASURE_WITH_UNIT ( LENGTH_MEASURE( 0.02539999999999999897 ), #14 );
#261 = ORIENTED_EDGE ( 'NONE', *, *, #193, .T. ) ;
#262 = CONICAL_SURFACE ( 'NONE', #121, 0.04750000000000064587, 0.7853981633974466137 ) ;
#263 =( CONVERSION_BASED_UNIT ( 'INCH', #260 ) LENGTH_UNIT ( ) NAMED_UNIT ( #114 ) );
#264 = ORIENTED_EDGE ( 'NONE', *, *, #229, .T. ) ;
#265 = CYLINDRICAL_SURFACE ( 'NONE', #196, 0.04685310000000000169 ) ;
#266 = CYLINDRICAL_SURFACE ( 'NONE', #154, 0.06250000000000002776 ) ;
#267 = VECTOR ( 'NONE', #111, 39.37007874015748854 ) ;
#268 = DIRECTION ( 'NONE',  ( -1.000000000000000000, 0.0000000000000000000, 0.0000000000000000000 ) ) ;
#269 = PRODUCT ( 'Micro_GEM-093-3X', 'Micro_GEM-093-3X', '', ( #99 ) ) ;
#270 = ADVANCED_FACE ( 'NONE', ( #2 ), #161, .F. ) ;
#271 = DIRECTION ( 'NONE',  ( -1.000000000000000000, 0.0000000000000000000, 1.224646799147353700E-16 ) ) ;
#272 = EDGE_LOOP ( 'NONE', ( #164, #222, #100, #146 ) ) ;
#273 = CARTESIAN_POINT ( 'NONE',  ( 0.0000000000000000000, 0.0000000000000000000, 0.0000000000000000000 ) ) ;
#274 = AXIS2_PLACEMENT_3D ( 'NONE', #225, #157, #13 ) ;
#275 = ADVANCED_FACE ( 'NONE', ( #237 ), #298, .T. ) ;
#276 =( NAMED_UNIT ( * ) PLANE_ANGLE_UNIT ( ) SI_UNIT ( $, .RADIAN. ) );
#277 =( NAMED_UNIT ( * ) SI_UNIT ( $, .STERADIAN. ) SOLID_ANGLE_UNIT ( ) );
#278 = SURFACE_STYLE_USAGE ( .BOTH. , #156 ) ;
#279 = DIRECTION ( 'NONE',  ( -0.0000000000000000000, -0.0000000000000000000, -1.000000000000000000 ) ) ;
#280 = EDGE_CURVE ( 'NONE', #181, #244, #43, .T. ) ;
#281 = DIRECTION ( 'NONE',  ( -1.224646799147353700E-16, -0.0000000000000000000, -1.000000000000000000 ) ) ;
#282 = CARTESIAN_POINT ( 'NONE',  ( 0.0000000000000000000, 0.0000000000000000000, 0.0000000000000000000 ) ) ;
#283 = DIRECTION ( 'NONE',  ( 1.000000000000000000, 0.0000000000000000000, 0.0000000000000000000 ) ) ;
#284 = APPLICATION_PROTOCOL_DEFINITION ( 'draft international standard', 'automotive_design', 1998, #25 ) ;
#285 = EDGE_LOOP ( 'NONE', ( #219, #32, #147, #38 ) ) ;
#286 = ORIENTED_EDGE ( 'NONE', *, *, #3, .F. ) ;
#287 = DIRECTION ( 'NONE',  ( 1.000000000000000000, 0.0000000000000000000, 0.0000000000000000000 ) ) ;
#288 = ORIENTED_EDGE ( 'NONE', *, *, #3, .T. ) ;
#289 = DIRECTION ( 'NONE',  ( 1.224646799147353700E-16, 0.0000000000000000000, 1.000000000000000000 ) ) ;
#290 = LINE ( 'NONE', #151, #115 ) ;
#291 = AXIS2_PLACEMENT_3D ( 'NONE', #135, #75, #162 ) ;
#292 = VERTEX_POINT ( 'NONE', #218 ) ;
#293 = DIRECTION ( 'NONE',  ( 0.0000000000000000000, 0.0000000000000000000, -1.000000000000000000 ) ) ;
#294 = ORIENTED_EDGE ( 'NONE', *, *, #118, .F. ) ;
#295 = CYLINDRICAL_SURFACE ( 'NONE', #76, 0.04685310000000000169 ) ;
#296 = ADVANCED_FACE ( 'NONE', ( #188 ), #98, .T. ) ;
#297 = UNCERTAINTY_MEASURE_WITH_UNIT (LENGTH_MEASURE( 1.000000000000000082E-05 ), #187, 'distance_accuracy_value', 'NONE');
#298 = CONICAL_SURFACE ( 'NONE', #253, 0.04750000000000064587, 0.7853981633974466137 ) ;
#299 = CARTESIAN_POINT ( 'NONE',  ( 0.0000000000000000000, 0.0000000000000000000, 1.500000000000000222 ) ) ;
ENDSEC;
END-ISO-10303-21;
