ISO-10303-21;
HEADER;
FILE_DESCRIPTION (( 'STEP AP214' ),
    '1' );
FILE_NAME ('Micro_GELM-040-2X.STEP',
    '2021-09-01T18:18:23',
    ( '' ),
    ( '' ),
    'SwSTEP 2.0',
    'SolidWorks 2020',
    '' );
FILE_SCHEMA (( 'AUTOMOTIVE_DESIGN' ));
ENDSEC;

DATA;
#1 = ORIENTED_EDGE ( 'NONE', *, *, #242, .F. ) ;
#2 = EDGE_CURVE ( 'NONE', #118, #257, #234, .T. ) ;
#3 = ORIENTED_EDGE ( 'NONE', *, *, #126, .T. ) ;
#4 = PRODUCT_DEFINITION_FORMATION_WITH_SPECIFIED_SOURCE ( 'ANY', '', #278, .NOT_KNOWN. ) ;
#5 = UNCERTAINTY_MEASURE_WITH_UNIT (LENGTH_MEASURE( 1.000000000000000082E-05 ), #217, 'distance_accuracy_value', 'NONE');
#6 = DIRECTION ( 'NONE',  ( -1.224646799147353207E-16, -0.0000000000000000000, -1.000000000000000000 ) ) ;
#7 = VERTEX_POINT ( 'NONE', #29 ) ;
#8 = DIRECTION ( 'NONE',  ( 1.000000000000000000, 0.0000000000000000000, 0.0000000000000000000 ) ) ;
#9 = DIRECTION ( 'NONE',  ( -1.000000000000000000, 0.0000000000000000000, 0.0000000000000000000 ) ) ;
#10 = CARTESIAN_POINT ( 'NONE',  ( -0.07866126000000001062, 0.0000000000000000000, 9.633226027589773945E-18 ) ) ;
#11 = STYLED_ITEM ( 'NONE', ( #111 ), #199 ) ;
#12 =( GEOMETRIC_REPRESENTATION_CONTEXT ( 3 ) GLOBAL_UNCERTAINTY_ASSIGNED_CONTEXT ( ( #5 ) ) GLOBAL_UNIT_ASSIGNED_CONTEXT ( ( #217, #181, #101 ) ) REPRESENTATION_CONTEXT ( 'NONE', 'WORKASPACE' ) );
#13 = SURFACE_SIDE_STYLE ('',( #153 ) ) ;
#14 = DIRECTION ( 'NONE',  ( 0.0000000000000000000, 0.0000000000000000000, 1.000000000000000000 ) ) ;
#15 = EDGE_CURVE ( 'NONE', #98, #7, #285, .T. ) ;
#16 = DIRECTION ( 'NONE',  ( -1.224646799147353207E-16, -0.0000000000000000000, -1.000000000000000000 ) ) ;
#17 = FILL_AREA_STYLE ('',( #136 ) ) ;
#18 = VERTEX_POINT ( 'NONE', #275 ) ;
#19 = EDGE_LOOP ( 'NONE', ( #50, #206, #274, #144 ) ) ;
#20 = AXIS2_PLACEMENT_3D ( 'NONE', #239, #263, #109 ) ;
#21 = AXIS2_PLACEMENT_3D ( 'NONE', #76, #6, #230 ) ;
#22 = CARTESIAN_POINT ( 'NONE',  ( 0.0000000000000000000, 0.0000000000000000000, 2.952755999999999936 ) ) ;
#23 = ORIENTED_EDGE ( 'NONE', *, *, #126, .F. ) ;
#24 = EDGE_LOOP ( 'NONE', ( #160, #280, #170, #203 ) ) ;
#25 = SURFACE_STYLE_FILL_AREA ( #17 ) ;
#26 = ORIENTED_EDGE ( 'NONE', *, *, #214, .T. ) ;
#27 = CIRCLE ( 'NONE', #21, 0.07866126000000002449 ) ;
#28 = ORIENTED_EDGE ( 'NONE', *, *, #171, .F. ) ;
#29 = CARTESIAN_POINT ( 'NONE',  ( -0.07874000000000000443, 0.0000000000000000000, 2.937755999999999812 ) ) ;
#30 = CARTESIAN_POINT ( 'NONE',  ( 0.0000000000000000000, 0.0000000000000000000, 2.952755999999999936 ) ) ;
#31 = APPLICATION_CONTEXT ( 'automotive_design' ) ;
#32 = EDGE_LOOP ( 'NONE', ( #93, #167, #1, #66 ) ) ;
#33 = DIRECTION ( 'NONE',  ( 1.000000000000000000, 0.0000000000000000000, 0.0000000000000000000 ) ) ;
#34 = CARTESIAN_POINT ( 'NONE',  ( 0.07874000000000000443, 9.642868896486258509E-18, 2.952755999999999936 ) ) ;
#35 = FACE_OUTER_BOUND ( 'NONE', #24, .T. ) ;
#36 = DIRECTION ( 'NONE',  ( -1.000000000000000000, 0.0000000000000000000, 0.0000000000000000000 ) ) ;
#37 = FACE_OUTER_BOUND ( 'NONE', #95, .T. ) ;
#38 = FACE_OUTER_BOUND ( 'NONE', #196, .T. ) ;
#39 = DIMENSIONAL_EXPONENTS ( 1.000000000000000000, 0.0000000000000000000, 0.0000000000000000000, 0.0000000000000000000, 0.0000000000000000000, 0.0000000000000000000, 0.0000000000000000000 ) ;
#40 = EDGE_LOOP ( 'NONE', ( #140, #105, #189, #207 ) ) ;
#41 = PRODUCT_RELATED_PRODUCT_CATEGORY ( 'part', '', ( #278 ) ) ;
#42 = COLOUR_RGB ( '',0.7921568627450980005, 0.8196078431372548767, 0.9333333333333333481 ) ;
#43 = SURFACE_SIDE_STYLE ('',( #25 ) ) ;
#44 = VERTEX_POINT ( 'NONE', #52 ) ;
#45 = CLOSED_SHELL ( 'NONE', ( #116, #78, #92, #67, #163, #120, #64, #225, #151, #132 ) ) ;
#46 = CARTESIAN_POINT ( 'NONE',  ( -0.06373999999999963029, 0.0000000000000000000, 2.952755999999999936 ) ) ;
#47 = VERTEX_POINT ( 'NONE', #166 ) ;
#48 = PRESENTATION_LAYER_ASSIGNMENT (  '', '', ( #11 ) ) ;
#49 = CIRCLE ( 'NONE', #269, 0.06373999999999963029 ) ;
#50 = ORIENTED_EDGE ( 'NONE', *, *, #213, .F. ) ;
#51 = CARTESIAN_POINT ( 'NONE',  ( 1.205907935624996532E-16, 0.0000000000000000000, 0.9846985567304765707 ) ) ;
#52 = CARTESIAN_POINT ( 'NONE',  ( 0.07874000000000011545, 9.642868896486273916E-18, 0.9846985567304765707 ) ) ;
#53 = LINE ( 'NONE', #148, #183 ) ;
#54 = EDGE_CURVE ( 'NONE', #47, #18, #104, .T. ) ;
#55 = ORIENTED_EDGE ( 'NONE', *, *, #54, .T. ) ;
#56 = VECTOR ( 'NONE', #122, 39.37007874015748143 ) ;
#57 = DIRECTION ( 'NONE',  ( 1.224646799147353207E-16, 0.0000000000000000000, 1.000000000000000000 ) ) ;
#58 = LINE ( 'NONE', #10, #157 ) ;
#59 = EDGE_CURVE ( 'NONE', #7, #257, #77, .T. ) ;
#60 = AXIS2_PLACEMENT_3D ( 'NONE', #173, #83, #241 ) ;
#61 =( GEOMETRIC_REPRESENTATION_CONTEXT ( 3 ) GLOBAL_UNCERTAINTY_ASSIGNED_CONTEXT ( ( #99 ) ) GLOBAL_UNIT_ASSIGNED_CONTEXT ( ( #250, #200, #222 ) ) REPRESENTATION_CONTEXT ( 'NONE', 'WORKASPACE' ) );
#62 = FACE_OUTER_BOUND ( 'NONE', #40, .T. ) ;
#63 = AXIS2_PLACEMENT_3D ( 'NONE', #128, #208, #141 ) ;
#64 = ADVANCED_FACE ( 'NONE', ( #256 ), #198, .T. ) ;
#65 = EDGE_CURVE ( 'NONE', #44, #257, #210, .T. ) ;
#66 = ORIENTED_EDGE ( 'NONE', *, *, #59, .F. ) ;
#67 = ADVANCED_FACE ( 'NONE', ( #145 ), #233, .T. ) ;
#68 = EDGE_CURVE ( 'NONE', #201, #98, #53, .T. ) ;
#69 = AXIS2_PLACEMENT_3D ( 'NONE', #51, #168, #33 ) ;
#70 = CIRCLE ( 'NONE', #235, 0.07866125999999999674 ) ;
#71 =( NAMED_UNIT ( * ) SI_UNIT ( $, .STERADIAN. ) SOLID_ANGLE_UNIT ( ) );
#72 = CARTESIAN_POINT ( 'NONE',  ( 0.0000000000000000000, 0.0000000000000000000, 2.952755999999999936 ) ) ;
#73 = VECTOR ( 'NONE', #195, 39.37007874015748143 ) ;
#74 = ORIENTED_EDGE ( 'NONE', *, *, #248, .T. ) ;
#75 = EDGE_LOOP ( 'NONE', ( #227, #23, #74, #164 ) ) ;
#76 = CARTESIAN_POINT ( 'NONE',  ( 1.205361061354380629E-16, 0.0000000000000000000, 0.9842519999999999047 ) ) ;
#77 = LINE ( 'NONE', #184, #204 ) ;
#78 = ADVANCED_FACE ( 'NONE', ( #129 ), #91, .T. ) ;
#79 = DIRECTION ( 'NONE',  ( 1.000000000000000000, 0.0000000000000000000, 0.0000000000000000000 ) ) ;
#80 = ORIENTED_EDGE ( 'NONE', *, *, #96, .F. ) ;
#81 = LENGTH_MEASURE_WITH_UNIT ( LENGTH_MEASURE( 0.02539999999999999897 ), #133 );
#82 = DIRECTION ( 'NONE',  ( -1.000000000000000000, 0.0000000000000000000, 0.0000000000000000000 ) ) ;
#83 = DIRECTION ( 'NONE',  ( 0.0000000000000000000, 0.0000000000000000000, 1.000000000000000000 ) ) ;
#84 = CIRCLE ( 'NONE', #114, 0.07874000000000000443 ) ;
#85 = DIRECTION ( 'NONE',  ( -1.224646799147353207E-16, -0.0000000000000000000, -1.000000000000000000 ) ) ;
#86 = APPLICATION_CONTEXT ( 'automotive_design' ) ;
#87 = DIRECTION ( 'NONE',  ( 1.000000000000000000, 0.0000000000000000000, 0.0000000000000000000 ) ) ;
#88 = EDGE_CURVE ( 'NONE', #98, #44, #267, .T. ) ;
#89 = DIMENSIONAL_EXPONENTS ( 1.000000000000000000, 0.0000000000000000000, 0.0000000000000000000, 0.0000000000000000000, 0.0000000000000000000, 0.0000000000000000000, 0.0000000000000000000 ) ;
#90 = DIRECTION ( 'NONE',  ( 1.000000000000000000, 0.0000000000000000000, 0.0000000000000000000 ) ) ;
#91 = CONICAL_SURFACE ( 'NONE', #272, 0.07866126000000002449, 0.1745329251994339470 ) ;
#92 = ADVANCED_FACE ( 'NONE', ( #112 ), #229, .T. ) ;
#93 = ORIENTED_EDGE ( 'NONE', *, *, #226, .T. ) ;
#94 = ADVANCED_BREP_SHAPE_REPRESENTATION ( 'Micro_GELM-040-2X', ( #199, #254 ), #243 ) ;
#95 = EDGE_LOOP ( 'NONE', ( #3, #185 ) ) ;
#96 = EDGE_CURVE ( 'NONE', #47, #118, #169, .T. ) ;
#97 = DIRECTION ( 'NONE',  ( -1.224646799147353207E-16, -0.0000000000000000000, -1.000000000000000000 ) ) ;
#98 = VERTEX_POINT ( 'NONE', #192 ) ;
#99 = UNCERTAINTY_MEASURE_WITH_UNIT (LENGTH_MEASURE( 1.000000000000000082E-05 ), #250, 'distance_accuracy_value', 'NONE');
#100 = AXIS2_PLACEMENT_3D ( 'NONE', #149, #14, #87 ) ;
#101 =( NAMED_UNIT ( * ) SI_UNIT ( $, .STERADIAN. ) SOLID_ANGLE_UNIT ( ) );
#102 = CARTESIAN_POINT ( 'NONE',  ( -0.07866125999999989959, 9.633226027589775486E-18, 0.9842519999999999047 ) ) ;
#103 = CARTESIAN_POINT ( 'NONE',  ( 0.0000000000000000000, 0.0000000000000000000, 2.937755999999999812 ) ) ;
#104 = LINE ( 'NONE', #146, #161 ) ;
#105 = ORIENTED_EDGE ( 'NONE', *, *, #96, .T. ) ;
#106 = AXIS2_PLACEMENT_3D ( 'NONE', #115, #215, #177 ) ;
#107 = FILL_AREA_STYLE_COLOUR ( '', #42 ) ;
#108 = AXIS2_PLACEMENT_3D ( 'NONE', #103, #188, #8 ) ;
#109 = DIRECTION ( 'NONE',  ( -1.000000000000000000, 0.0000000000000000000, 1.224646799147353207E-16 ) ) ;
#110 = EDGE_CURVE ( 'NONE', #47, #44, #290, .T. ) ;
#111 = PRESENTATION_STYLE_ASSIGNMENT (( #220 ) ) ;
#112 = FACE_OUTER_BOUND ( 'NONE', #228, .T. ) ;
#113 = AXIS2_PLACEMENT_3D ( 'NONE', #30, #124, #209 ) ;
#114 = AXIS2_PLACEMENT_3D ( 'NONE', #190, #283, #79 ) ;
#115 = CARTESIAN_POINT ( 'NONE',  ( 0.0000000000000000000, 0.0000000000000000000, 2.952755999999999936 ) ) ;
#116 = ADVANCED_FACE ( 'NONE', ( #38 ), #238, .T. ) ;
#117 = DIRECTION ( 'NONE',  ( 0.0000000000000000000, 0.0000000000000000000, 1.000000000000000000 ) ) ;
#118 = VERTEX_POINT ( 'NONE', #154 ) ;
#119 = EDGE_LOOP ( 'NONE', ( #26, #187 ) ) ;
#120 = ADVANCED_FACE ( 'NONE', ( #37 ), #134, .T. ) ;
#121 = SURFACE_STYLE_USAGE ( .BOTH. , #43 ) ;
#122 = DIRECTION ( 'NONE',  ( -0.1736481776669312194, 2.126576849575783625E-17, 0.9848077530122077983 ) ) ;
#123 = DIRECTION ( 'NONE',  ( 0.0000000000000000000, 0.0000000000000000000, -1.000000000000000000 ) ) ;
#124 = DIRECTION ( 'NONE',  ( -0.0000000000000000000, -0.0000000000000000000, -1.000000000000000000 ) ) ;
#125 = UNCERTAINTY_MEASURE_WITH_UNIT (LENGTH_MEASURE( 1.000000000000000082E-05 ), #162, 'distance_accuracy_value', 'NONE');
#126 = EDGE_CURVE ( 'NONE', #297, #201, #223, .T. ) ;
#127 = DIRECTION ( 'NONE',  ( -1.224646799147353207E-16, -0.0000000000000000000, -1.000000000000000000 ) ) ;
#128 = CARTESIAN_POINT ( 'NONE',  ( 1.205361061354380629E-16, 0.0000000000000000000, 0.9842519999999999047 ) ) ;
#129 = FACE_OUTER_BOUND ( 'NONE', #19, .T. ) ;
#130 = CYLINDRICAL_SURFACE ( 'NONE', #264, 0.07866126000000001062 ) ;
#131 = CARTESIAN_POINT ( 'NONE',  ( -0.07866125999999999674, 0.0000000000000000000, 1.926645205517954173E-17 ) ) ;
#132 = ADVANCED_FACE ( 'NONE', ( #218 ), #175, .F. ) ;
#133 =( LENGTH_UNIT ( ) NAMED_UNIT ( * ) SI_UNIT ( $, .METRE. ) );
#134 = PLANE ( 'NONE',  #60 ) ;
#135 = DIRECTION ( 'NONE',  ( -1.224646799147353207E-16, -0.0000000000000000000, -1.000000000000000000 ) ) ;
#136 = FILL_AREA_STYLE_COLOUR ( '', #249 ) ;
#137 = PRESENTATION_STYLE_ASSIGNMENT (( #121 ) ) ;
#138 = AXIS2_PLACEMENT_3D ( 'NONE', #202, #268, #296 ) ;
#139 = APPLICATION_PROTOCOL_DEFINITION ( 'draft international standard', 'automotive_design', 1998, #31 ) ;
#140 = ORIENTED_EDGE ( 'NONE', *, *, #54, .F. ) ;
#141 = DIRECTION ( 'NONE',  ( 1.000000000000000000, 0.0000000000000000000, 0.0000000000000000000 ) ) ;
#142 = AXIS2_PLACEMENT_3D ( 'NONE', #172, #16, #36 ) ;
#143 = PRESENTATION_LAYER_ASSIGNMENT (  '', '', ( #277 ) ) ;
#144 = ORIENTED_EDGE ( 'NONE', *, *, #110, .F. ) ;
#145 = FACE_OUTER_BOUND ( 'NONE', #32, .T. ) ;
#146 = CARTESIAN_POINT ( 'NONE',  ( 0.07866126000000001062, 9.633226027589773945E-18, -9.633226027589773945E-18 ) ) ;
#147 = CARTESIAN_POINT ( 'NONE',  ( 1.179729942015078748E-33, 0.0000000000000000000, 9.633226027589770864E-18 ) ) ;
#148 = CARTESIAN_POINT ( 'NONE',  ( 0.06373999999999963029, 7.805898697765183462E-18, 2.952755999999999936 ) ) ;
#149 = CARTESIAN_POINT ( 'NONE',  ( 0.0000000000000000000, 0.0000000000000000000, 2.952755999999999936 ) ) ;
#150 = CARTESIAN_POINT ( 'NONE',  ( 0.0000000000000000000, 0.0000000000000000000, 2.952755999999999936 ) ) ;
#151 = ADVANCED_FACE ( 'NONE', ( #62 ), #130, .T. ) ;
#152 = VECTOR ( 'NONE', #194, 39.37007874015748143 ) ;
#153 = SURFACE_STYLE_FILL_AREA ( #265 ) ;
#154 = CARTESIAN_POINT ( 'NONE',  ( -0.07866125999999989959, 9.638047462038017768E-18, 0.9842519999999999047 ) ) ;
#155 = DIRECTION ( 'NONE',  ( 1.000000000000000000, 0.0000000000000000000, 0.0000000000000000000 ) ) ;
#156 = LENGTH_MEASURE_WITH_UNIT ( LENGTH_MEASURE( 0.02539999999999999897 ), #221 );
#157 = VECTOR ( 'NONE', #135, 39.37007874015748143 ) ;
#158 = MECHANICAL_DESIGN_GEOMETRIC_PRESENTATION_REPRESENTATION (  '', ( #277 ), #61 ) ;
#159 =( NAMED_UNIT ( * ) PLANE_ANGLE_UNIT ( ) SI_UNIT ( $, .RADIAN. ) );
#160 = ORIENTED_EDGE ( 'NONE', *, *, #88, .F. ) ;
#161 = VECTOR ( 'NONE', #127, 39.37007874015748143 ) ;
#162 =( CONVERSION_BASED_UNIT ( 'INCH', #270 ) LENGTH_UNIT ( ) NAMED_UNIT ( #89 ) );
#163 = ADVANCED_FACE ( 'NONE', ( #35 ), #262, .T. ) ;
#164 = ORIENTED_EDGE ( 'NONE', *, *, #15, .F. ) ;
#165 = CONICAL_SURFACE ( 'NONE', #63, 0.07866126000000002449, 0.1745329251994339470 ) ;
#166 = CARTESIAN_POINT ( 'NONE',  ( 0.07866126000000014939, 0.0000000000000000000, 0.9842519999999999047 ) ) ;
#167 = ORIENTED_EDGE ( 'NONE', *, *, #88, .T. ) ;
#168 = DIRECTION ( 'NONE',  ( -1.224646799147353207E-16, -0.0000000000000000000, -1.000000000000000000 ) ) ;
#169 = CIRCLE ( 'NONE', #142, 0.07866126000000002449 ) ;
#170 = ORIENTED_EDGE ( 'NONE', *, *, #59, .T. ) ;
#171 = EDGE_CURVE ( 'NONE', #118, #191, #58, .T. ) ;
#172 = CARTESIAN_POINT ( 'NONE',  ( 1.205361061354380629E-16, 0.0000000000000000000, 0.9842519999999999047 ) ) ;
#173 = CARTESIAN_POINT ( 'NONE',  ( 0.0000000000000000000, 0.0000000000000000000, 2.952755999999999936 ) ) ;
#174 = AXIS2_PLACEMENT_3D ( 'NONE', #276, #123, #299 ) ;
#175 = PLANE ( 'NONE',  #219 ) ;
#176 = PRODUCT_DEFINITION ( 'UNKNOWN', '', #4, #259 ) ;
#177 = DIRECTION ( 'NONE',  ( -1.000000000000000000, 0.0000000000000000000, 0.0000000000000000000 ) ) ;
#178 = DIRECTION ( 'NONE',  ( -1.000000000000000000, 0.0000000000000000000, 1.224646799147353207E-16 ) ) ;
#179 = AXIS2_PLACEMENT_3D ( 'NONE', #150, #266, #82 ) ;
#180 = CIRCLE ( 'NONE', #108, 0.07874000000000000443 ) ;
#181 =( NAMED_UNIT ( * ) PLANE_ANGLE_UNIT ( ) SI_UNIT ( $, .RADIAN. ) );
#182 = DIRECTION ( 'NONE',  ( 0.0000000000000000000, 0.0000000000000000000, 1.000000000000000000 ) ) ;
#183 = VECTOR ( 'NONE', #236, 39.37007874015748143 ) ;
#184 = CARTESIAN_POINT ( 'NONE',  ( -0.07874000000000000443, 0.0000000000000000000, 2.952755999999999936 ) ) ;
#185 = ORIENTED_EDGE ( 'NONE', *, *, #281, .T. ) ;
#186 = AXIS2_PLACEMENT_3D ( 'NONE', #72, #282, #9 ) ;
#187 = ORIENTED_EDGE ( 'NONE', *, *, #258, .T. ) ;
#188 = DIRECTION ( 'NONE',  ( 0.0000000000000000000, 0.0000000000000000000, -1.000000000000000000 ) ) ;
#189 = ORIENTED_EDGE ( 'NONE', *, *, #171, .T. ) ;
#190 = CARTESIAN_POINT ( 'NONE',  ( 1.205907935624996532E-16, 0.0000000000000000000, 0.9846985567304765707 ) ) ;
#191 = VERTEX_POINT ( 'NONE', #131 ) ;
#192 = CARTESIAN_POINT ( 'NONE',  ( 0.07874000000000000443, 9.642868896486258509E-18, 2.937755999999999812 ) ) ;
#193 = CARTESIAN_POINT ( 'NONE',  ( 1.205361061354380629E-16, 0.0000000000000000000, 0.9842519999999999047 ) ) ;
#194 = DIRECTION ( 'NONE',  ( 0.1736481776669314414, 0.0000000000000000000, 0.9848077530122077983 ) ) ;
#195 = DIRECTION ( 'NONE',  ( -0.0000000000000000000, -0.0000000000000000000, -1.000000000000000000 ) ) ;
#196 = EDGE_LOOP ( 'NONE', ( #261, #55, #284, #28 ) ) ;
#197 = PRODUCT_CONTEXT ( 'NONE', #31, 'mechanical' ) ;
#198 = CONICAL_SURFACE ( 'NONE', #186, 0.06373999999999963029, 0.7853981633974522758 ) ;
#199 = MANIFOLD_SOLID_BREP ( 'Cut-Revolve1', #45 ) ;
#200 =( NAMED_UNIT ( * ) PLANE_ANGLE_UNIT ( ) SI_UNIT ( $, .RADIAN. ) );
#201 = VERTEX_POINT ( 'NONE', #279 ) ;
#202 = CARTESIAN_POINT ( 'NONE',  ( 1.179729942015078748E-33, 0.0000000000000000000, 9.633226027589770864E-18 ) ) ;
#203 = ORIENTED_EDGE ( 'NONE', *, *, #65, .F. ) ;
#204 = VECTOR ( 'NONE', #211, 39.37007874015748143 ) ;
#205 = PRODUCT_DEFINITION_SHAPE ( 'NONE', 'NONE',  #176 ) ;
#206 = ORIENTED_EDGE ( 'NONE', *, *, #2, .T. ) ;
#207 = ORIENTED_EDGE ( 'NONE', *, *, #258, .F. ) ;
#208 = DIRECTION ( 'NONE',  ( 1.224646799147353207E-16, 0.0000000000000000000, 1.000000000000000000 ) ) ;
#209 = DIRECTION ( 'NONE',  ( -1.000000000000000000, 0.0000000000000000000, 0.0000000000000000000 ) ) ;
#210 = CIRCLE ( 'NONE', #69, 0.07874000000000000443 ) ;
#211 = DIRECTION ( 'NONE',  ( -0.0000000000000000000, -0.0000000000000000000, -1.000000000000000000 ) ) ;
#212 = ORIENTED_EDGE ( 'NONE', *, *, #226, .F. ) ;
#213 = EDGE_CURVE ( 'NONE', #118, #47, #27, .T. ) ;
#214 = EDGE_CURVE ( 'NONE', #191, #18, #70, .T. ) ;
#215 = DIRECTION ( 'NONE',  ( -0.0000000000000000000, -0.0000000000000000000, -1.000000000000000000 ) ) ;
#216 = DIRECTION ( 'NONE',  ( -0.7071067811865503483, 0.0000000000000000000, -0.7071067811865446862 ) ) ;
#217 =( CONVERSION_BASED_UNIT ( 'INCH', #81 ) LENGTH_UNIT ( ) NAMED_UNIT ( #39 ) );
#218 = FACE_OUTER_BOUND ( 'NONE', #119, .T. ) ;
#219 = AXIS2_PLACEMENT_3D ( 'NONE', #237, #289, #287 ) ;
#220 = SURFACE_STYLE_USAGE ( .BOTH. , #13 ) ;
#221 =( LENGTH_UNIT ( ) NAMED_UNIT ( * ) SI_UNIT ( $, .METRE. ) );
#222 =( NAMED_UNIT ( * ) SI_UNIT ( $, .STERADIAN. ) SOLID_ANGLE_UNIT ( ) );
#223 = CIRCLE ( 'NONE', #100, 0.06373999999999963029 ) ;
#224 = EDGE_LOOP ( 'NONE', ( #247, #80, #252, #260 ) ) ;
#225 = ADVANCED_FACE ( 'NONE', ( #232 ), #165, .T. ) ;
#226 = EDGE_CURVE ( 'NONE', #7, #98, #180, .T. ) ;
#227 = ORIENTED_EDGE ( 'NONE', *, *, #68, .F. ) ;
#228 = EDGE_LOOP ( 'NONE', ( #292, #231, #212, #245 ) ) ;
#229 = CONICAL_SURFACE ( 'NONE', #179, 0.06373999999999963029, 0.7853981633974522758 ) ;
#230 = DIRECTION ( 'NONE',  ( -1.000000000000000000, 0.0000000000000000000, 0.0000000000000000000 ) ) ;
#231 = ORIENTED_EDGE ( 'NONE', *, *, #68, .T. ) ;
#232 = FACE_OUTER_BOUND ( 'NONE', #224, .T. ) ;
#233 = CYLINDRICAL_SURFACE ( 'NONE', #113, 0.07874000000000000443 ) ;
#234 = LINE ( 'NONE', #102, #56 ) ;
#235 = AXIS2_PLACEMENT_3D ( 'NONE', #147, #97, #255 ) ;
#236 = DIRECTION ( 'NONE',  ( 0.7071067811865503483, 8.659560562354966138E-17, -0.7071067811865446862 ) ) ;
#237 = CARTESIAN_POINT ( 'NONE',  ( 0.0000000000000000000, 0.0000000000000000000, 0.0000000000000000000 ) ) ;
#238 = CYLINDRICAL_SURFACE ( 'NONE', #20, 0.07866126000000001062 ) ;
#239 = CARTESIAN_POINT ( 'NONE',  ( 0.0000000000000000000, 0.0000000000000000000, 0.0000000000000000000 ) ) ;
#240 = CARTESIAN_POINT ( 'NONE',  ( 0.07866126000000014939, 0.0000000000000000000, 0.9842519999999999047 ) ) ;
#241 = DIRECTION ( 'NONE',  ( 1.000000000000000000, 0.0000000000000000000, -0.0000000000000000000 ) ) ;
#242 = EDGE_CURVE ( 'NONE', #257, #44, #84, .T. ) ;
#243 =( GEOMETRIC_REPRESENTATION_CONTEXT ( 3 ) GLOBAL_UNCERTAINTY_ASSIGNED_CONTEXT ( ( #125 ) ) GLOBAL_UNIT_ASSIGNED_CONTEXT ( ( #162, #159, #71 ) ) REPRESENTATION_CONTEXT ( 'NONE', 'WORKASPACE' ) );
#244 = CARTESIAN_POINT ( 'NONE',  ( 0.0000000000000000000, 0.0000000000000000000, 0.0000000000000000000 ) ) ;
#245 = ORIENTED_EDGE ( 'NONE', *, *, #248, .F. ) ;
#246 = APPLICATION_PROTOCOL_DEFINITION ( 'draft international standard', 'automotive_design', 1998, #86 ) ;
#247 = ORIENTED_EDGE ( 'NONE', *, *, #2, .F. ) ;
#248 = EDGE_CURVE ( 'NONE', #297, #7, #251, .T. ) ;
#249 = COLOUR_RGB ( '',0.7921568627450980005, 0.8196078431372548767, 0.9333333333333333481 ) ;
#250 =( CONVERSION_BASED_UNIT ( 'INCH', #156 ) LENGTH_UNIT ( ) NAMED_UNIT ( #295 ) );
#251 = LINE ( 'NONE', #46, #273 ) ;
#252 = ORIENTED_EDGE ( 'NONE', *, *, #110, .T. ) ;
#253 = MECHANICAL_DESIGN_GEOMETRIC_PRESENTATION_REPRESENTATION (  '', ( #11 ), #12 ) ;
#254 = AXIS2_PLACEMENT_3D ( 'NONE', #244, #117, #291 ) ;
#255 = DIRECTION ( 'NONE',  ( -1.000000000000000000, 0.0000000000000000000, 1.224646799147352961E-16 ) ) ;
#256 = FACE_OUTER_BOUND ( 'NONE', #75, .T. ) ;
#257 = VERTEX_POINT ( 'NONE', #293 ) ;
#258 = EDGE_CURVE ( 'NONE', #18, #191, #286, .T. ) ;
#259 = PRODUCT_DEFINITION_CONTEXT ( 'detailed design', #86, 'design' ) ;
#260 = ORIENTED_EDGE ( 'NONE', *, *, #65, .T. ) ;
#261 = ORIENTED_EDGE ( 'NONE', *, *, #213, .T. ) ;
#262 = CYLINDRICAL_SURFACE ( 'NONE', #106, 0.07874000000000000443 ) ;
#263 = DIRECTION ( 'NONE',  ( -1.224646799147353207E-16, -0.0000000000000000000, -1.000000000000000000 ) ) ;
#264 = AXIS2_PLACEMENT_3D ( 'NONE', #288, #85, #178 ) ;
#265 = FILL_AREA_STYLE ('',( #107 ) ) ;
#266 = DIRECTION ( 'NONE',  ( 0.0000000000000000000, 0.0000000000000000000, -1.000000000000000000 ) ) ;
#267 = LINE ( 'NONE', #34, #73 ) ;
#268 = DIRECTION ( 'NONE',  ( -1.224646799147353207E-16, -0.0000000000000000000, -1.000000000000000000 ) ) ;
#269 = AXIS2_PLACEMENT_3D ( 'NONE', #22, #182, #90 ) ;
#270 = LENGTH_MEASURE_WITH_UNIT ( LENGTH_MEASURE( 0.02539999999999999897 ), #271 );
#271 =( LENGTH_UNIT ( ) NAMED_UNIT ( * ) SI_UNIT ( $, .METRE. ) );
#272 = AXIS2_PLACEMENT_3D ( 'NONE', #193, #57, #155 ) ;
#273 = VECTOR ( 'NONE', #216, 39.37007874015748143 ) ;
#274 = ORIENTED_EDGE ( 'NONE', *, *, #242, .T. ) ;
#275 = CARTESIAN_POINT ( 'NONE',  ( 0.07866125999999999674, 9.633226027589770864E-18, -1.895600338963814870E-33 ) ) ;
#276 = CARTESIAN_POINT ( 'NONE',  ( 0.0000000000000000000, 0.0000000000000000000, 2.937755999999999812 ) ) ;
#277 = STYLED_ITEM ( 'NONE', ( #137 ), #94 ) ;
#278 = PRODUCT ( 'Micro_GELM-040-2X', 'Micro_GELM-040-2X', '', ( #197 ) ) ;
#279 = CARTESIAN_POINT ( 'NONE',  ( 0.06373999999999963029, 8.724383797125719445E-18, 2.952755999999999936 ) ) ;
#280 = ORIENTED_EDGE ( 'NONE', *, *, #15, .T. ) ;
#281 = EDGE_CURVE ( 'NONE', #201, #297, #49, .T. ) ;
#282 = DIRECTION ( 'NONE',  ( 0.0000000000000000000, 0.0000000000000000000, -1.000000000000000000 ) ) ;
#283 = DIRECTION ( 'NONE',  ( -1.224646799147353207E-16, -0.0000000000000000000, -1.000000000000000000 ) ) ;
#284 = ORIENTED_EDGE ( 'NONE', *, *, #214, .F. ) ;
#285 = CIRCLE ( 'NONE', #174, 0.07874000000000000443 ) ;
#286 = CIRCLE ( 'NONE', #138, 0.07866125999999999674 ) ;
#287 = DIRECTION ( 'NONE',  ( 1.000000000000000000, 0.0000000000000000000, -0.0000000000000000000 ) ) ;
#288 = CARTESIAN_POINT ( 'NONE',  ( 0.0000000000000000000, 0.0000000000000000000, 0.0000000000000000000 ) ) ;
#289 = DIRECTION ( 'NONE',  ( 0.0000000000000000000, 0.0000000000000000000, 1.000000000000000000 ) ) ;
#290 = LINE ( 'NONE', #240, #152 ) ;
#291 = DIRECTION ( 'NONE',  ( 1.000000000000000000, 0.0000000000000000000, 0.0000000000000000000 ) ) ;
#292 = ORIENTED_EDGE ( 'NONE', *, *, #281, .F. ) ;
#293 = CARTESIAN_POINT ( 'NONE',  ( -0.07873999999999987953, 0.0000000000000000000, 0.9846985567304765707 ) ) ;
#294 = SHAPE_DEFINITION_REPRESENTATION ( #205, #94 ) ;
#295 = DIMENSIONAL_EXPONENTS ( 1.000000000000000000, 0.0000000000000000000, 0.0000000000000000000, 0.0000000000000000000, 0.0000000000000000000, 0.0000000000000000000, 0.0000000000000000000 ) ;
#296 = DIRECTION ( 'NONE',  ( -1.000000000000000000, 0.0000000000000000000, 1.224646799147352961E-16 ) ) ;
#297 = VERTEX_POINT ( 'NONE', #298 ) ;
#298 = CARTESIAN_POINT ( 'NONE',  ( -0.06373999999999963029, 0.0000000000000000000, 2.952755999999999936 ) ) ;
#299 = DIRECTION ( 'NONE',  ( 1.000000000000000000, 0.0000000000000000000, 0.0000000000000000000 ) ) ;
ENDSEC;
END-ISO-10303-21;
