ISO-10303-21;
HEADER;
FILE_DESCRIPTION (( 'STEP AP214' ),
    '1' );
FILE_NAME ('Micro_RNC-250-160.STEP',
    '2021-09-03T17:35:32',
    ( '' ),
    ( '' ),
    'SwSTEP 2.0',
    'SolidWorks 2020',
    '' );
FILE_SCHEMA (( 'AUTOMOTIVE_DESIGN' ));
ENDSEC;

DATA;
#1 = ADVANCED_FACE ( 'NONE', ( #131 ), #243, .T. ) ;
#2 = DIRECTION ( 'NONE',  ( 0.0000000000000000000, 0.0000000000000000000, 1.000000000000000000 ) ) ;
#3 = DIRECTION ( 'NONE',  ( -1.000000000000000000, 0.0000000000000000000, 0.0000000000000000000 ) ) ;
#4 =( LENGTH_UNIT ( ) NAMED_UNIT ( * ) SI_UNIT ( $, .METRE. ) );
#5 = CYLINDRICAL_SURFACE ( 'NONE', #100, 0.1250000000000000000 ) ;
#6 = DIRECTION ( 'NONE',  ( 0.0000000000000000000, 0.0000000000000000000, -1.000000000000000000 ) ) ;
#7 = EDGE_CURVE ( 'NONE', #147, #130, #37, .T. ) ;
#8 = FILL_AREA_STYLE ('',( #246 ) ) ;
#9 =( CONVERSION_BASED_UNIT ( 'INCH', #127 ) LENGTH_UNIT ( ) NAMED_UNIT ( #242 ) );
#10 = DIMENSIONAL_EXPONENTS ( 1.000000000000000000, 0.0000000000000000000, 0.0000000000000000000, 0.0000000000000000000, 0.0000000000000000000, 0.0000000000000000000, 0.0000000000000000000 ) ;
#11 = VECTOR ( 'NONE', #198, 39.37007874015748143 ) ;
#12 = CARTESIAN_POINT ( 'NONE',  ( 0.0000000000000000000, 0.0000000000000000000, 0.0000000000000000000 ) ) ;
#13 = CARTESIAN_POINT ( 'NONE',  ( 0.1250000000000000000, 1.530808498934191509E-17, 2.485000000000000320 ) ) ;
#14 = APPLICATION_CONTEXT ( 'automotive_design' ) ;
#15 = ORIENTED_EDGE ( 'NONE', *, *, #34, .F. ) ;
#16 = AXIS2_PLACEMENT_3D ( 'NONE', #237, #20, #63 ) ;
#17 = EDGE_LOOP ( 'NONE', ( #233, #18, #39, #219 ) ) ;
#18 = ORIENTED_EDGE ( 'NONE', *, *, #72, .F. ) ;
#19 =( NAMED_UNIT ( * ) SI_UNIT ( $, .STERADIAN. ) SOLID_ANGLE_UNIT ( ) );
#20 = DIRECTION ( 'NONE',  ( 0.0000000000000000000, 0.0000000000000000000, -1.000000000000000000 ) ) ;
#21 = DIRECTION ( 'NONE',  ( -0.7071067811865499042, 0.0000000000000000000, -0.7071067811865451302 ) ) ;
#22 = PRESENTATION_LAYER_ASSIGNMENT (  '', '', ( #128 ) ) ;
#23 = DIRECTION ( 'NONE',  ( 0.0000000000000000000, 0.0000000000000000000, 1.000000000000000000 ) ) ;
#24 = CARTESIAN_POINT ( 'NONE',  ( 0.0000000000000000000, 0.0000000000000000000, 0.0000000000000000000 ) ) ;
#25 = CARTESIAN_POINT ( 'NONE',  ( 0.0000000000000000000, 0.0000000000000000000, 2.500000000000000000 ) ) ;
#26 = LENGTH_MEASURE_WITH_UNIT ( LENGTH_MEASURE( 0.02539999999999999897 ), #4 );
#27 = DIRECTION ( 'NONE',  ( -1.000000000000000000, 0.0000000000000000000, 0.0000000000000000000 ) ) ;
#28 =( GEOMETRIC_REPRESENTATION_CONTEXT ( 3 ) GLOBAL_UNCERTAINTY_ASSIGNED_CONTEXT ( ( #87 ) ) GLOBAL_UNIT_ASSIGNED_CONTEXT ( ( #204, #96, #19 ) ) REPRESENTATION_CONTEXT ( 'NONE', 'WORKASPACE' ) );
#29 = DIRECTION ( 'NONE',  ( 0.0000000000000000000, 0.0000000000000000000, 1.000000000000000000 ) ) ;
#30 = PRODUCT_RELATED_PRODUCT_CATEGORY ( 'part', '', ( #150 ) ) ;
#31 =( LENGTH_UNIT ( ) NAMED_UNIT ( * ) SI_UNIT ( $, .METRE. ) );
#32 = DIMENSIONAL_EXPONENTS ( 1.000000000000000000, 0.0000000000000000000, 0.0000000000000000000, 0.0000000000000000000, 0.0000000000000000000, 0.0000000000000000000, 0.0000000000000000000 ) ;
#33 =( NAMED_UNIT ( * ) PLANE_ANGLE_UNIT ( ) SI_UNIT ( $, .RADIAN. ) );
#34 = EDGE_CURVE ( 'NONE', #194, #130, #132, .T. ) ;
#35 = PRODUCT_DEFINITION_FORMATION_WITH_SPECIFIED_SOURCE ( 'ANY', '', #150, .NOT_KNOWN. ) ;
#36 = DIRECTION ( 'NONE',  ( -0.0000000000000000000, -0.0000000000000000000, -1.000000000000000000 ) ) ;
#37 = CIRCLE ( 'NONE', #105, 0.1250000000000000000 ) ;
#38 = AXIS2_PLACEMENT_3D ( 'NONE', #99, #218, #151 ) ;
#39 = ORIENTED_EDGE ( 'NONE', *, *, #51, .T. ) ;
#40 = ORIENTED_EDGE ( 'NONE', *, *, #74, .T. ) ;
#41 = EDGE_LOOP ( 'NONE', ( #210, #168 ) ) ;
#42 = DIRECTION ( 'NONE',  ( -0.0000000000000000000, -0.0000000000000000000, -1.000000000000000000 ) ) ;
#43 = CARTESIAN_POINT ( 'NONE',  ( -0.1250000000000000000, 0.0000000000000000000, 2.500000000000000000 ) ) ;
#44 = CIRCLE ( 'NONE', #162, 0.03000000000000000583 ) ;
#45 = LINE ( 'NONE', #217, #68 ) ;
#46 = DIRECTION ( 'NONE',  ( -0.0000000000000000000, -0.0000000000000000000, -1.000000000000000000 ) ) ;
#47 = ADVANCED_FACE ( 'NONE', ( #175 ), #5, .T. ) ;
#48 = CARTESIAN_POINT ( 'NONE',  ( 0.1100000000000001948, 1.438959988998141146E-17, 2.500000000000000000 ) ) ;
#49 =( GEOMETRIC_REPRESENTATION_CONTEXT ( 3 ) GLOBAL_UNCERTAINTY_ASSIGNED_CONTEXT ( ( #92 ) ) GLOBAL_UNIT_ASSIGNED_CONTEXT ( ( #9, #33, #71 ) ) REPRESENTATION_CONTEXT ( 'NONE', 'WORKASPACE' ) );
#50 = CONICAL_SURFACE ( 'NONE', #187, 0.03000000000000000583, 0.7853981633974503884 ) ;
#51 = EDGE_CURVE ( 'NONE', #76, #129, #45, .T. ) ;
#52 = SURFACE_STYLE_USAGE ( .BOTH. , #239 ) ;
#53 = UNCERTAINTY_MEASURE_WITH_UNIT (LENGTH_MEASURE( 1.000000000000000082E-05 ), #65, 'distance_accuracy_value', 'NONE');
#54 = CONICAL_SURFACE ( 'NONE', #190, 0.03000000000000000583, 0.7853981633974503884 ) ;
#55 = ORIENTED_EDGE ( 'NONE', *, *, #7, .T. ) ;
#56 = CIRCLE ( 'NONE', #227, 0.1250000000000000000 ) ;
#57 = AXIS2_PLACEMENT_3D ( 'NONE', #12, #29, #124 ) ;
#58 = ORIENTED_EDGE ( 'NONE', *, *, #61, .F. ) ;
#59 = SURFACE_SIDE_STYLE ('',( #174 ) ) ;
#60 = CARTESIAN_POINT ( 'NONE',  ( 0.1250000000000000000, 1.530808498934191509E-17, 0.09499999999999959865 ) ) ;
#61 = EDGE_CURVE ( 'NONE', #94, #194, #200, .T. ) ;
#62 = CARTESIAN_POINT ( 'NONE',  ( -0.1100000000000001948, 0.0000000000000000000, 2.500000000000000000 ) ) ;
#63 = DIRECTION ( 'NONE',  ( -1.000000000000000000, 0.0000000000000000000, 0.0000000000000000000 ) ) ;
#64 = CLOSED_SHELL ( 'NONE', ( #205, #1, #214, #47, #125, #119, #133, #225 ) ) ;
#65 =( CONVERSION_BASED_UNIT ( 'INCH', #26 ) LENGTH_UNIT ( ) NAMED_UNIT ( #32 ) );
#66 = DIRECTION ( 'NONE',  ( -0.7071067811865490160, 8.659560562354951347E-17, 0.7071067811865460184 ) ) ;
#67 = ORIENTED_EDGE ( 'NONE', *, *, #144, .F. ) ;
#68 = VECTOR ( 'NONE', #21, 39.37007874015748143 ) ;
#69 = DIRECTION ( 'NONE',  ( 0.0000000000000000000, 0.0000000000000000000, 1.000000000000000000 ) ) ;
#70 = PRESENTATION_STYLE_ASSIGNMENT (( #52 ) ) ;
#71 =( NAMED_UNIT ( * ) SI_UNIT ( $, .STERADIAN. ) SOLID_ANGLE_UNIT ( ) );
#72 = EDGE_CURVE ( 'NONE', #76, #231, #180, .T. ) ;
#73 = DIRECTION ( 'NONE',  ( -0.0000000000000000000, -0.0000000000000000000, -1.000000000000000000 ) ) ;
#74 = EDGE_CURVE ( 'NONE', #177, #129, #208, .T. ) ;
#75 = EDGE_LOOP ( 'NONE', ( #171, #79, #211, #189 ) ) ;
#76 = VERTEX_POINT ( 'NONE', #62 ) ;
#77 = APPLICATION_CONTEXT ( 'automotive_design' ) ;
#78 = EDGE_CURVE ( 'NONE', #129, #177, #56, .T. ) ;
#79 = ORIENTED_EDGE ( 'NONE', *, *, #230, .T. ) ;
#80 = ORIENTED_EDGE ( 'NONE', *, *, #235, .F. ) ;
#81 = ORIENTED_EDGE ( 'NONE', *, *, #78, .F. ) ;
#82 = EDGE_CURVE ( 'NONE', #129, #147, #86, .T. ) ;
#83 = DIRECTION ( 'NONE',  ( 1.000000000000000000, 0.0000000000000000000, 0.0000000000000000000 ) ) ;
#84 = PRODUCT_CONTEXT ( 'NONE', #14, 'mechanical' ) ;
#85 = DIRECTION ( 'NONE',  ( 1.000000000000000000, 0.0000000000000000000, 0.0000000000000000000 ) ) ;
#86 = LINE ( 'NONE', #43, #118 ) ;
#87 = UNCERTAINTY_MEASURE_WITH_UNIT (LENGTH_MEASURE( 1.000000000000000082E-05 ), #204, 'distance_accuracy_value', 'NONE');
#88 = FACE_OUTER_BOUND ( 'NONE', #111, .T. ) ;
#89 = VECTOR ( 'NONE', #66, 39.37007874015748143 ) ;
#90 = DIRECTION ( 'NONE',  ( -1.000000000000000000, 0.0000000000000000000, 0.0000000000000000000 ) ) ;
#91 = DIRECTION ( 'NONE',  ( 1.000000000000000000, 0.0000000000000000000, 0.0000000000000000000 ) ) ;
#92 = UNCERTAINTY_MEASURE_WITH_UNIT (LENGTH_MEASURE( 1.000000000000000082E-05 ), #9, 'distance_accuracy_value', 'NONE');
#93 = DIRECTION ( 'NONE',  ( 1.000000000000000000, 0.0000000000000000000, 0.0000000000000000000 ) ) ;
#94 = VERTEX_POINT ( 'NONE', #116 ) ;
#95 = AXIS2_PLACEMENT_3D ( 'NONE', #197, #241, #91 ) ;
#96 =( NAMED_UNIT ( * ) PLANE_ANGLE_UNIT ( ) SI_UNIT ( $, .RADIAN. ) );
#97 = DIRECTION ( 'NONE',  ( -0.0000000000000000000, -0.0000000000000000000, -1.000000000000000000 ) ) ;
#98 = APPLICATION_PROTOCOL_DEFINITION ( 'draft international standard', 'automotive_design', 1998, #14 ) ;
#99 = CARTESIAN_POINT ( 'NONE',  ( 0.0000000000000000000, 0.0000000000000000000, 2.500000000000000000 ) ) ;
#100 = AXIS2_PLACEMENT_3D ( 'NONE', #25, #46, #90 ) ;
#101 = DIRECTION ( 'NONE',  ( 1.000000000000000000, 0.0000000000000000000, 0.0000000000000000000 ) ) ;
#102 = FILL_AREA_STYLE_COLOUR ( '', #186 ) ;
#103 = CARTESIAN_POINT ( 'NONE',  ( 0.0000000000000000000, 0.0000000000000000000, 2.500000000000000000 ) ) ;
#104 = CARTESIAN_POINT ( 'NONE',  ( 0.0000000000000000000, 0.0000000000000000000, 2.500000000000000000 ) ) ;
#105 = AXIS2_PLACEMENT_3D ( 'NONE', #178, #42, #27 ) ;
#106 = DIRECTION ( 'NONE',  ( -1.000000000000000000, 0.0000000000000000000, 0.0000000000000000000 ) ) ;
#107 = DIRECTION ( 'NONE',  ( -0.0000000000000000000, -0.0000000000000000000, -1.000000000000000000 ) ) ;
#108 = CARTESIAN_POINT ( 'NONE',  ( 0.03000000000000000583, 0.0000000000000000000, 0.0000000000000000000 ) ) ;
#109 = ORIENTED_EDGE ( 'NONE', *, *, #144, .T. ) ;
#110 = ORIENTED_EDGE ( 'NONE', *, *, #34, .T. ) ;
#111 = EDGE_LOOP ( 'NONE', ( #145, #80, #110, #137 ) ) ;
#112 = AXIS2_PLACEMENT_3D ( 'NONE', #183, #36, #106 ) ;
#113 = ORIENTED_EDGE ( 'NONE', *, *, #163, .F. ) ;
#114 = CARTESIAN_POINT ( 'NONE',  ( 0.03000000000000000583, 0.0000000000000000000, 0.0000000000000000000 ) ) ;
#115 = DIRECTION ( 'NONE',  ( 1.000000000000000000, 0.0000000000000000000, 0.0000000000000000000 ) ) ;
#116 = CARTESIAN_POINT ( 'NONE',  ( -0.03000000000000000583, 9.491012693391986370E-18, 0.0000000000000000000 ) ) ;
#117 = AXIS2_PLACEMENT_3D ( 'NONE', #24, #212, #115 ) ;
#118 = VECTOR ( 'NONE', #159, 39.37007874015748143 ) ;
#119 = ADVANCED_FACE ( 'NONE', ( #191 ), #170, .T. ) ;
#120 = VECTOR ( 'NONE', #73, 39.37007874015748143 ) ;
#121 = CARTESIAN_POINT ( 'NONE',  ( -0.1250000000000000000, 0.0000000000000000000, 2.485000000000000320 ) ) ;
#122 = DIRECTION ( 'NONE',  ( 1.000000000000000000, 0.0000000000000000000, -0.0000000000000000000 ) ) ;
#123 = CARTESIAN_POINT ( 'NONE',  ( 0.0000000000000000000, 0.0000000000000000000, 0.0000000000000000000 ) ) ;
#124 = DIRECTION ( 'NONE',  ( 1.000000000000000000, 0.0000000000000000000, -0.0000000000000000000 ) ) ;
#125 = ADVANCED_FACE ( 'NONE', ( #135 ), #138, .T. ) ;
#126 = DIRECTION ( 'NONE',  ( -1.000000000000000000, 0.0000000000000000000, 0.0000000000000000000 ) ) ;
#127 = LENGTH_MEASURE_WITH_UNIT ( LENGTH_MEASURE( 0.02539999999999999897 ), #31 );
#128 = STYLED_ITEM ( 'NONE', ( #70 ), #248 ) ;
#129 = VERTEX_POINT ( 'NONE', #121 ) ;
#130 = VERTEX_POINT ( 'NONE', #60 ) ;
#131 = FACE_OUTER_BOUND ( 'NONE', #148, .T. ) ;
#132 = LINE ( 'NONE', #114, #157 ) ;
#133 = ADVANCED_FACE ( 'NONE', ( #88 ), #54, .T. ) ;
#134 =( NAMED_UNIT ( * ) PLANE_ANGLE_UNIT ( ) SI_UNIT ( $, .RADIAN. ) );
#135 = FACE_OUTER_BOUND ( 'NONE', #224, .T. ) ;
#136 = EDGE_CURVE ( 'NONE', #94, #147, #232, .T. ) ;
#137 = ORIENTED_EDGE ( 'NONE', *, *, #163, .T. ) ;
#138 = PLANE ( 'NONE',  #215 ) ;
#139 = CARTESIAN_POINT ( 'NONE',  ( 0.0000000000000000000, 0.0000000000000000000, 0.0000000000000000000 ) ) ;
#140 = AXIS2_PLACEMENT_3D ( 'NONE', #153, #6, #196 ) ;
#141 = CARTESIAN_POINT ( 'NONE',  ( 0.1100000000000001948, 1.347111479062090784E-17, 2.500000000000000000 ) ) ;
#142 = DIRECTION ( 'NONE',  ( -1.000000000000000000, 0.0000000000000000000, 0.0000000000000000000 ) ) ;
#143 = FACE_OUTER_BOUND ( 'NONE', #209, .T. ) ;
#144 = EDGE_CURVE ( 'NONE', #231, #76, #152, .T. ) ;
#145 = ORIENTED_EDGE ( 'NONE', *, *, #136, .F. ) ;
#146 = AXIS2_PLACEMENT_3D ( 'NONE', #220, #107, #126 ) ;
#147 = VERTEX_POINT ( 'NONE', #161 ) ;
#148 = EDGE_LOOP ( 'NONE', ( #67, #176, #81, #169 ) ) ;
#149 = APPLICATION_PROTOCOL_DEFINITION ( 'draft international standard', 'automotive_design', 1998, #77 ) ;
#150 = PRODUCT ( 'Micro_RNC-250-160', 'Micro_RNC-250-160', '', ( #84 ) ) ;
#151 = DIRECTION ( 'NONE',  ( -1.000000000000000000, 0.0000000000000000000, 0.0000000000000000000 ) ) ;
#152 = CIRCLE ( 'NONE', #95, 0.1100000000000001948 ) ;
#153 = CARTESIAN_POINT ( 'NONE',  ( 0.0000000000000000000, 0.0000000000000000000, 2.485000000000000320 ) ) ;
#154 = SURFACE_STYLE_USAGE ( .BOTH. , #59 ) ;
#155 = DIRECTION ( 'NONE',  ( 0.7071067811865490160, 0.0000000000000000000, 0.7071067811865460184 ) ) ;
#156 = CARTESIAN_POINT ( 'NONE',  ( 0.0000000000000000000, 0.0000000000000000000, 0.0000000000000000000 ) ) ;
#157 = VECTOR ( 'NONE', #155, 39.37007874015748143 ) ;
#158 = PRODUCT_DEFINITION_SHAPE ( 'NONE', 'NONE',  #181 ) ;
#159 = DIRECTION ( 'NONE',  ( -0.0000000000000000000, -0.0000000000000000000, -1.000000000000000000 ) ) ;
#160 = SURFACE_STYLE_FILL_AREA ( #8 ) ;
#161 = CARTESIAN_POINT ( 'NONE',  ( -0.1250000000000000000, 0.0000000000000000000, 0.09499999999999959865 ) ) ;
#162 = AXIS2_PLACEMENT_3D ( 'NONE', #123, #201, #142 ) ;
#163 = EDGE_CURVE ( 'NONE', #130, #147, #223, .T. ) ;
#164 = CARTESIAN_POINT ( 'NONE',  ( 0.1250000000000000000, 1.530808498934191509E-17, 2.500000000000000000 ) ) ;
#165 = CYLINDRICAL_SURFACE ( 'NONE', #146, 0.1250000000000000000 ) ;
#166 = AXIS2_PLACEMENT_3D ( 'NONE', #104, #23, #85 ) ;
#167 = ORIENTED_EDGE ( 'NONE', *, *, #72, .T. ) ;
#168 = ORIENTED_EDGE ( 'NONE', *, *, #61, .T. ) ;
#169 = ORIENTED_EDGE ( 'NONE', *, *, #51, .F. ) ;
#170 = CONICAL_SURFACE ( 'NONE', #16, 0.1100000000000001948, 0.7853981633974517207 ) ;
#171 = ORIENTED_EDGE ( 'NONE', *, *, #78, .T. ) ;
#172 = SHAPE_DEFINITION_REPRESENTATION ( #158, #184 ) ;
#173 = DIRECTION ( 'NONE',  ( 0.0000000000000000000, 0.0000000000000000000, 1.000000000000000000 ) ) ;
#174 = SURFACE_STYLE_FILL_AREA ( #195 ) ;
#175 = FACE_OUTER_BOUND ( 'NONE', #185, .T. ) ;
#176 = ORIENTED_EDGE ( 'NONE', *, *, #238, .T. ) ;
#177 = VERTEX_POINT ( 'NONE', #13 ) ;
#178 = CARTESIAN_POINT ( 'NONE',  ( 0.0000000000000000000, 0.0000000000000000000, 0.09499999999999959865 ) ) ;
#179 = LINE ( 'NONE', #141, #11 ) ;
#180 = CIRCLE ( 'NONE', #166, 0.1100000000000001948 ) ;
#181 = PRODUCT_DEFINITION ( 'UNKNOWN', '', #35, #202 ) ;
#182 = FACE_OUTER_BOUND ( 'NONE', #75, .T. ) ;
#183 = CARTESIAN_POINT ( 'NONE',  ( 0.0000000000000000000, 0.0000000000000000000, 0.09499999999999959865 ) ) ;
#184 = ADVANCED_BREP_SHAPE_REPRESENTATION ( 'Micro_RNC-250-160', ( #248, #117 ), #28 ) ;
#185 = EDGE_LOOP ( 'NONE', ( #229, #40, #206, #113 ) ) ;
#186 = COLOUR_RGB ( '',0.7921568627450980005, 0.8196078431372548767, 0.9333333333333333481 ) ;
#187 = AXIS2_PLACEMENT_3D ( 'NONE', #139, #69, #93 ) ;
#188 = ORIENTED_EDGE ( 'NONE', *, *, #136, .T. ) ;
#189 = ORIENTED_EDGE ( 'NONE', *, *, #82, .F. ) ;
#190 = AXIS2_PLACEMENT_3D ( 'NONE', #156, #2, #83 ) ;
#191 = FACE_OUTER_BOUND ( 'NONE', #17, .T. ) ;
#192 = PRESENTATION_STYLE_ASSIGNMENT (( #154 ) ) ;
#193 = CARTESIAN_POINT ( 'NONE',  ( 0.0000000000000000000, 0.0000000000000000000, 0.0000000000000000000 ) ) ;
#194 = VERTEX_POINT ( 'NONE', #108 ) ;
#195 = FILL_AREA_STYLE ('',( #102 ) ) ;
#196 = DIRECTION ( 'NONE',  ( 1.000000000000000000, 0.0000000000000000000, 0.0000000000000000000 ) ) ;
#197 = CARTESIAN_POINT ( 'NONE',  ( 0.0000000000000000000, 0.0000000000000000000, 2.500000000000000000 ) ) ;
#198 = DIRECTION ( 'NONE',  ( 0.7071067811865499042, 8.659560562354961208E-17, -0.7071067811865451302 ) ) ;
#199 = STYLED_ITEM ( 'NONE', ( #192 ), #184 ) ;
#200 = CIRCLE ( 'NONE', #249, 0.03000000000000000583 ) ;
#201 = DIRECTION ( 'NONE',  ( -0.0000000000000000000, -0.0000000000000000000, -1.000000000000000000 ) ) ;
#202 = PRODUCT_DEFINITION_CONTEXT ( 'detailed design', #77, 'design' ) ;
#203 = FACE_OUTER_BOUND ( 'NONE', #41, .T. ) ;
#204 =( CONVERSION_BASED_UNIT ( 'INCH', #222 ) LENGTH_UNIT ( ) NAMED_UNIT ( #10 ) );
#205 = ADVANCED_FACE ( 'NONE', ( #143 ), #50, .T. ) ;
#206 = ORIENTED_EDGE ( 'NONE', *, *, #82, .T. ) ;
#207 = PRESENTATION_LAYER_ASSIGNMENT (  '', '', ( #199 ) ) ;
#208 = CIRCLE ( 'NONE', #140, 0.1250000000000000000 ) ;
#209 = EDGE_LOOP ( 'NONE', ( #58, #188, #55, #15 ) ) ;
#210 = ORIENTED_EDGE ( 'NONE', *, *, #235, .T. ) ;
#211 = ORIENTED_EDGE ( 'NONE', *, *, #7, .F. ) ;
#212 = DIRECTION ( 'NONE',  ( 0.0000000000000000000, 0.0000000000000000000, 1.000000000000000000 ) ) ;
#213 = CARTESIAN_POINT ( 'NONE',  ( 0.0000000000000000000, 0.0000000000000000000, 2.485000000000000320 ) ) ;
#214 = ADVANCED_FACE ( 'NONE', ( #182 ), #165, .T. ) ;
#215 = AXIS2_PLACEMENT_3D ( 'NONE', #103, #173, #122 ) ;
#216 =( NAMED_UNIT ( * ) SI_UNIT ( $, .STERADIAN. ) SOLID_ANGLE_UNIT ( ) );
#217 = CARTESIAN_POINT ( 'NONE',  ( -0.1100000000000001948, 0.0000000000000000000, 2.500000000000000000 ) ) ;
#218 = DIRECTION ( 'NONE',  ( 0.0000000000000000000, 0.0000000000000000000, -1.000000000000000000 ) ) ;
#219 = ORIENTED_EDGE ( 'NONE', *, *, #74, .F. ) ;
#220 = CARTESIAN_POINT ( 'NONE',  ( 0.0000000000000000000, 0.0000000000000000000, 2.500000000000000000 ) ) ;
#221 = PLANE ( 'NONE',  #57 ) ;
#222 = LENGTH_MEASURE_WITH_UNIT ( LENGTH_MEASURE( 0.02539999999999999897 ), #245 );
#223 = CIRCLE ( 'NONE', #112, 0.1250000000000000000 ) ;
#224 = EDGE_LOOP ( 'NONE', ( #167, #109 ) ) ;
#225 = ADVANCED_FACE ( 'NONE', ( #203 ), #221, .F. ) ;
#226 =( GEOMETRIC_REPRESENTATION_CONTEXT ( 3 ) GLOBAL_UNCERTAINTY_ASSIGNED_CONTEXT ( ( #53 ) ) GLOBAL_UNIT_ASSIGNED_CONTEXT ( ( #65, #134, #216 ) ) REPRESENTATION_CONTEXT ( 'NONE', 'WORKASPACE' ) );
#227 = AXIS2_PLACEMENT_3D ( 'NONE', #213, #234, #101 ) ;
#228 = MECHANICAL_DESIGN_GEOMETRIC_PRESENTATION_REPRESENTATION (  '', ( #128 ), #49 ) ;
#229 = ORIENTED_EDGE ( 'NONE', *, *, #230, .F. ) ;
#230 = EDGE_CURVE ( 'NONE', #177, #130, #247, .T. ) ;
#231 = VERTEX_POINT ( 'NONE', #48 ) ;
#232 = LINE ( 'NONE', #236, #89 ) ;
#233 = ORIENTED_EDGE ( 'NONE', *, *, #238, .F. ) ;
#234 = DIRECTION ( 'NONE',  ( 0.0000000000000000000, 0.0000000000000000000, -1.000000000000000000 ) ) ;
#235 = EDGE_CURVE ( 'NONE', #194, #94, #44, .T. ) ;
#236 = CARTESIAN_POINT ( 'NONE',  ( -0.03000000000000000583, 3.673940397442059960E-18, 0.0000000000000000000 ) ) ;
#237 = CARTESIAN_POINT ( 'NONE',  ( 0.0000000000000000000, 0.0000000000000000000, 2.500000000000000000 ) ) ;
#238 = EDGE_CURVE ( 'NONE', #231, #177, #179, .T. ) ;
#239 = SURFACE_SIDE_STYLE ('',( #160 ) ) ;
#240 = MECHANICAL_DESIGN_GEOMETRIC_PRESENTATION_REPRESENTATION (  '', ( #199 ), #226 ) ;
#241 = DIRECTION ( 'NONE',  ( 0.0000000000000000000, 0.0000000000000000000, 1.000000000000000000 ) ) ;
#242 = DIMENSIONAL_EXPONENTS ( 1.000000000000000000, 0.0000000000000000000, 0.0000000000000000000, 0.0000000000000000000, 0.0000000000000000000, 0.0000000000000000000, 0.0000000000000000000 ) ;
#243 = CONICAL_SURFACE ( 'NONE', #38, 0.1100000000000001948, 0.7853981633974517207 ) ;
#244 = COLOUR_RGB ( '',0.7921568627450980005, 0.8196078431372548767, 0.9333333333333333481 ) ;
#245 =( LENGTH_UNIT ( ) NAMED_UNIT ( * ) SI_UNIT ( $, .METRE. ) );
#246 = FILL_AREA_STYLE_COLOUR ( '', #244 ) ;
#247 = LINE ( 'NONE', #164, #120 ) ;
#248 = MANIFOLD_SOLID_BREP ( 'Cut-Revolve1', #64 ) ;
#249 = AXIS2_PLACEMENT_3D ( 'NONE', #193, #97, #3 ) ;
ENDSEC;
END-ISO-10303-21;
