ISO-10303-21;
HEADER;
FILE_DESCRIPTION (( 'STEP AP214' ),
    '1' );
FILE_NAME ('Micro_RDD-60.STEP',
    '2021-08-31T15:20:50',
    ( '' ),
    ( '' ),
    'SwSTEP 2.0',
    'SolidWorks 2020',
    '' );
FILE_SCHEMA (( 'AUTOMOTIVE_DESIGN' ));
ENDSEC;

DATA;
#1 = ORIENTED_EDGE ( 'NONE', *, *, #185, .T. ) ;
#2 = ORIENTED_EDGE ( 'NONE', *, *, #79, .T. ) ;
#3 = EDGE_LOOP ( 'NONE', ( #300, #4 ) ) ;
#4 = ORIENTED_EDGE ( 'NONE', *, *, #93, .T. ) ;
#5 = LINE ( 'NONE', #180, #297 ) ;
#6 = DIRECTION ( 'NONE',  ( -1.000000000000000000, 0.0000000000000000000, 1.367291288120251888E-16 ) ) ;
#7 = CONICAL_SURFACE ( 'NONE', #191, 0.1248749999999999999, 0.1745329251994340025 ) ;
#8 = DIRECTION ( 'NONE',  ( -1.224646799147353207E-16, -0.0000000000000000000, -1.000000000000000000 ) ) ;
#9 = DIRECTION ( 'NONE',  ( 1.000000000000000000, 0.0000000000000000000, 0.0000000000000000000 ) ) ;
#10 = DIRECTION ( 'NONE',  ( 0.7071067811865434649, 8.659560562354883554E-17, -0.7071067811865515695 ) ) ;
#11 = AXIS2_PLACEMENT_3D ( 'NONE', #163, #264, #295 ) ;
#12 = SURFACE_STYLE_FILL_AREA ( #217 ) ;
#13 = CARTESIAN_POINT ( 'NONE',  ( 0.1248750000000000970, 0.0000000000000000000, 0.7500000000000001110 ) ) ;
#14 =( LENGTH_UNIT ( ) NAMED_UNIT ( * ) SI_UNIT ( $, .METRE. ) );
#15 = DIRECTION ( 'NONE',  ( -1.000000000000000000, 0.0000000000000000000, 0.0000000000000000000 ) ) ;
#16 =( CONVERSION_BASED_UNIT ( 'INCH', #318 ) LENGTH_UNIT ( ) NAMED_UNIT ( #58 ) );
#17 = CARTESIAN_POINT ( 'NONE',  ( -0.1250000000000000000, 0.0000000000000000000, 1.984999999999999432 ) ) ;
#18 =( NAMED_UNIT ( * ) SI_UNIT ( $, .STERADIAN. ) SOLID_ANGLE_UNIT ( ) );
#19 = CIRCLE ( 'NONE', #263, 0.1250000000000000000 ) ;
#20 = LENGTH_MEASURE_WITH_UNIT ( LENGTH_MEASURE( 0.02539999999999999897 ), #192 );
#21 = DIRECTION ( 'NONE',  ( -0.0000000000000000000, -0.0000000000000000000, -1.000000000000000000 ) ) ;
#22 = PRODUCT_DEFINITION_SHAPE ( 'NONE', 'NONE',  #291 ) ;
#23 =( NAMED_UNIT ( * ) SI_UNIT ( $, .STERADIAN. ) SOLID_ANGLE_UNIT ( ) );
#24 = VERTEX_POINT ( 'NONE', #75 ) ;
#25 = VERTEX_POINT ( 'NONE', #132 ) ;
#26 = AXIS2_PLACEMENT_3D ( 'NONE', #157, #233, #41 ) ;
#27 = PRODUCT_DEFINITION_CONTEXT ( 'detailed design', #190, 'design' ) ;
#28 = VERTEX_POINT ( 'NONE', #308 ) ;
#29 = EDGE_LOOP ( 'NONE', ( #244, #149, #96, #100 ) ) ;
#30 = VERTEX_POINT ( 'NONE', #311 ) ;
#31 = VECTOR ( 'NONE', #83, 39.37007874015748143 ) ;
#32 = EDGE_CURVE ( 'NONE', #24, #177, #155, .T. ) ;
#33 = DIRECTION ( 'NONE',  ( 0.9238795325112879597, 0.0000000000000000000, 0.3826834323650865621 ) ) ;
#34 = CYLINDRICAL_SURFACE ( 'NONE', #125, 0.1250000000000000000 ) ;
#35 = DIRECTION ( 'NONE',  ( 0.0000000000000000000, 0.0000000000000000000, -1.000000000000000000 ) ) ;
#36 = DIMENSIONAL_EXPONENTS ( 1.000000000000000000, 0.0000000000000000000, 0.0000000000000000000, 0.0000000000000000000, 0.0000000000000000000, 0.0000000000000000000, 0.0000000000000000000 ) ;
#37 =( GEOMETRIC_REPRESENTATION_CONTEXT ( 3 ) GLOBAL_UNCERTAINTY_ASSIGNED_CONTEXT ( ( #230 ) ) GLOBAL_UNIT_ASSIGNED_CONTEXT ( ( #172, #91, #23 ) ) REPRESENTATION_CONTEXT ( 'NONE', 'WORKASPACE' ) );
#38 = CARTESIAN_POINT ( 'NONE',  ( 9.184850993605150903E-17, 0.0000000000000000000, 0.7500000000000001110 ) ) ;
#39 = EDGE_CURVE ( 'NONE', #28, #177, #251, .T. ) ;
#40 = DIMENSIONAL_EXPONENTS ( 1.000000000000000000, 0.0000000000000000000, 0.0000000000000000000, 0.0000000000000000000, 0.0000000000000000000, 0.0000000000000000000, 0.0000000000000000000 ) ;
#41 = DIRECTION ( 'NONE',  ( -1.000000000000000000, 0.0000000000000000000, 0.0000000000000000000 ) ) ;
#42 = CARTESIAN_POINT ( 'NONE',  ( 0.1248749999999999999, 0.0000000000000000000, 0.05172491860133975050 ) ) ;
#43 = PRODUCT ( 'Micro_RDD-60', 'Micro_RDD-60', '', ( #271 ) ) ;
#44 = CARTESIAN_POINT ( 'NONE',  ( 0.0000000000000000000, 0.0000000000000000000, 2.000000000000000000 ) ) ;
#45 = DIRECTION ( 'NONE',  ( 1.224646799147353207E-16, 0.0000000000000000000, 1.000000000000000000 ) ) ;
#46 = DIRECTION ( 'NONE',  ( 1.000000000000000000, 0.0000000000000000000, -1.379608302175842567E-16 ) ) ;
#47 = LINE ( 'NONE', #261, #310 ) ;
#48 =( NAMED_UNIT ( * ) PLANE_ANGLE_UNIT ( ) SI_UNIT ( $, .RADIAN. ) );
#49 = EDGE_LOOP ( 'NONE', ( #220, #52, #126 ) ) ;
#50 = EDGE_LOOP ( 'NONE', ( #124, #243, #1, #203 ) ) ;
#51 =( GEOMETRIC_REPRESENTATION_CONTEXT ( 3 ) GLOBAL_UNCERTAINTY_ASSIGNED_CONTEXT ( ( #55 ) ) GLOBAL_UNIT_ASSIGNED_CONTEXT ( ( #16, #70, #279 ) ) REPRESENTATION_CONTEXT ( 'NONE', 'WORKASPACE' ) );
#52 = ORIENTED_EDGE ( 'NONE', *, *, #92, .T. ) ;
#53 = ORIENTED_EDGE ( 'NONE', *, *, #185, .F. ) ;
#54 = CARTESIAN_POINT ( 'NONE',  ( 0.1250000000000000000, 1.530808498934191509E-17, 2.000000000000000000 ) ) ;
#55 = UNCERTAINTY_MEASURE_WITH_UNIT (LENGTH_MEASURE( 1.000000000000000082E-05 ), #16, 'distance_accuracy_value', 'NONE');
#56 = CARTESIAN_POINT ( 'NONE',  ( 0.0000000000000000000, 0.0000000000000000000, 1.984999999999999432 ) ) ;
#57 = CYLINDRICAL_SURFACE ( 'NONE', #309, 0.1248749999999999999 ) ;
#58 = DIMENSIONAL_EXPONENTS ( 1.000000000000000000, 0.0000000000000000000, 0.0000000000000000000, 0.0000000000000000000, 0.0000000000000000000, 0.0000000000000000000, 0.0000000000000000000 ) ;
#59 = FACE_OUTER_BOUND ( 'NONE', #198, .T. ) ;
#60 = COLOUR_RGB ( '',0.7921568627450980005, 0.8196078431372548767, 0.9333333333333333481 ) ;
#61 = CARTESIAN_POINT ( 'NONE',  ( -0.1099999999999996397, 0.0000000000000000000, 2.000000000000000000 ) ) ;
#62 = PRESENTATION_STYLE_ASSIGNMENT (( #253 ) ) ;
#63 = FACE_OUTER_BOUND ( 'NONE', #3, .T. ) ;
#64 = DIRECTION ( 'NONE',  ( 1.224646799147353207E-16, 0.0000000000000000000, 1.000000000000000000 ) ) ;
#65 = PRESENTATION_LAYER_ASSIGNMENT (  '', '', ( #290 ) ) ;
#66 = DIRECTION ( 'NONE',  ( -1.224646799147353207E-16, -0.0000000000000000000, -1.000000000000000000 ) ) ;
#67 = EDGE_CURVE ( 'NONE', #201, #24, #285, .T. ) ;
#68 = CYLINDRICAL_SURFACE ( 'NONE', #11, 0.1248749999999999999 ) ;
#69 = CARTESIAN_POINT ( 'NONE',  ( 0.0000000000000000000, 0.0000000000000000000, 2.000000000000000000 ) ) ;
#70 =( NAMED_UNIT ( * ) PLANE_ANGLE_UNIT ( ) SI_UNIT ( $, .RADIAN. ) );
#71 = ORIENTED_EDGE ( 'NONE', *, *, #165, .F. ) ;
#72 = EDGE_LOOP ( 'NONE', ( #276, #247, #301 ) ) ;
#73 = ORIENTED_EDGE ( 'NONE', *, *, #106, .F. ) ;
#74 = ORIENTED_EDGE ( 'NONE', *, *, #32, .F. ) ;
#75 = CARTESIAN_POINT ( 'NONE',  ( 0.1250000000000000000, 1.530808498934191509E-17, 1.984999999999999432 ) ) ;
#76 = AXIS2_PLACEMENT_3D ( 'NONE', #38, #8, #228 ) ;
#77 = VECTOR ( 'NONE', #166, 39.37007874015748143 ) ;
#78 = CARTESIAN_POINT ( 'NONE',  ( 0.1248749999999999999, 1.529277690435257475E-17, -1.529277690435257475E-17 ) ) ;
#79 = EDGE_CURVE ( 'NONE', #25, #225, #252, .T. ) ;
#80 = FACE_OUTER_BOUND ( 'NONE', #304, .T. ) ;
#81 = DIRECTION ( 'NONE',  ( 0.0000000000000000000, 0.0000000000000000000, -1.000000000000000000 ) ) ;
#82 = CONICAL_SURFACE ( 'NONE', #26, 0.1099999999999996397, 0.7853981633974426169 ) ;
#83 = DIRECTION ( 'NONE',  ( -0.1736481776669312749, 2.126576849575784241E-17, 0.9848077530122077983 ) ) ;
#84 = EDGE_CURVE ( 'NONE', #30, #227, #245, .T. ) ;
#85 = EDGE_CURVE ( 'NONE', #24, #225, #114, .T. ) ;
#86 = DIRECTION ( 'NONE',  ( 0.1736481776669314969, 0.0000000000000000000, 0.9848077530122077983 ) ) ;
#87 = AXIS2_PLACEMENT_3D ( 'NONE', #160, #152, #156 ) ;
#88 =( GEOMETRIC_REPRESENTATION_CONTEXT ( 3 ) GLOBAL_UNCERTAINTY_ASSIGNED_CONTEXT ( ( #130 ) ) GLOBAL_UNIT_ASSIGNED_CONTEXT ( ( #117, #48, #18 ) ) REPRESENTATION_CONTEXT ( 'NONE', 'WORKASPACE' ) );
#89 = CARTESIAN_POINT ( 'NONE',  ( -0.1248749999999999999, 0.0000000000000000000, 1.529277690435257475E-17 ) ) ;
#90 = DIRECTION ( 'NONE',  ( -1.000000000000000000, 0.0000000000000000000, 1.367291288120251888E-16 ) ) ;
#91 =( NAMED_UNIT ( * ) PLANE_ANGLE_UNIT ( ) SI_UNIT ( $, .RADIAN. ) );
#92 = EDGE_CURVE ( 'NONE', #250, #121, #5, .T. ) ;
#93 = EDGE_CURVE ( 'NONE', #201, #25, #159, .T. ) ;
#94 = ORIENTED_EDGE ( 'NONE', *, *, #194, .F. ) ;
#95 = ORIENTED_EDGE ( 'NONE', *, *, #67, .F. ) ;
#96 = ORIENTED_EDGE ( 'NONE', *, *, #260, .F. ) ;
#97 = ORIENTED_EDGE ( 'NONE', *, *, #106, .T. ) ;
#98 = CIRCLE ( 'NONE', #164, 0.1248749999999999999 ) ;
#99 = CONICAL_SURFACE ( 'NONE', #232, 95.04777804618574066, 1.178097245096175749 ) ;
#100 = ORIENTED_EDGE ( 'NONE', *, *, #200, .F. ) ;
#101 = DIRECTION ( 'NONE',  ( 1.000000000000000000, 0.0000000000000000000, 0.0000000000000000000 ) ) ;
#102 = DIRECTION ( 'NONE',  ( -1.224646799147353207E-16, -0.0000000000000000000, -1.000000000000000000 ) ) ;
#103 = CONICAL_SURFACE ( 'NONE', #213, 95.04777804618574066, 1.178097245096175749 ) ;
#104 = DIRECTION ( 'NONE',  ( 1.000000000000000000, 0.0000000000000000000, 0.0000000000000000000 ) ) ;
#105 = FACE_OUTER_BOUND ( 'NONE', #50, .T. ) ;
#106 = EDGE_CURVE ( 'NONE', #225, #24, #19, .T. ) ;
#107 = LINE ( 'NONE', #78, #269 ) ;
#108 = AXIS2_PLACEMENT_3D ( 'NONE', #255, #35, #313 ) ;
#109 = MECHANICAL_DESIGN_GEOMETRIC_PRESENTATION_REPRESENTATION (  '', ( #268 ), #37 ) ;
#110 = SURFACE_SIDE_STYLE ('',( #12 ) ) ;
#111 = CARTESIAN_POINT ( 'NONE',  ( 9.184850993605150903E-17, 0.0000000000000000000, 0.7500000000000001110 ) ) ;
#112 = FILL_AREA_STYLE_COLOUR ( '', #181 ) ;
#113 = ADVANCED_FACE ( 'NONE', ( #105 ), #239, .T. ) ;
#114 = CIRCLE ( 'NONE', #108, 0.1250000000000000000 ) ;
#115 = CIRCLE ( 'NONE', #128, 0.1248749999999999999 ) ;
#116 =( LENGTH_UNIT ( ) NAMED_UNIT ( * ) SI_UNIT ( $, .METRE. ) );
#117 =( CONVERSION_BASED_UNIT ( 'INCH', #20 ) LENGTH_UNIT ( ) NAMED_UNIT ( #40 ) );
#118 = CARTESIAN_POINT ( 'NONE',  ( 4.821444091131312288E-15, 0.0000000000000000000, 39.37007874015748143 ) ) ;
#119 = ADVANCED_FACE ( 'NONE', ( #207 ), #57, .T. ) ;
#120 = FACE_OUTER_BOUND ( 'NONE', #146, .T. ) ;
#121 = VERTEX_POINT ( 'NONE', #312 ) ;
#122 = EDGE_LOOP ( 'NONE', ( #176, #272, #175, #53 ) ) ;
#123 = ORIENTED_EDGE ( 'NONE', *, *, #215, .T. ) ;
#124 = ORIENTED_EDGE ( 'NONE', *, *, #183, .F. ) ;
#125 = AXIS2_PLACEMENT_3D ( 'NONE', #131, #284, #208 ) ;
#126 = ORIENTED_EDGE ( 'NONE', *, *, #260, .T. ) ;
#127 = MECHANICAL_DESIGN_GEOMETRIC_PRESENTATION_REPRESENTATION (  '', ( #290 ), #88 ) ;
#128 = AXIS2_PLACEMENT_3D ( 'NONE', #317, #66, #90 ) ;
#129 = CARTESIAN_POINT ( 'NONE',  ( 0.0000000000000000000, 0.0000000000000000000, 2.000000000000000000 ) ) ;
#130 = UNCERTAINTY_MEASURE_WITH_UNIT (LENGTH_MEASURE( 1.000000000000000082E-05 ), #117, 'distance_accuracy_value', 'NONE');
#131 = CARTESIAN_POINT ( 'NONE',  ( 0.0000000000000000000, 0.0000000000000000000, 2.000000000000000000 ) ) ;
#132 = CARTESIAN_POINT ( 'NONE',  ( -0.1099999999999996397, 0.0000000000000000000, 2.000000000000000000 ) ) ;
#133 = PRODUCT_DEFINITION_FORMATION_WITH_SPECIFIED_SOURCE ( 'ANY', '', #43, .NOT_KNOWN. ) ;
#134 = DIRECTION ( 'NONE',  ( 0.0000000000000000000, 0.0000000000000000000, 1.000000000000000000 ) ) ;
#135 = CARTESIAN_POINT ( 'NONE',  ( 0.0000000000000000000, 0.0000000000000000000, 2.000000000000000000 ) ) ;
#136 = CARTESIAN_POINT ( 'NONE',  ( 9.184850993605150903E-17, 0.0000000000000000000, 0.7500000000000001110 ) ) ;
#137 = VECTOR ( 'NONE', #33, 39.37007874015748854 ) ;
#138 = SURFACE_STYLE_USAGE ( .BOTH. , #110 ) ;
#139 = FACE_OUTER_BOUND ( 'NONE', #299, .T. ) ;
#140 = PRESENTATION_STYLE_ASSIGNMENT (( #138 ) ) ;
#141 = FACE_OUTER_BOUND ( 'NONE', #150, .T. ) ;
#142 = EDGE_CURVE ( 'NONE', #305, #121, #98, .T. ) ;
#143 = ADVANCED_FACE ( 'NONE', ( #80 ), #34, .T. ) ;
#144 = LENGTH_MEASURE_WITH_UNIT ( LENGTH_MEASURE( 0.02539999999999999897 ), #116 );
#145 = ORIENTED_EDGE ( 'NONE', *, *, #158, .F. ) ;
#146 = EDGE_LOOP ( 'NONE', ( #71, #123, #270, #223 ) ) ;
#147 = AXIS2_PLACEMENT_3D ( 'NONE', #182, #211, #104 ) ;
#148 = AXIS2_PLACEMENT_3D ( 'NONE', #216, #293, #188 ) ;
#149 = ORIENTED_EDGE ( 'NONE', *, *, #165, .T. ) ;
#150 = EDGE_LOOP ( 'NONE', ( #151, #205, #73, #322 ) ) ;
#151 = ORIENTED_EDGE ( 'NONE', *, *, #93, .F. ) ;
#152 = DIRECTION ( 'NONE',  ( -1.224646799147353207E-16, -0.0000000000000000000, -1.000000000000000000 ) ) ;
#153 = AXIS2_PLACEMENT_3D ( 'NONE', #298, #196, #321 ) ;
#154 = ADVANCED_FACE ( 'NONE', ( #59 ), #82, .T. ) ;
#155 = LINE ( 'NONE', #54, #202 ) ;
#156 = DIRECTION ( 'NONE',  ( 1.000000000000000000, 0.0000000000000000000, 0.0000000000000000000 ) ) ;
#157 = CARTESIAN_POINT ( 'NONE',  ( 0.0000000000000000000, 0.0000000000000000000, 2.000000000000000000 ) ) ;
#158 = EDGE_CURVE ( 'NONE', #25, #201, #189, .T. ) ;
#159 = CIRCLE ( 'NONE', #289, 0.1099999999999996397 ) ;
#160 = CARTESIAN_POINT ( 'NONE',  ( 9.193532640014472135E-17, 0.0000000000000000000, 0.7507089102274522308 ) ) ;
#161 = CARTESIAN_POINT ( 'NONE',  ( 4.821444091131312288E-15, 0.0000000000000000000, 39.37007874015748143 ) ) ;
#162 = CYLINDRICAL_SURFACE ( 'NONE', #314, 0.1250000000000000000 ) ;
#163 = CARTESIAN_POINT ( 'NONE',  ( 0.0000000000000000000, 0.0000000000000000000, 0.0000000000000000000 ) ) ;
#164 = AXIS2_PLACEMENT_3D ( 'NONE', #259, #102, #6 ) ;
#165 = EDGE_CURVE ( 'NONE', #227, #305, #107, .T. ) ;
#166 = DIRECTION ( 'NONE',  ( -1.224646799147353207E-16, -0.0000000000000000000, -1.000000000000000000 ) ) ;
#167 = DIRECTION ( 'NONE',  ( -1.000000000000000000, 0.0000000000000000000, 0.0000000000000000000 ) ) ;
#168 = CARTESIAN_POINT ( 'NONE',  ( 0.0000000000000000000, 0.0000000000000000000, 2.000000000000000000 ) ) ;
#169 = EDGE_CURVE ( 'NONE', #250, #305, #315, .T. ) ;
#170 = CLOSED_SHELL ( 'NONE', ( #119, #258, #210, #204, #143, #303, #249, #154, #113, #302, #320 ) ) ;
#171 = AXIS2_PLACEMENT_3D ( 'NONE', #168, #187, #286 ) ;
#172 =( CONVERSION_BASED_UNIT ( 'INCH', #144 ) LENGTH_UNIT ( ) NAMED_UNIT ( #36 ) );
#173 = APPLICATION_PROTOCOL_DEFINITION ( 'draft international standard', 'automotive_design', 1998, #282 ) ;
#174 = ORIENTED_EDGE ( 'NONE', *, *, #85, .F. ) ;
#175 = ORIENTED_EDGE ( 'NONE', *, *, #39, .T. ) ;
#176 = ORIENTED_EDGE ( 'NONE', *, *, #84, .F. ) ;
#177 = VERTEX_POINT ( 'NONE', #283 ) ;
#178 = DIRECTION ( 'NONE',  ( -0.9238795325112879597, 1.131426112287701740E-16, 0.3826834323650867842 ) ) ;
#179 = SURFACE_SIDE_STYLE ('',( #306 ) ) ;
#180 = CARTESIAN_POINT ( 'NONE',  ( 0.0000000000000000000, 0.0000000000000000000, 0.0000000000000000000 ) ) ;
#181 = COLOUR_RGB ( '',0.7921568627450980005, 0.8196078431372548767, 0.9333333333333333481 ) ;
#182 = CARTESIAN_POINT ( 'NONE',  ( 9.184850993605150903E-17, 0.0000000000000000000, 0.7500000000000001110 ) ) ;
#183 = EDGE_CURVE ( 'NONE', #30, #28, #319, .T. ) ;
#184 = CARTESIAN_POINT ( 'NONE',  ( 0.1099999999999996397, 1.347111479062084158E-17, 2.000000000000000000 ) ) ;
#185 = EDGE_CURVE ( 'NONE', #227, #177, #219, .T. ) ;
#186 = CARTESIAN_POINT ( 'NONE',  ( 0.0000000000000000000, 0.0000000000000000000, 0.0000000000000000000 ) ) ;
#187 = DIRECTION ( 'NONE',  ( 0.0000000000000000000, 0.0000000000000000000, 1.000000000000000000 ) ) ;
#188 = DIRECTION ( 'NONE',  ( 1.000000000000000000, 0.0000000000000000000, 0.0000000000000000000 ) ) ;
#189 = CIRCLE ( 'NONE', #226, 0.1099999999999996397 ) ;
#190 = APPLICATION_CONTEXT ( 'automotive_design' ) ;
#191 = AXIS2_PLACEMENT_3D ( 'NONE', #111, #292, #235 ) ;
#192 =( LENGTH_UNIT ( ) NAMED_UNIT ( * ) SI_UNIT ( $, .METRE. ) );
#193 = FACE_OUTER_BOUND ( 'NONE', #72, .T. ) ;
#194 = EDGE_CURVE ( 'NONE', #177, #28, #197, .T. ) ;
#195 = CARTESIAN_POINT ( 'NONE',  ( -0.1248749999999999166, 1.529277690435257475E-17, 0.7500000000000001110 ) ) ;
#196 = DIRECTION ( 'NONE',  ( 0.0000000000000000000, 0.0000000000000000000, 1.000000000000000000 ) ) ;
#197 = CIRCLE ( 'NONE', #148, 0.1250000000000000000 ) ;
#198 = EDGE_LOOP ( 'NONE', ( #95, #145, #2, #174 ) ) ;
#199 = ORIENTED_EDGE ( 'NONE', *, *, #85, .T. ) ;
#200 = EDGE_CURVE ( 'NONE', #30, #121, #262, .T. ) ;
#201 = VERTEX_POINT ( 'NONE', #238 ) ;
#202 = VECTOR ( 'NONE', #231, 39.37007874015748143 ) ;
#203 = ORIENTED_EDGE ( 'NONE', *, *, #194, .T. ) ;
#204 = ADVANCED_FACE ( 'NONE', ( #141 ), #240, .T. ) ;
#205 = ORIENTED_EDGE ( 'NONE', *, *, #67, .T. ) ;
#206 = FILL_AREA_STYLE ('',( #278 ) ) ;
#207 = FACE_OUTER_BOUND ( 'NONE', #29, .T. ) ;
#208 = DIRECTION ( 'NONE',  ( -1.000000000000000000, 0.0000000000000000000, 0.0000000000000000000 ) ) ;
#209 = DIRECTION ( 'NONE',  ( -1.000000000000000000, 0.0000000000000000000, 1.224646799147353454E-16 ) ) ;
#210 = ADVANCED_FACE ( 'NONE', ( #288 ), #7, .T. ) ;
#211 = DIRECTION ( 'NONE',  ( 1.224646799147353207E-16, 0.0000000000000000000, 1.000000000000000000 ) ) ;
#212 = DIRECTION ( 'NONE',  ( -1.224646799147353207E-16, -0.0000000000000000000, -1.000000000000000000 ) ) ;
#213 = AXIS2_PLACEMENT_3D ( 'NONE', #118, #64, #46 ) ;
#214 = DIRECTION ( 'NONE',  ( -1.000000000000000000, 0.0000000000000000000, 0.0000000000000000000 ) ) ;
#215 = EDGE_CURVE ( 'NONE', #227, #30, #323, .T. ) ;
#216 = CARTESIAN_POINT ( 'NONE',  ( 9.193532640014472135E-17, 0.0000000000000000000, 0.7507089102274522308 ) ) ;
#217 = FILL_AREA_STYLE ('',( #112 ) ) ;
#218 = AXIS2_PLACEMENT_3D ( 'NONE', #136, #267, #214 ) ;
#219 = LINE ( 'NONE', #13, #222 ) ;
#220 = ORIENTED_EDGE ( 'NONE', *, *, #169, .F. ) ;
#221 = VECTOR ( 'NONE', #281, 39.37007874015748143 ) ;
#222 = VECTOR ( 'NONE', #86, 39.37007874015748143 ) ;
#223 = ORIENTED_EDGE ( 'NONE', *, *, #142, .F. ) ;
#224 = ADVANCED_BREP_SHAPE_REPRESENTATION ( 'Micro_RDD-60', ( #307, #153 ), #51 ) ;
#225 = VERTEX_POINT ( 'NONE', #17 ) ;
#226 = AXIS2_PLACEMENT_3D ( 'NONE', #135, #234, #229 ) ;
#227 = VERTEX_POINT ( 'NONE', #287 ) ;
#228 = DIRECTION ( 'NONE',  ( -1.000000000000000000, 0.0000000000000000000, 0.0000000000000000000 ) ) ;
#229 = DIRECTION ( 'NONE',  ( 1.000000000000000000, 0.0000000000000000000, 0.0000000000000000000 ) ) ;
#230 = UNCERTAINTY_MEASURE_WITH_UNIT (LENGTH_MEASURE( 1.000000000000000082E-05 ), #172, 'distance_accuracy_value', 'NONE');
#231 = DIRECTION ( 'NONE',  ( -0.0000000000000000000, -0.0000000000000000000, -1.000000000000000000 ) ) ;
#232 = AXIS2_PLACEMENT_3D ( 'NONE', #161, #45, #266 ) ;
#233 = DIRECTION ( 'NONE',  ( 0.0000000000000000000, 0.0000000000000000000, -1.000000000000000000 ) ) ;
#234 = DIRECTION ( 'NONE',  ( 0.0000000000000000000, 0.0000000000000000000, 1.000000000000000000 ) ) ;
#235 = DIRECTION ( 'NONE',  ( 1.000000000000000000, 0.0000000000000000000, 0.0000000000000000000 ) ) ;
#236 = PLANE ( 'NONE',  #171 ) ;
#237 = DIRECTION ( 'NONE',  ( -0.0000000000000000000, -0.0000000000000000000, -1.000000000000000000 ) ) ;
#238 = CARTESIAN_POINT ( 'NONE',  ( 0.1099999999999996397, 1.438959988998137757E-17, 2.000000000000000000 ) ) ;
#239 = CONICAL_SURFACE ( 'NONE', #147, 0.1248749999999999999, 0.1745329251994340025 ) ;
#240 = CONICAL_SURFACE ( 'NONE', #274, 0.1099999999999996397, 0.7853981633974426169 ) ;
#241 = DIRECTION ( 'NONE',  ( 0.0000000000000000000, 0.0000000000000000000, -1.000000000000000000 ) ) ;
#242 = APPLICATION_PROTOCOL_DEFINITION ( 'draft international standard', 'automotive_design', 1998, #190 ) ;
#243 = ORIENTED_EDGE ( 'NONE', *, *, #215, .F. ) ;
#244 = ORIENTED_EDGE ( 'NONE', *, *, #84, .T. ) ;
#245 = CIRCLE ( 'NONE', #76, 0.1248749999999999999 ) ;
#246 = PRESENTATION_LAYER_ASSIGNMENT (  '', '', ( #268 ) ) ;
#247 = ORIENTED_EDGE ( 'NONE', *, *, #169, .T. ) ;
#248 = ORIENTED_EDGE ( 'NONE', *, *, #32, .T. ) ;
#249 = ADVANCED_FACE ( 'NONE', ( #63 ), #236, .T. ) ;
#250 = VERTEX_POINT ( 'NONE', #316 ) ;
#251 = CIRCLE ( 'NONE', #87, 0.1250000000000000000 ) ;
#252 = LINE ( 'NONE', #61, #221 ) ;
#253 = SURFACE_STYLE_USAGE ( .BOTH. , #179 ) ;
#254 = DIRECTION ( 'NONE',  ( -1.224646799147353207E-16, -0.0000000000000000000, -1.000000000000000000 ) ) ;
#255 = CARTESIAN_POINT ( 'NONE',  ( 0.0000000000000000000, 0.0000000000000000000, 1.984999999999999432 ) ) ;
#256 = VECTOR ( 'NONE', #10, 39.37007874015748143 ) ;
#257 = ORIENTED_EDGE ( 'NONE', *, *, #39, .F. ) ;
#258 = ADVANCED_FACE ( 'NONE', ( #265 ), #99, .T. ) ;
#259 = CARTESIAN_POINT ( 'NONE',  ( 6.334475600128813636E-18, 0.0000000000000000000, 0.05172491860133976438 ) ) ;
#260 = EDGE_CURVE ( 'NONE', #121, #305, #115, .T. ) ;
#261 = CARTESIAN_POINT ( 'NONE',  ( -0.1250000000000000000, 0.0000000000000000000, 2.000000000000000000 ) ) ;
#262 = LINE ( 'NONE', #89, #77 ) ;
#263 = AXIS2_PLACEMENT_3D ( 'NONE', #56, #81, #9 ) ;
#264 = DIRECTION ( 'NONE',  ( -1.224646799147353207E-16, -0.0000000000000000000, -1.000000000000000000 ) ) ;
#265 = FACE_OUTER_BOUND ( 'NONE', #49, .T. ) ;
#266 = DIRECTION ( 'NONE',  ( 1.000000000000000000, 0.0000000000000000000, -1.379608302175842567E-16 ) ) ;
#267 = DIRECTION ( 'NONE',  ( -1.224646799147353207E-16, -0.0000000000000000000, -1.000000000000000000 ) ) ;
#268 = STYLED_ITEM ( 'NONE', ( #140 ), #307 ) ;
#269 = VECTOR ( 'NONE', #212, 39.37007874015748143 ) ;
#270 = ORIENTED_EDGE ( 'NONE', *, *, #200, .T. ) ;
#271 = PRODUCT_CONTEXT ( 'NONE', #282, 'mechanical' ) ;
#272 = ORIENTED_EDGE ( 'NONE', *, *, #183, .T. ) ;
#273 = ORIENTED_EDGE ( 'NONE', *, *, #296, .T. ) ;
#274 = AXIS2_PLACEMENT_3D ( 'NONE', #69, #241, #167 ) ;
#275 = PRODUCT_RELATED_PRODUCT_CATEGORY ( 'part', '', ( #43 ) ) ;
#276 = ORIENTED_EDGE ( 'NONE', *, *, #92, .F. ) ;
#277 = ORIENTED_EDGE ( 'NONE', *, *, #296, .F. ) ;
#278 = FILL_AREA_STYLE_COLOUR ( '', #60 ) ;
#279 =( NAMED_UNIT ( * ) SI_UNIT ( $, .STERADIAN. ) SOLID_ANGLE_UNIT ( ) );
#280 = CARTESIAN_POINT ( 'NONE',  ( 0.0000000000000000000, 0.0000000000000000000, 0.0000000000000000000 ) ) ;
#281 = DIRECTION ( 'NONE',  ( -0.7071067811865434649, 0.0000000000000000000, -0.7071067811865515695 ) ) ;
#282 = APPLICATION_CONTEXT ( 'automotive_design' ) ;
#283 = CARTESIAN_POINT ( 'NONE',  ( 0.1250000000000000833, 1.530808498934192433E-17, 0.7507089102274522308 ) ) ;
#284 = DIRECTION ( 'NONE',  ( -0.0000000000000000000, -0.0000000000000000000, -1.000000000000000000 ) ) ;
#285 = LINE ( 'NONE', #184, #256 ) ;
#286 = DIRECTION ( 'NONE',  ( 1.000000000000000000, 0.0000000000000000000, -0.0000000000000000000 ) ) ;
#287 = CARTESIAN_POINT ( 'NONE',  ( 0.1248750000000000970, 0.0000000000000000000, 0.7500000000000001110 ) ) ;
#288 = FACE_OUTER_BOUND ( 'NONE', #122, .T. ) ;
#289 = AXIS2_PLACEMENT_3D ( 'NONE', #129, #134, #101 ) ;
#290 = STYLED_ITEM ( 'NONE', ( #62 ), #224 ) ;
#291 = PRODUCT_DEFINITION ( 'UNKNOWN', '', #133, #27 ) ;
#292 = DIRECTION ( 'NONE',  ( 1.224646799147353207E-16, 0.0000000000000000000, 1.000000000000000000 ) ) ;
#293 = DIRECTION ( 'NONE',  ( -1.224646799147353207E-16, -0.0000000000000000000, -1.000000000000000000 ) ) ;
#294 = SHAPE_DEFINITION_REPRESENTATION ( #22, #224 ) ;
#295 = DIRECTION ( 'NONE',  ( -1.000000000000000000, 0.0000000000000000000, 1.224646799147353454E-16 ) ) ;
#296 = EDGE_CURVE ( 'NONE', #225, #28, #47, .T. ) ;
#297 = VECTOR ( 'NONE', #178, 39.37007874015748854 ) ;
#298 = CARTESIAN_POINT ( 'NONE',  ( 0.0000000000000000000, 0.0000000000000000000, 0.0000000000000000000 ) ) ;
#299 = EDGE_LOOP ( 'NONE', ( #74, #199, #273, #94 ) ) ;
#300 = ORIENTED_EDGE ( 'NONE', *, *, #158, .T. ) ;
#301 = ORIENTED_EDGE ( 'NONE', *, *, #142, .T. ) ;
#302 = ADVANCED_FACE ( 'NONE', ( #193 ), #103, .T. ) ;
#303 = ADVANCED_FACE ( 'NONE', ( #139 ), #162, .T. ) ;
#304 = EDGE_LOOP ( 'NONE', ( #97, #248, #257, #277 ) ) ;
#305 = VERTEX_POINT ( 'NONE', #42 ) ;
#306 = SURFACE_STYLE_FILL_AREA ( #206 ) ;
#307 = MANIFOLD_SOLID_BREP ( 'Cut-Revolve1', #170 ) ;
#308 = CARTESIAN_POINT ( 'NONE',  ( -0.1249999999999999167, 0.0000000000000000000, 0.7507089102274522308 ) ) ;
#309 = AXIS2_PLACEMENT_3D ( 'NONE', #186, #254, #209 ) ;
#310 = VECTOR ( 'NONE', #21, 39.37007874015748143 ) ;
#311 = CARTESIAN_POINT ( 'NONE',  ( -0.1248749999999999166, 1.530043094684724646E-17, 0.7500000000000001110 ) ) ;
#312 = CARTESIAN_POINT ( 'NONE',  ( -0.1248749999999999999, 1.529277690435257475E-17, 0.05172491860133978520 ) ) ;
#313 = DIRECTION ( 'NONE',  ( 1.000000000000000000, 0.0000000000000000000, 0.0000000000000000000 ) ) ;
#314 = AXIS2_PLACEMENT_3D ( 'NONE', #44, #237, #15 ) ;
#315 = LINE ( 'NONE', #280, #137 ) ;
#316 = CARTESIAN_POINT ( 'NONE',  ( 0.0000000000000000000, 0.0000000000000000000, 0.0000000000000000000 ) ) ;
#317 = CARTESIAN_POINT ( 'NONE',  ( 6.334475600128813636E-18, 0.0000000000000000000, 0.05172491860133976438 ) ) ;
#318 = LENGTH_MEASURE_WITH_UNIT ( LENGTH_MEASURE( 0.02539999999999999897 ), #14 );
#319 = LINE ( 'NONE', #195, #31 ) ;
#320 = ADVANCED_FACE ( 'NONE', ( #120 ), #68, .T. ) ;
#321 = DIRECTION ( 'NONE',  ( 1.000000000000000000, 0.0000000000000000000, 0.0000000000000000000 ) ) ;
#322 = ORIENTED_EDGE ( 'NONE', *, *, #79, .F. ) ;
#323 = CIRCLE ( 'NONE', #218, 0.1248749999999999999 ) ;
ENDSEC;
END-ISO-10303-21;
