ISO-10303-21;
HEADER;
FILE_DESCRIPTION (( 'STEP AP214' ),
    '1' );
FILE_NAME ('83198.STEP',
    '2023-06-23T08:25:34',
    ( '' ),
    ( '' ),
    'SwSTEP 2.0',
    'SolidWorks 2023',
    '' );
FILE_SCHEMA (( 'AUTOMOTIVE_DESIGN' ));
ENDSEC;

DATA;
#1 = FILL_AREA_STYLE ('',( #117 ) ) ;
#2 = DIRECTION ( 'NONE',  ( -3.498990854706722745E-17, 1.000000000000000000, -0.000000000000000000 ) ) ;
#3 =( GEOMETRIC_REPRESENTATION_CONTEXT ( 3 ) GLOBAL_UNCERTAINTY_ASSIGNED_CONTEXT ( ( #239 ) ) GLOBAL_UNIT_ASSIGNED_CONTEXT ( ( #71, #241, #268 ) ) REPRESENTATION_CONTEXT ( 'NONE', 'WORKASPACE' ) );
#4 = PRESENTATION_LAYER_ASSIGNMENT (  '', '', ( #113 ) ) ;
#5 = DIRECTION ( 'NONE',  ( -3.498990854706722745E-17, 1.000000000000000000, -0.000000000000000000 ) ) ;
#6 = ORIENTED_EDGE ( 'NONE', *, *, #77, .F. ) ;
#7 = LENGTH_MEASURE_WITH_UNIT ( LENGTH_MEASURE( 0.02539999999999999897 ), #175 );
#8 = SURFACE_STYLE_FILL_AREA ( #221 ) ;
#9 = EDGE_CURVE ( 'NONE', #53, #23, #202, .T. ) ;
#10 =( GEOMETRIC_REPRESENTATION_CONTEXT ( 3 ) GLOBAL_UNCERTAINTY_ASSIGNED_CONTEXT ( ( #158 ) ) GLOBAL_UNIT_ASSIGNED_CONTEXT ( ( #238, #171, #201 ) ) REPRESENTATION_CONTEXT ( 'NONE', 'WORKASPACE' ) );
#11 = AXIS2_PLACEMENT_3D ( 'NONE', #68, #163, #92 ) ;
#12 = CIRCLE ( 'NONE', #118, 0.1562500000000000000 ) ;
#13 = CARTESIAN_POINT ( 'NONE',  ( 0.1562500000000000000, 2.500000000000000000, 0.000000000000000000 ) ) ;
#14 = EDGE_LOOP ( 'NONE', ( #160, #74, #18, #48 ) ) ;
#15 = AXIS2_PLACEMENT_3D ( 'NONE', #145, #100, #102 ) ;
#16 = SURFACE_STYLE_FILL_AREA ( #258 ) ;
#17 = AXIS2_PLACEMENT_3D ( 'NONE', #266, #26, #188 ) ;
#18 = ORIENTED_EDGE ( 'NONE', *, *, #222, .F. ) ;
#19 = DIRECTION ( 'NONE',  ( 1.000000000000000000, 3.498990854706722745E-17, 0.000000000000000000 ) ) ;
#20 =( CONVERSION_BASED_UNIT ( 'INCH', #82 ) LENGTH_UNIT ( ) NAMED_UNIT ( #73 ) );
#21 = CARTESIAN_POINT ( 'NONE',  ( 1.913510623667739463E-17, 0.000000000000000000, 0.1562500000000000000 ) ) ;
#22 =( NAMED_UNIT ( * ) PLANE_ANGLE_UNIT ( ) SI_UNIT ( $, .RADIAN. ) );
#23 = VERTEX_POINT ( 'NONE', #130 ) ;
#24 = LENGTH_MEASURE_WITH_UNIT ( LENGTH_MEASURE( 0.02539999999999999897 ), #55 );
#25 = CIRCLE ( 'NONE', #293, 0.1562500000000000000 ) ;
#26 = DIRECTION ( 'NONE',  ( 0.000000000000000000, 0.000000000000000000, 1.000000000000000000 ) ) ;
#27 = FACE_OUTER_BOUND ( 'NONE', #134, .T. ) ;
#28 = PRESENTATION_LAYER_ASSIGNMENT (  '', '', ( #122 ) ) ;
#29 =( GEOMETRIC_REPRESENTATION_CONTEXT ( 3 ) GLOBAL_UNCERTAINTY_ASSIGNED_CONTEXT ( ( #119 ) ) GLOBAL_UNIT_ASSIGNED_CONTEXT ( ( #126, #81, #184 ) ) REPRESENTATION_CONTEXT ( 'NONE', 'WORKASPACE' ) );
#30 =( NAMED_UNIT ( * ) PLANE_ANGLE_UNIT ( ) SI_UNIT ( $, .RADIAN. ) );
#31 = CARTESIAN_POINT ( 'NONE',  ( 0.1562499999999999722, 2.500000000000000000, 1.913510623667739771E-17 ) ) ;
#32 = CLOSED_SHELL ( 'NONE', ( #104, #70, #93, #191 ) ) ;
#33 = CIRCLE ( 'NONE', #269, 0.1562500000000000833 ) ;
#34 = PRESENTATION_STYLE_ASSIGNMENT (( #57 ) ) ;
#35 = ORIENTED_EDGE ( 'NONE', *, *, #174, .F. ) ;
#36 = LINE ( 'NONE', #58, #223 ) ;
#37 = VERTEX_POINT ( 'NONE', #261 ) ;
#38 = CLOSED_SHELL ( 'NONE', ( #179, #85, #67, #87 ) ) ;
#39 = SURFACE_STYLE_USAGE ( .BOTH. , #180 ) ;
#40 =( CONVERSION_BASED_UNIT ( 'INCH', #60 ) LENGTH_UNIT ( ) NAMED_UNIT ( #267 ) );
#41 = FACE_OUTER_BOUND ( 'NONE', #247, .T. ) ;
#42 = DIRECTION ( 'NONE',  ( -0.000000000000000000, -1.000000000000000000, -0.000000000000000000 ) ) ;
#43 = VECTOR ( 'NONE', #121, 39.37007874015748143 ) ;
#44 = PRESENTATION_STYLE_ASSIGNMENT (( #231 ) ) ;
#45 = DIRECTION ( 'NONE',  ( -0.000000000000000000, -1.000000000000000000, -0.000000000000000000 ) ) ;
#46 = DIRECTION ( 'NONE',  ( -3.498990854706722745E-17, 1.000000000000000000, -0.000000000000000000 ) ) ;
#47 = SURFACE_STYLE_FILL_AREA ( #1 ) ;
#48 = ORIENTED_EDGE ( 'NONE', *, *, #282, .F. ) ;
#49 = CARTESIAN_POINT ( 'NONE',  ( -0.1562500000000001388, 2.500000000000000000, 0.000000000000000000 ) ) ;
#50 = COLOUR_RGB ( '',1.000000000000000000, 0.000000000000000000, 0.000000000000000000 ) ;
#51 = LENGTH_MEASURE_WITH_UNIT ( LENGTH_MEASURE( 0.02539999999999999897 ), #166 );
#52 = ORIENTED_EDGE ( 'NONE', *, *, #77, .T. ) ;
#53 = VERTEX_POINT ( 'NONE', #133 ) ;
#54 =( NAMED_UNIT ( * ) SI_UNIT ( $, .STERADIAN. ) SOLID_ANGLE_UNIT ( ) );
#55 =( LENGTH_UNIT ( ) NAMED_UNIT ( * ) SI_UNIT ( $, .METRE. ) );
#56 = DIRECTION ( 'NONE',  ( 0.000000000000000000, -0.000000000000000000, 1.000000000000000000 ) ) ;
#57 = SURFACE_STYLE_USAGE ( .BOTH. , #298 ) ;
#58 = CARTESIAN_POINT ( 'NONE',  ( -0.1562500000000001110, 2.500000000000000000, 0.000000000000000000 ) ) ;
#59 = EDGE_LOOP ( 'NONE', ( #216, #137 ) ) ;
#60 = LENGTH_MEASURE_WITH_UNIT ( LENGTH_MEASURE( 0.02539999999999999897 ), #278 );
#61 = PRESENTATION_LAYER_ASSIGNMENT (  '', '', ( #197 ) ) ;
#62 = PLANE ( 'NONE',  #11 ) ;
#63 = CARTESIAN_POINT ( 'NONE',  ( 0.000000000000000000, 0.000000000000000000, 0.000000000000000000 ) ) ;
#64 = CARTESIAN_POINT ( 'NONE',  ( -6.123233995736766036E-17, 2.500000000000000000, 0.000000000000000000 ) ) ;
#65 = MECHANICAL_DESIGN_GEOMETRIC_PRESENTATION_REPRESENTATION (  '', ( #218 ), #10 ) ;
#66 = LENGTH_MEASURE_WITH_UNIT ( LENGTH_MEASURE( 0.02539999999999999897 ), #205 );
#67 = ADVANCED_FACE ( 'NONE', ( #186 ), #287, .T. ) ;
#68 = CARTESIAN_POINT ( 'NONE',  ( 9.564794532282251356E-35, 0.7500000000000001110, 0.000000000000000000 ) ) ;
#69 = ORIENTED_EDGE ( 'NONE', *, *, #9, .F. ) ;
#70 = ADVANCED_FACE ( 'NONE', ( #305 ), #62, .F. ) ;
#71 =( CONVERSION_BASED_UNIT ( 'INCH', #72 ) LENGTH_UNIT ( ) NAMED_UNIT ( #127 ) );
#72 = LENGTH_MEASURE_WITH_UNIT ( LENGTH_MEASURE( 0.02539999999999999897 ), #292 );
#73 = DIMENSIONAL_EXPONENTS ( 1.000000000000000000, 0.000000000000000000, 0.000000000000000000, 0.000000000000000000, 0.000000000000000000, 0.000000000000000000, 0.000000000000000000 ) ;
#74 = ORIENTED_EDGE ( 'NONE', *, *, #236, .T. ) ;
#75 = CIRCLE ( 'NONE', #144, 0.1562500000000000000 ) ;
#76 = CARTESIAN_POINT ( 'NONE',  ( -6.123233995736766036E-17, 2.500000000000000000, 0.000000000000000000 ) ) ;
#77 = EDGE_CURVE ( 'NONE', #112, #271, #280, .T. ) ;
#78 = CYLINDRICAL_SURFACE ( 'NONE', #245, 0.1562500000000000278 ) ;
#79 = CIRCLE ( 'NONE', #170, 0.1562500000000000833 ) ;
#80 = PRESENTATION_STYLE_ASSIGNMENT (( #39 ) ) ;
#81 =( NAMED_UNIT ( * ) PLANE_ANGLE_UNIT ( ) SI_UNIT ( $, .RADIAN. ) );
#82 = LENGTH_MEASURE_WITH_UNIT ( LENGTH_MEASURE( 0.02539999999999999897 ), #204 );
#83 = FILL_AREA_STYLE_COLOUR ( '', #275 ) ;
#84 = FILL_AREA_STYLE ('',( #259 ) ) ;
#85 = ADVANCED_FACE ( 'NONE', ( #41 ), #128, .T. ) ;
#86 = PRESENTATION_STYLE_ASSIGNMENT (( #162 ) ) ;
#87 = ADVANCED_FACE ( 'NONE', ( #27 ), #96, .T. ) ;
#88 = DIRECTION ( 'NONE',  ( -0.000000000000000000, -1.000000000000000000, -0.000000000000000000 ) ) ;
#89 = UNCERTAINTY_MEASURE_WITH_UNIT (LENGTH_MEASURE( 1.000000000000000082E-05 ), #124, 'distance_accuracy_value', 'NONE');
#90 = STYLED_ITEM ( 'NONE', ( #34 ), #146 ) ;
#91 = CIRCLE ( 'NONE', #300, 0.1562500000000000000 ) ;
#92 = DIRECTION ( 'NONE',  ( -1.000000000000000000, -3.498990854706722745E-17, 0.000000000000000000 ) ) ;
#93 = ADVANCED_FACE ( 'NONE', ( #198 ), #78, .T. ) ;
#94 = SHAPE_DEFINITION_REPRESENTATION ( #279, #217 ) ;
#95 = PRESENTATION_LAYER_ASSIGNMENT (  '', '', ( #90 ) ) ;
#96 = PLANE ( 'NONE',  #15 ) ;
#97 = APPLICATION_PROTOCOL_DEFINITION ( 'draft international standard', 'automotive_design', 1998, #181 ) ;
#98 = SURFACE_SIDE_STYLE ('',( #47 ) ) ;
#99 = MECHANICAL_DESIGN_GEOMETRIC_PRESENTATION_REPRESENTATION (  '', ( #197 ), #107 ) ;
#100 = DIRECTION ( 'NONE',  ( 0.000000000000000000, -1.000000000000000000, -0.000000000000000000 ) ) ;
#101 = COLOUR_RGB ( '',1.000000000000000000, 0.000000000000000000, 0.000000000000000000 ) ;
#102 = DIRECTION ( 'NONE',  ( 0.000000000000000000, 0.000000000000000000, -1.000000000000000000 ) ) ;
#103 = ORIENTED_EDGE ( 'NONE', *, *, #222, .T. ) ;
#104 = ADVANCED_FACE ( 'NONE', ( #148 ), #301, .T. ) ;
#105 = DIRECTION ( 'NONE',  ( -3.498990854706722745E-17, 1.000000000000000000, -0.000000000000000000 ) ) ;
#106 = ORIENTED_EDGE ( 'NONE', *, *, #274, .F. ) ;
#107 =( GEOMETRIC_REPRESENTATION_CONTEXT ( 3 ) GLOBAL_UNCERTAINTY_ASSIGNED_CONTEXT ( ( #152 ) ) GLOBAL_UNIT_ASSIGNED_CONTEXT ( ( #20, #22, #108 ) ) REPRESENTATION_CONTEXT ( 'NONE', 'WORKASPACE' ) );
#108 =( NAMED_UNIT ( * ) SI_UNIT ( $, .STERADIAN. ) SOLID_ANGLE_UNIT ( ) );
#109 = FILL_AREA_STYLE_COLOUR ( '', #116 ) ;
#110 = ORIENTED_EDGE ( 'NONE', *, *, #244, .F. ) ;
#111 = CARTESIAN_POINT ( 'NONE',  ( -7.582401355855259480E-33, 0.7499999999999998890, 0.000000000000000000 ) ) ;
#112 = VERTEX_POINT ( 'NONE', #276 ) ;
#113 = STYLED_ITEM ( 'NONE', ( #86 ), #179 ) ;
#114 = PRODUCT_DEFINITION_CONTEXT ( 'detailed design', #181, 'design' ) ;
#115 = CARTESIAN_POINT ( 'NONE',  ( 0.000000000000000000, 0.000000000000000000, -0.1562500000000000000 ) ) ;
#116 = COLOUR_RGB ( '',1.000000000000000000, 0.000000000000000000, 0.000000000000000000 ) ;
#117 = FILL_AREA_STYLE_COLOUR ( '', #50 ) ;
#118 = AXIS2_PLACEMENT_3D ( 'NONE', #203, #294, #264 ) ;
#119 = UNCERTAINTY_MEASURE_WITH_UNIT (LENGTH_MEASURE( 1.000000000000000082E-05 ), #126, 'distance_accuracy_value', 'NONE');
#120 = PRODUCT_DEFINITION ( 'UNKNOWN', '', #193, #114 ) ;
#121 = DIRECTION ( 'NONE',  ( -3.498990854706722745E-17, 1.000000000000000000, -0.000000000000000000 ) ) ;
#122 = STYLED_ITEM ( 'NONE', ( #143 ), #85 ) ;
#123 = FILL_AREA_STYLE_COLOUR ( '', #192 ) ;
#124 =( CONVERSION_BASED_UNIT ( 'INCH', #7 ) LENGTH_UNIT ( ) NAMED_UNIT ( #230 ) );
#125 = STYLED_ITEM ( 'NONE', ( #80 ), #257 ) ;
#126 =( CONVERSION_BASED_UNIT ( 'INCH', #66 ) LENGTH_UNIT ( ) NAMED_UNIT ( #252 ) );
#127 = DIMENSIONAL_EXPONENTS ( 1.000000000000000000, 0.000000000000000000, 0.000000000000000000, 0.000000000000000000, 0.000000000000000000, 0.000000000000000000, 0.000000000000000000 ) ;
#128 = PLANE ( 'NONE',  #187 ) ;
#129 = CARTESIAN_POINT ( 'NONE',  ( 1.913510623667739463E-17, 0.7500000000000001110, 0.1562500000000000000 ) ) ;
#130 = CARTESIAN_POINT ( 'NONE',  ( 0.1562500000000000000, 0.7499999999999998890, 1.913510623667739771E-17 ) ) ;
#131 = PRESENTATION_LAYER_ASSIGNMENT (  '', '', ( #125 ) ) ;
#132 = CYLINDRICAL_SURFACE ( 'NONE', #249, 0.1562500000000000000 ) ;
#133 = CARTESIAN_POINT ( 'NONE',  ( -0.1562500000000000000, 0.7499999999999998890, 0.000000000000000000 ) ) ;
#134 = EDGE_LOOP ( 'NONE', ( #103, #52 ) ) ;
#135 = DIRECTION ( 'NONE',  ( 3.498990854706722745E-17, -1.000000000000000000, 0.000000000000000000 ) ) ;
#136 = CARTESIAN_POINT ( 'NONE',  ( 0.000000000000000000, 0.000000000000000000, 0.000000000000000000 ) ) ;
#137 = ORIENTED_EDGE ( 'NONE', *, *, #244, .T. ) ;
#138 = AXIS2_PLACEMENT_3D ( 'NONE', #136, #250, #155 ) ;
#139 = ORIENTED_EDGE ( 'NONE', *, *, #282, .T. ) ;
#140 = CARTESIAN_POINT ( 'NONE',  ( 0.000000000000000000, 0.7500000000000001110, 0.000000000000000000 ) ) ;
#141 = DIMENSIONAL_EXPONENTS ( 1.000000000000000000, 0.000000000000000000, 0.000000000000000000, 0.000000000000000000, 0.000000000000000000, 0.000000000000000000, 0.000000000000000000 ) ;
#142 = EDGE_CURVE ( 'NONE', #53, #277, #36, .T. ) ;
#143 = PRESENTATION_STYLE_ASSIGNMENT (( #295 ) ) ;
#144 = AXIS2_PLACEMENT_3D ( 'NONE', #159, #88, #185 ) ;
#145 = CARTESIAN_POINT ( 'NONE',  ( 0.000000000000000000, 0.000000000000000000, 0.000000000000000000 ) ) ;
#146 = MANIFOLD_SOLID_BREP ( 'Revolve - Cutting Edge', #38 ) ;
#147 =( NAMED_UNIT ( * ) PLANE_ANGLE_UNIT ( ) SI_UNIT ( $, .RADIAN. ) );
#148 = FACE_OUTER_BOUND ( 'NONE', #262, .T. ) ;
#149 = FILL_AREA_STYLE ('',( #109 ) ) ;
#150 = PRODUCT ( '83198', '83198', '', ( #307 ) ) ;
#151 =( GEOMETRIC_REPRESENTATION_CONTEXT ( 3 ) GLOBAL_UNCERTAINTY_ASSIGNED_CONTEXT ( ( #309 ) ) GLOBAL_UNIT_ASSIGNED_CONTEXT ( ( #240, #30, #189 ) ) REPRESENTATION_CONTEXT ( 'NONE', 'WORKASPACE' ) );
#152 = UNCERTAINTY_MEASURE_WITH_UNIT (LENGTH_MEASURE( 1.000000000000000082E-05 ), #20, 'distance_accuracy_value', 'NONE');
#153 = DIMENSIONAL_EXPONENTS ( 1.000000000000000000, 0.000000000000000000, 0.000000000000000000, 0.000000000000000000, 0.000000000000000000, 0.000000000000000000, 0.000000000000000000 ) ;
#154 = CARTESIAN_POINT ( 'NONE',  ( 0.000000000000000000, 0.000000000000000000, 0.000000000000000000 ) ) ;
#155 = DIRECTION ( 'NONE',  ( 0.000000000000000000, 0.000000000000000000, -1.000000000000000000 ) ) ;
#156 = DIRECTION ( 'NONE',  ( 0.000000000000000000, 0.000000000000000000, -1.000000000000000000 ) ) ;
#157 = DIRECTION ( 'NONE',  ( 0.000000000000000000, 0.000000000000000000, -1.000000000000000000 ) ) ;
#158 = UNCERTAINTY_MEASURE_WITH_UNIT (LENGTH_MEASURE( 1.000000000000000082E-05 ), #238, 'distance_accuracy_value', 'NONE');
#159 = CARTESIAN_POINT ( 'NONE',  ( 0.000000000000000000, 0.7500000000000001110, 0.000000000000000000 ) ) ;
#160 = ORIENTED_EDGE ( 'NONE', *, *, #233, .T. ) ;
#161 = VECTOR ( 'NONE', #168, 39.37007874015748143 ) ;
#162 = SURFACE_STYLE_USAGE ( .BOTH. , #286 ) ;
#163 = DIRECTION ( 'NONE',  ( -3.498990854706722745E-17, 1.000000000000000000, 0.000000000000000000 ) ) ;
#164 = PRESENTATION_STYLE_ASSIGNMENT (( #196 ) ) ;
#165 =( NAMED_UNIT ( * ) PLANE_ANGLE_UNIT ( ) SI_UNIT ( $, .RADIAN. ) );
#166 =( LENGTH_UNIT ( ) NAMED_UNIT ( * ) SI_UNIT ( $, .METRE. ) );
#167 = PRESENTATION_LAYER_ASSIGNMENT (  '', '', ( #218 ) ) ;
#168 = DIRECTION ( 'NONE',  ( -0.000000000000000000, -1.000000000000000000, -0.000000000000000000 ) ) ;
#169 = PRODUCT_RELATED_PRODUCT_CATEGORY ( 'part', '', ( #150 ) ) ;
#170 = AXIS2_PLACEMENT_3D ( 'NONE', #215, #2, #283 ) ;
#171 =( NAMED_UNIT ( * ) PLANE_ANGLE_UNIT ( ) SI_UNIT ( $, .RADIAN. ) );
#172 = EDGE_CURVE ( 'NONE', #23, #232, #243, .T. ) ;
#173 = CARTESIAN_POINT ( 'NONE',  ( -6.123233995736766036E-17, 2.500000000000000000, 0.000000000000000000 ) ) ;
#174 = EDGE_CURVE ( 'NONE', #277, #232, #79, .T. ) ;
#175 =( LENGTH_UNIT ( ) NAMED_UNIT ( * ) SI_UNIT ( $, .METRE. ) );
#176 = ORIENTED_EDGE ( 'NONE', *, *, #172, .F. ) ;
#177 = UNCERTAINTY_MEASURE_WITH_UNIT (LENGTH_MEASURE( 1.000000000000000082E-05 ), #40, 'distance_accuracy_value', 'NONE');
#178 = SURFACE_STYLE_FILL_AREA ( #149 ) ;
#179 = ADVANCED_FACE ( 'NONE', ( #304 ), #132, .T. ) ;
#180 = SURFACE_SIDE_STYLE ('',( #16 ) ) ;
#181 = APPLICATION_CONTEXT ( 'automotive_design' ) ;
#182 = AXIS2_PLACEMENT_3D ( 'NONE', #284, #46, #256 ) ;
#183 = SURFACE_SIDE_STYLE ('',( #254 ) ) ;
#184 =( NAMED_UNIT ( * ) SI_UNIT ( $, .STERADIAN. ) SOLID_ANGLE_UNIT ( ) );
#185 = DIRECTION ( 'NONE',  ( 0.000000000000000000, 0.000000000000000000, -1.000000000000000000 ) ) ;
#186 = FACE_OUTER_BOUND ( 'NONE', #228, .T. ) ;
#187 = AXIS2_PLACEMENT_3D ( 'NONE', #140, #214, #56 ) ;
#188 = DIRECTION ( 'NONE',  ( 1.000000000000000000, 0.000000000000000000, 0.000000000000000000 ) ) ;
#189 =( NAMED_UNIT ( * ) SI_UNIT ( $, .STERADIAN. ) SOLID_ANGLE_UNIT ( ) );
#190 = SURFACE_STYLE_FILL_AREA ( #195 ) ;
#191 = ADVANCED_FACE ( 'NONE', ( #306 ), #303, .F. ) ;
#192 = COLOUR_RGB ( '',0.7921568627450980005, 0.8196078431372548767, 0.9333333333333333481 ) ;
#193 = PRODUCT_DEFINITION_FORMATION_WITH_SPECIFIED_SOURCE ( 'ANY', '', #150, .NOT_KNOWN. ) ;
#194 = CARTESIAN_POINT ( 'NONE',  ( 0.000000000000000000, 0.000000000000000000, -0.1562500000000000000 ) ) ;
#195 = FILL_AREA_STYLE ('',( #213 ) ) ;
#196 = SURFACE_STYLE_USAGE ( .BOTH. , #98 ) ;
#197 = STYLED_ITEM ( 'NONE', ( #44 ), #67 ) ;
#198 = FACE_OUTER_BOUND ( 'NONE', #242, .T. ) ;
#199 = APPLICATION_CONTEXT ( 'automotive_design' ) ;
#200 = DIRECTION ( 'NONE',  ( -1.000000000000000000, 0.000000000000000000, 0.000000000000000000 ) ) ;
#201 =( NAMED_UNIT ( * ) SI_UNIT ( $, .STERADIAN. ) SOLID_ANGLE_UNIT ( ) );
#202 = CIRCLE ( 'NONE', #182, 0.1562500000000000000 ) ;
#203 = CARTESIAN_POINT ( 'NONE',  ( 0.000000000000000000, 0.7500000000000001110, 0.000000000000000000 ) ) ;
#204 =( LENGTH_UNIT ( ) NAMED_UNIT ( * ) SI_UNIT ( $, .METRE. ) );
#205 =( LENGTH_UNIT ( ) NAMED_UNIT ( * ) SI_UNIT ( $, .METRE. ) );
#206 = DIRECTION ( 'NONE',  ( -3.498990854706722745E-17, 1.000000000000000000, -0.000000000000000000 ) ) ;
#207 = DIRECTION ( 'NONE',  ( -0.000000000000000000, -1.000000000000000000, -0.000000000000000000 ) ) ;
#208 = ORIENTED_EDGE ( 'NONE', *, *, #9, .T. ) ;
#209 = ORIENTED_EDGE ( 'NONE', *, *, #142, .F. ) ;
#210 = APPLICATION_PROTOCOL_DEFINITION ( 'draft international standard', 'automotive_design', 1998, #199 ) ;
#211 = COLOUR_RGB ( '',1.000000000000000000, 0.000000000000000000, 0.000000000000000000 ) ;
#212 = AXIS2_PLACEMENT_3D ( 'NONE', #173, #273, #200 ) ;
#213 = FILL_AREA_STYLE_COLOUR ( '', #211 ) ;
#214 = DIRECTION ( 'NONE',  ( 0.000000000000000000, 1.000000000000000000, 0.000000000000000000 ) ) ;
#215 = CARTESIAN_POINT ( 'NONE',  ( -6.123233995736766036E-17, 2.500000000000000000, 0.000000000000000000 ) ) ;
#216 = ORIENTED_EDGE ( 'NONE', *, *, #174, .T. ) ;
#217 = ADVANCED_BREP_SHAPE_REPRESENTATION ( '83198', ( #146, #257, #17 ), #151 ) ;
#218 = STYLED_ITEM ( 'NONE', ( #164 ), #87 ) ;
#219 =( GEOMETRIC_REPRESENTATION_CONTEXT ( 3 ) GLOBAL_UNCERTAINTY_ASSIGNED_CONTEXT ( ( #177 ) ) GLOBAL_UNIT_ASSIGNED_CONTEXT ( ( #40, #165, #54 ) ) REPRESENTATION_CONTEXT ( 'NONE', 'WORKASPACE' ) );
#220 = DIRECTION ( 'NONE',  ( -3.498990854706722745E-17, 1.000000000000000000, -0.000000000000000000 ) ) ;
#221 = FILL_AREA_STYLE ('',( #123 ) ) ;
#222 = EDGE_CURVE ( 'NONE', #271, #112, #91, .T. ) ;
#223 = VECTOR ( 'NONE', #5, 39.37007874015748143 ) ;
#224 = AXIS2_PLACEMENT_3D ( 'NONE', #13, #135, #19 ) ;
#225 = VECTOR ( 'NONE', #248, 39.37007874015748143 ) ;
#226 = DIRECTION ( 'NONE',  ( 0.000000000000000000, 0.000000000000000000, -1.000000000000000000 ) ) ;
#227 = CARTESIAN_POINT ( 'NONE',  ( 0.000000000000000000, 0.000000000000000000, 0.000000000000000000 ) ) ;
#228 = EDGE_LOOP ( 'NONE', ( #290, #246, #139, #6 ) ) ;
#229 = DIRECTION ( 'NONE',  ( -1.000000000000000000, 0.000000000000000000, 0.000000000000000000 ) ) ;
#230 = DIMENSIONAL_EXPONENTS ( 1.000000000000000000, 0.000000000000000000, 0.000000000000000000, 0.000000000000000000, 0.000000000000000000, 0.000000000000000000, 0.000000000000000000 ) ;
#231 = SURFACE_STYLE_USAGE ( .BOTH. , #183 ) ;
#232 = VERTEX_POINT ( 'NONE', #234 ) ;
#233 = EDGE_CURVE ( 'NONE', #37, #237, #75, .T. ) ;
#234 = CARTESIAN_POINT ( 'NONE',  ( 0.1562500000000000000, 2.500000000000000000, 1.913510623667739771E-17 ) ) ;
#235 = ORIENTED_EDGE ( 'NONE', *, *, #233, .F. ) ;
#236 = EDGE_CURVE ( 'NONE', #237, #112, #255, .T. ) ;
#237 = VERTEX_POINT ( 'NONE', #129 ) ;
#238 =( CONVERSION_BASED_UNIT ( 'INCH', #51 ) LENGTH_UNIT ( ) NAMED_UNIT ( #141 ) );
#239 = UNCERTAINTY_MEASURE_WITH_UNIT (LENGTH_MEASURE( 1.000000000000000082E-05 ), #71, 'distance_accuracy_value', 'NONE');
#240 =( CONVERSION_BASED_UNIT ( 'INCH', #24 ) LENGTH_UNIT ( ) NAMED_UNIT ( #153 ) );
#241 =( NAMED_UNIT ( * ) PLANE_ANGLE_UNIT ( ) SI_UNIT ( $, .RADIAN. ) );
#242 = EDGE_LOOP ( 'NONE', ( #176, #285, #302, #110 ) ) ;
#243 = LINE ( 'NONE', #31, #43 ) ;
#244 = EDGE_CURVE ( 'NONE', #232, #277, #33, .T. ) ;
#245 = AXIS2_PLACEMENT_3D ( 'NONE', #76, #220, #272 ) ;
#246 = ORIENTED_EDGE ( 'NONE', *, *, #274, .T. ) ;
#247 = EDGE_LOOP ( 'NONE', ( #235, #106 ) ) ;
#248 = DIRECTION ( 'NONE',  ( -0.000000000000000000, -1.000000000000000000, -0.000000000000000000 ) ) ;
#249 = AXIS2_PLACEMENT_3D ( 'NONE', #63, #45, #156 ) ;
#250 = DIRECTION ( 'NONE',  ( -0.000000000000000000, -1.000000000000000000, -0.000000000000000000 ) ) ;
#251 = EDGE_CURVE ( 'NONE', #23, #53, #25, .T. ) ;
#252 = DIMENSIONAL_EXPONENTS ( 1.000000000000000000, 0.000000000000000000, 0.000000000000000000, 0.000000000000000000, 0.000000000000000000, 0.000000000000000000, 0.000000000000000000 ) ;
#253 = EDGE_LOOP ( 'NONE', ( #69, #263 ) ) ;
#254 = SURFACE_STYLE_FILL_AREA ( #84 ) ;
#255 = LINE ( 'NONE', #21, #225 ) ;
#256 = DIRECTION ( 'NONE',  ( -1.000000000000000000, 0.000000000000000000, 0.000000000000000000 ) ) ;
#257 = MANIFOLD_SOLID_BREP ( 'Revolve - Tool Body (Straight Shanked)', #32 ) ;
#258 = FILL_AREA_STYLE ('',( #83 ) ) ;
#259 = FILL_AREA_STYLE_COLOUR ( '', #101 ) ;
#260 = ORIENTED_EDGE ( 'NONE', *, *, #172, .T. ) ;
#261 = CARTESIAN_POINT ( 'NONE',  ( 0.000000000000000000, 0.7500000000000001110, -0.1562500000000000000 ) ) ;
#262 = EDGE_LOOP ( 'NONE', ( #208, #260, #35, #209 ) ) ;
#263 = ORIENTED_EDGE ( 'NONE', *, *, #251, .F. ) ;
#264 = DIRECTION ( 'NONE',  ( 0.000000000000000000, 0.000000000000000000, -1.000000000000000000 ) ) ;
#265 = AXIS2_PLACEMENT_3D ( 'NONE', #227, #207, #157 ) ;
#266 = CARTESIAN_POINT ( 'NONE',  ( 0.000000000000000000, 0.000000000000000000, 0.000000000000000000 ) ) ;
#267 = DIMENSIONAL_EXPONENTS ( 1.000000000000000000, 0.000000000000000000, 0.000000000000000000, 0.000000000000000000, 0.000000000000000000, 0.000000000000000000, 0.000000000000000000 ) ;
#268 =( NAMED_UNIT ( * ) SI_UNIT ( $, .STERADIAN. ) SOLID_ANGLE_UNIT ( ) );
#269 = AXIS2_PLACEMENT_3D ( 'NONE', #64, #206, #281 ) ;
#270 =( NAMED_UNIT ( * ) SI_UNIT ( $, .STERADIAN. ) SOLID_ANGLE_UNIT ( ) );
#271 = VERTEX_POINT ( 'NONE', #194 ) ;
#272 = DIRECTION ( 'NONE',  ( -1.000000000000000000, 0.000000000000000000, 0.000000000000000000 ) ) ;
#273 = DIRECTION ( 'NONE',  ( -3.498990854706722745E-17, 1.000000000000000000, -0.000000000000000000 ) ) ;
#274 = EDGE_CURVE ( 'NONE', #237, #37, #12, .T. ) ;
#275 = COLOUR_RGB ( '',0.7921568627450980005, 0.8196078431372548767, 0.9333333333333333481 ) ;
#276 = CARTESIAN_POINT ( 'NONE',  ( 1.913510623667739463E-17, 0.000000000000000000, 0.1562500000000000000 ) ) ;
#277 = VERTEX_POINT ( 'NONE', #49 ) ;
#278 =( LENGTH_UNIT ( ) NAMED_UNIT ( * ) SI_UNIT ( $, .METRE. ) );
#279 = PRODUCT_DEFINITION_SHAPE ( 'NONE', 'NONE',  #120 ) ;
#280 = CIRCLE ( 'NONE', #138, 0.1562500000000000000 ) ;
#281 = DIRECTION ( 'NONE',  ( -1.000000000000000000, 0.000000000000000000, 0.000000000000000000 ) ) ;
#282 = EDGE_CURVE ( 'NONE', #37, #271, #296, .T. ) ;
#283 = DIRECTION ( 'NONE',  ( -1.000000000000000000, 0.000000000000000000, 0.000000000000000000 ) ) ;
#284 = CARTESIAN_POINT ( 'NONE',  ( -7.582401355855259480E-33, 0.7499999999999998890, 0.000000000000000000 ) ) ;
#285 = ORIENTED_EDGE ( 'NONE', *, *, #251, .T. ) ;
#286 = SURFACE_SIDE_STYLE ('',( #178 ) ) ;
#287 = CYLINDRICAL_SURFACE ( 'NONE', #265, 0.1562500000000000000 ) ;
#288 = MECHANICAL_DESIGN_GEOMETRIC_PRESENTATION_REPRESENTATION (  '', ( #122 ), #3 ) ;
#289 = MECHANICAL_DESIGN_GEOMETRIC_PRESENTATION_REPRESENTATION (  '', ( #113 ), #29 ) ;
#290 = ORIENTED_EDGE ( 'NONE', *, *, #236, .F. ) ;
#291 = SURFACE_SIDE_STYLE ('',( #190 ) ) ;
#292 =( LENGTH_UNIT ( ) NAMED_UNIT ( * ) SI_UNIT ( $, .METRE. ) );
#293 = AXIS2_PLACEMENT_3D ( 'NONE', #111, #105, #229 ) ;
#294 = DIRECTION ( 'NONE',  ( -0.000000000000000000, -1.000000000000000000, -0.000000000000000000 ) ) ;
#295 = SURFACE_STYLE_USAGE ( .BOTH. , #291 ) ;
#296 = LINE ( 'NONE', #115, #161 ) ;
#297 = MECHANICAL_DESIGN_GEOMETRIC_PRESENTATION_REPRESENTATION (  '', ( #125 ), #219 ) ;
#298 = SURFACE_SIDE_STYLE ('',( #8 ) ) ;
#299 = MECHANICAL_DESIGN_GEOMETRIC_PRESENTATION_REPRESENTATION (  '', ( #90 ), #308 ) ;
#300 = AXIS2_PLACEMENT_3D ( 'NONE', #154, #42, #226 ) ;
#301 = CYLINDRICAL_SURFACE ( 'NONE', #212, 0.1562500000000000278 ) ;
#302 = ORIENTED_EDGE ( 'NONE', *, *, #142, .T. ) ;
#303 = PLANE ( 'NONE',  #224 ) ;
#304 = FACE_OUTER_BOUND ( 'NONE', #14, .T. ) ;
#305 = FACE_OUTER_BOUND ( 'NONE', #253, .T. ) ;
#306 = FACE_OUTER_BOUND ( 'NONE', #59, .T. ) ;
#307 = PRODUCT_CONTEXT ( 'NONE', #199, 'mechanical' ) ;
#308 =( GEOMETRIC_REPRESENTATION_CONTEXT ( 3 ) GLOBAL_UNCERTAINTY_ASSIGNED_CONTEXT ( ( #89 ) ) GLOBAL_UNIT_ASSIGNED_CONTEXT ( ( #124, #147, #270 ) ) REPRESENTATION_CONTEXT ( 'NONE', 'WORKASPACE' ) );
#309 = UNCERTAINTY_MEASURE_WITH_UNIT (LENGTH_MEASURE( 1.000000000000000082E-05 ), #240, 'distance_accuracy_value', 'NONE');
ENDSEC;
END-ISO-10303-21;
