ISO-10303-21;
HEADER;
FILE_DESCRIPTION (( 'STEP AP214' ),
    '1' );
FILE_NAME ('Micro_GEC-001-2-060.STEP',
    '2021-09-03T17:00:30',
    ( '' ),
    ( '' ),
    'SwSTEP 2.0',
    'SolidWorks 2020',
    '' );
FILE_SCHEMA (( 'AUTOMOTIVE_DESIGN' ));
ENDSEC;

DATA;
#1 = ORIENTED_EDGE ( 'NONE', *, *, #106, .F. ) ;
#2 = AXIS2_PLACEMENT_3D ( 'NONE', #279, #69, #207 ) ;
#3 = CARTESIAN_POINT ( 'NONE',  ( 0.0000000000000000000, 0.0000000000000000000, 0.0000000000000000000 ) ) ;
#4 = DIRECTION ( 'NONE',  ( 0.0000000000000000000, 0.0000000000000000000, -1.000000000000000000 ) ) ;
#5 =( NAMED_UNIT ( * ) SI_UNIT ( $, .STERADIAN. ) SOLID_ANGLE_UNIT ( ) );
#6 = CARTESIAN_POINT ( 'NONE',  ( -0.4999999999999997780, 0.0000000000000000000, 1.502835640909809589 ) ) ;
#7 = CARTESIAN_POINT ( 'NONE',  ( 7.347880794884118380E-18, 0.0000000000000000000, 0.05999999999999999778 ) ) ;
#8 = CLOSED_SHELL ( 'NONE', ( #71, #321, #64, #339, #150, #224, #18, #37, #100, #200, #256, #47 ) ) ;
#9 = DIRECTION ( 'NONE',  ( 0.0000000000000000000, 0.0000000000000000000, 1.000000000000000000 ) ) ;
#10 = VERTEX_POINT ( 'NONE', #6 ) ;
#11 = UNCERTAINTY_MEASURE_WITH_UNIT (LENGTH_MEASURE( 1.000000000000000082E-05 ), #75, 'distance_accuracy_value', 'NONE');
#12 = DIRECTION ( 'NONE',  ( -1.000000000000000000, 0.0000000000000000000, 1.224646799147353207E-16 ) ) ;
#13 = CARTESIAN_POINT ( 'NONE',  ( -0.4994999999999996665, 6.117110761741027434E-17, 1.500000000000000222 ) ) ;
#14 = VECTOR ( 'NONE', #324, 39.37007874015748143 ) ;
#15 = DIRECTION ( 'NONE',  ( 0.0000000000000000000, 0.0000000000000000000, 1.000000000000000000 ) ) ;
#16 = VECTOR ( 'NONE', #188, 39.37007874015748143 ) ;
#17 = DIRECTION ( 'NONE',  ( -1.224646799147353207E-16, -0.0000000000000000000, -1.000000000000000000 ) ) ;
#18 = ADVANCED_FACE ( 'NONE', ( #152 ), #118, .T. ) ;
#19 = PRESENTATION_STYLE_ASSIGNMENT (( #181 ) ) ;
#20 = AXIS2_PLACEMENT_3D ( 'NONE', #108, #78, #246 ) ;
#21 = VERTEX_POINT ( 'NONE', #332 ) ;
#22 = DIRECTION ( 'NONE',  ( 0.7071067811865443531, 8.659560562354894648E-17, -0.7071067811865507924 ) ) ;
#23 = ORIENTED_EDGE ( 'NONE', *, *, #166, .T. ) ;
#24 = DIRECTION ( 'NONE',  ( 1.000000000000000000, 0.0000000000000000000, 0.0000000000000000000 ) ) ;
#25 = CARTESIAN_POINT ( 'NONE',  ( -0.5000000000000000000, 0.0000000000000000000, 3.985000000000000764 ) ) ;
#26 = EDGE_LOOP ( 'NONE', ( #38, #23, #301, #255 ) ) ;
#27 = VECTOR ( 'NONE', #58, 39.37007874015748143 ) ;
#28 = ADVANCED_BREP_SHAPE_REPRESENTATION ( 'Micro_GEC-001-2-060', ( #169, #112 ), #342 ) ;
#29 = DIRECTION ( 'NONE',  ( -0.0000000000000000000, -0.0000000000000000000, -1.000000000000000000 ) ) ;
#30 = ORIENTED_EDGE ( 'NONE', *, *, #127, .F. ) ;
#31 = EDGE_CURVE ( 'NONE', #89, #88, #298, .T. ) ;
#32 = DIMENSIONAL_EXPONENTS ( 1.000000000000000000, 0.0000000000000000000, 0.0000000000000000000, 0.0000000000000000000, 0.0000000000000000000, 0.0000000000000000000, 0.0000000000000000000 ) ;
#33 = APPLICATION_PROTOCOL_DEFINITION ( 'draft international standard', 'automotive_design', 1998, #50 ) ;
#34 = FACE_OUTER_BOUND ( 'NONE', #171, .T. ) ;
#35 = EDGE_LOOP ( 'NONE', ( #229, #30, #195, #1 ) ) ;
#36 = CIRCLE ( 'NONE', #52, 0.4850000000000009859 ) ;
#37 = ADVANCED_FACE ( 'NONE', ( #93 ), #110, .T. ) ;
#38 = ORIENTED_EDGE ( 'NONE', *, *, #131, .F. ) ;
#39 = ORIENTED_EDGE ( 'NONE', *, *, #230, .T. ) ;
#40 = UNCERTAINTY_MEASURE_WITH_UNIT (LENGTH_MEASURE( 1.000000000000000082E-05 ), #114, 'distance_accuracy_value', 'NONE');
#41 = MECHANICAL_DESIGN_GEOMETRIC_PRESENTATION_REPRESENTATION (  '', ( #66 ), #210 ) ;
#42 = DIRECTION ( 'NONE',  ( 0.0000000000000000000, -1.000000000000000000, 0.0000000000000000000 ) ) ;
#43 = EDGE_CURVE ( 'NONE', #165, #143, #312, .T. ) ;
#44 = CARTESIAN_POINT ( 'NONE',  ( -0.4850000000000009859, 0.0000000000000000000, 4.000000000000000000 ) ) ;
#45 =( LENGTH_UNIT ( ) NAMED_UNIT ( * ) SI_UNIT ( $, .METRE. ) );
#46 = CONICAL_SURFACE ( 'NONE', #128, 0.4994999999999998885, 0.1745329251994339192 ) ;
#47 = ADVANCED_FACE ( 'NONE', ( #202 ), #280, .T. ) ;
#48 = CARTESIAN_POINT ( 'NONE',  ( 1.840442857284759413E-16, 0.0000000000000000000, 1.502835640909809589 ) ) ;
#49 =( LENGTH_UNIT ( ) NAMED_UNIT ( * ) SI_UNIT ( $, .METRE. ) );
#50 = APPLICATION_CONTEXT ( 'automotive_design' ) ;
#51 = CARTESIAN_POINT ( 'NONE',  ( 0.0000000000000000000, 0.0000000000000000000, 0.0000000000000000000 ) ) ;
#52 = AXIS2_PLACEMENT_3D ( 'NONE', #212, #262, #103 ) ;
#53 = ORIENTED_EDGE ( 'NONE', *, *, #250, .F. ) ;
#54 = LINE ( 'NONE', #296, #60 ) ;
#55 = ORIENTED_EDGE ( 'NONE', *, *, #277, .T. ) ;
#56 = DIRECTION ( 'NONE',  ( -1.224646799147353207E-16, -0.0000000000000000000, -1.000000000000000000 ) ) ;
#57 = ORIENTED_EDGE ( 'NONE', *, *, #305, .F. ) ;
#58 = DIRECTION ( 'NONE',  ( 0.1736481776669314137, 0.0000000000000000000, 0.9848077530122077983 ) ) ;
#59 = EDGE_LOOP ( 'NONE', ( #57, #252, #219, #115 ) ) ;
#60 = VECTOR ( 'NONE', #22, 39.37007874015748143 ) ;
#61 = CONICAL_SURFACE ( 'NONE', #154, 0.4850000000000009859, 0.7853981633974437271 ) ;
#62 = PRODUCT ( 'Micro_GEC-001-2-060', 'Micro_GEC-001-2-060', '', ( #92 ) ) ;
#63 = DIRECTION ( 'NONE',  ( 1.000000000000000000, 0.0000000000000000000, -0.0000000000000000000 ) ) ;
#64 = ADVANCED_FACE ( 'NONE', ( #334 ), #46, .T. ) ;
#65 = VERTEX_POINT ( 'NONE', #180 ) ;
#66 = STYLED_ITEM ( 'NONE', ( #19 ), #169 ) ;
#67 =( GEOMETRIC_REPRESENTATION_CONTEXT ( 3 ) GLOBAL_UNCERTAINTY_ASSIGNED_CONTEXT ( ( #289 ) ) GLOBAL_UNIT_ASSIGNED_CONTEXT ( ( #87, #228, #5 ) ) REPRESENTATION_CONTEXT ( 'NONE', 'WORKASPACE' ) );
#68 = CARTESIAN_POINT ( 'NONE',  ( 1.836970198721030181E-16, 0.0000000000000000000, 1.500000000000000222 ) ) ;
#69 = DIRECTION ( 'NONE',  ( 0.0000000000000000000, 0.0000000000000000000, 1.000000000000000000 ) ) ;
#70 =( NAMED_UNIT ( * ) PLANE_ANGLE_UNIT ( ) SI_UNIT ( $, .RADIAN. ) );
#71 = ADVANCED_FACE ( 'NONE', ( #311 ), #157, .T. ) ;
#72 = AXIS2_PLACEMENT_3D ( 'NONE', #7, #206, #282 ) ;
#73 = DIRECTION ( 'NONE',  ( 1.000000000000000000, 0.0000000000000000000, 0.0000000000000000000 ) ) ;
#74 = LENGTH_MEASURE_WITH_UNIT ( LENGTH_MEASURE( 0.02539999999999999897 ), #45 );
#75 =( CONVERSION_BASED_UNIT ( 'INCH', #74 ) LENGTH_UNIT ( ) NAMED_UNIT ( #32 ) );
#76 = AXIS2_PLACEMENT_3D ( 'NONE', #245, #56, #135 ) ;
#77 = CARTESIAN_POINT ( 'NONE',  ( -0.4994999999999999440, 0.0000000000000000000, 0.06000000000000001166 ) ) ;
#78 = DIRECTION ( 'NONE',  ( 0.0000000000000000000, 0.0000000000000000000, 1.000000000000000000 ) ) ;
#79 =( NAMED_UNIT ( * ) PLANE_ANGLE_UNIT ( ) SI_UNIT ( $, .RADIAN. ) );
#80 = ORIENTED_EDGE ( 'NONE', *, *, #295, .T. ) ;
#81 = EDGE_CURVE ( 'NONE', #285, #10, #175, .T. ) ;
#82 = CARTESIAN_POINT ( 'NONE',  ( 0.0000000000000000000, 0.0000000000000000000, 4.000000000000000000 ) ) ;
#83 = COLOUR_RGB ( '',0.7921568627450980005, 0.8196078431372548767, 0.9333333333333333481 ) ;
#84 = ORIENTED_EDGE ( 'NONE', *, *, #242, .F. ) ;
#85 = ORIENTED_EDGE ( 'NONE', *, *, #242, .T. ) ;
#86 = ORIENTED_EDGE ( 'NONE', *, *, #166, .F. ) ;
#87 =( CONVERSION_BASED_UNIT ( 'INCH', #254 ) LENGTH_UNIT ( ) NAMED_UNIT ( #310 ) );
#88 = VERTEX_POINT ( 'NONE', #177 ) ;
#89 = VERTEX_POINT ( 'NONE', #306 ) ;
#90 = PRESENTATION_STYLE_ASSIGNMENT (( #248 ) ) ;
#91 = ORIENTED_EDGE ( 'NONE', *, *, #138, .F. ) ;
#92 = PRODUCT_CONTEXT ( 'NONE', #50, 'mechanical' ) ;
#93 = FACE_OUTER_BOUND ( 'NONE', #35, .T. ) ;
#94 = CONICAL_SURFACE ( 'NONE', #240, 0.4994999999999998885, 0.1745329251994339192 ) ;
#95 =( LENGTH_UNIT ( ) NAMED_UNIT ( * ) SI_UNIT ( $, .METRE. ) );
#96 = CARTESIAN_POINT ( 'NONE',  ( 0.0000000000000000000, 0.0000000000000000000, 4.000000000000000000 ) ) ;
#97 = DIRECTION ( 'NONE',  ( 1.000000000000000000, 0.0000000000000000000, 0.0000000000000000000 ) ) ;
#98 = AXIS2_PLACEMENT_3D ( 'NONE', #96, #122, #307 ) ;
#99 = DIRECTION ( 'NONE',  ( -1.000000000000000000, 0.0000000000000000000, 0.0000000000000000000 ) ) ;
#100 = ADVANCED_FACE ( 'NONE', ( #34 ), #94, .T. ) ;
#101 = PRODUCT_DEFINITION_CONTEXT ( 'detailed design', #213, 'design' ) ;
#102 = DIRECTION ( 'NONE',  ( -0.1736481776669312194, 2.126576849575783625E-17, 0.9848077530122080203 ) ) ;
#103 = DIRECTION ( 'NONE',  ( 1.000000000000000000, 0.0000000000000000000, 0.0000000000000000000 ) ) ;
#104 = AXIS2_PLACEMENT_3D ( 'NONE', #253, #227, #329 ) ;
#105 = PRODUCT_DEFINITION_FORMATION_WITH_SPECIFIED_SOURCE ( 'ANY', '', #62, .NOT_KNOWN. ) ;
#106 = EDGE_CURVE ( 'NONE', #65, #285, #292, .T. ) ;
#107 = ORIENTED_EDGE ( 'NONE', *, *, #328, .T. ) ;
#108 = CARTESIAN_POINT ( 'NONE',  ( 7.347880794884119921E-18, 0.0000000000000000000, 0.06000000000000001166 ) ) ;
#109 = VERTEX_POINT ( 'NONE', #44 ) ;
#110 = CONICAL_SURFACE ( 'NONE', #98, 0.4850000000000009859, 0.7853981633974437271 ) ;
#111 = DIRECTION ( 'NONE',  ( 0.0000000000000000000, 0.0000000000000000000, -1.000000000000000000 ) ) ;
#112 = AXIS2_PLACEMENT_3D ( 'NONE', #3, #9, #174 ) ;
#113 = EDGE_LOOP ( 'NONE', ( #297, #272 ) ) ;
#114 =( CONVERSION_BASED_UNIT ( 'INCH', #271 ) LENGTH_UNIT ( ) NAMED_UNIT ( #151 ) );
#115 = ORIENTED_EDGE ( 'NONE', *, *, #184, .F. ) ;
#116 = DIRECTION ( 'NONE',  ( -1.000000000000000000, 1.224646799147353454E-16, 0.0000000000000000000 ) ) ;
#117 = SHAPE_DEFINITION_REPRESENTATION ( #322, #28 ) ;
#118 = PLANE ( 'NONE',  #341 ) ;
#119 = AXIS2_PLACEMENT_3D ( 'NONE', #338, #335, #340 ) ;
#120 = CARTESIAN_POINT ( 'NONE',  ( -0.5000000000000000000, 0.0000000000000000000, 4.000000000000000000 ) ) ;
#121 = CARTESIAN_POINT ( 'NONE',  ( 0.0000000000000000000, 0.0000000000000000000, 4.000000000000000000 ) ) ;
#122 = DIRECTION ( 'NONE',  ( 0.0000000000000000000, 0.0000000000000000000, -1.000000000000000000 ) ) ;
#123 = CIRCLE ( 'NONE', #266, 0.4994999999999998885 ) ;
#124 = COLOUR_RGB ( '',0.7921568627450980005, 0.8196078431372548767, 0.9333333333333333481 ) ;
#125 = CARTESIAN_POINT ( 'NONE',  ( 7.347880794884118380E-18, 0.0000000000000000000, 0.0000000000000000000 ) ) ;
#126 = CARTESIAN_POINT ( 'NONE',  ( 0.4995000000000001106, 0.0000000000000000000, 1.500000000000000222 ) ) ;
#127 = EDGE_CURVE ( 'NONE', #109, #21, #172, .T. ) ;
#128 = AXIS2_PLACEMENT_3D ( 'NONE', #68, #179, #148 ) ;
#129 = DIRECTION ( 'NONE',  ( 1.000000000000000000, 0.0000000000000000000, 0.0000000000000000000 ) ) ;
#130 =( NAMED_UNIT ( * ) SI_UNIT ( $, .STERADIAN. ) SOLID_ANGLE_UNIT ( ) );
#131 = EDGE_CURVE ( 'NONE', #197, #201, #123, .T. ) ;
#132 = PRESENTATION_LAYER_ASSIGNMENT (  '', '', ( #323 ) ) ;
#133 = CYLINDRICAL_SURFACE ( 'NONE', #199, 0.4994999999999999440 ) ;
#134 = EDGE_LOOP ( 'NONE', ( #107, #231, #233, #190 ) ) ;
#135 = DIRECTION ( 'NONE',  ( 1.000000000000000000, 0.0000000000000000000, 0.0000000000000000000 ) ) ;
#136 = ORIENTED_EDGE ( 'NONE', *, *, #161, .T. ) ;
#137 = CARTESIAN_POINT ( 'NONE',  ( 0.4995000000000001106, 0.0000000000000000000, 1.500000000000000222 ) ) ;
#138 = EDGE_CURVE ( 'NONE', #201, #165, #160, .T. ) ;
#139 = AXIS2_PLACEMENT_3D ( 'NONE', #185, #15, #129 ) ;
#140 = CARTESIAN_POINT ( 'NONE',  ( 0.0000000000000000000, 0.0000000000000000000, 0.0000000000000000000 ) ) ;
#141 = ORIENTED_EDGE ( 'NONE', *, *, #161, .F. ) ;
#142 = DIRECTION ( 'NONE',  ( 1.000000000000000000, 0.0000000000000000000, 0.0000000000000000000 ) ) ;
#143 = VERTEX_POINT ( 'NONE', #77 ) ;
#144 = CARTESIAN_POINT ( 'NONE',  ( 1.836970198721030181E-16, 0.0000000000000000000, 1.500000000000000222 ) ) ;
#145 = DIRECTION ( 'NONE',  ( 1.224646799147353207E-16, 0.0000000000000000000, 1.000000000000000000 ) ) ;
#146 = CIRCLE ( 'NONE', #76, 0.5000000000000000000 ) ;
#147 = APPLICATION_PROTOCOL_DEFINITION ( 'draft international standard', 'automotive_design', 1998, #213 ) ;
#148 = DIRECTION ( 'NONE',  ( 1.000000000000000000, 0.0000000000000000000, 0.0000000000000000000 ) ) ;
#149 = ORIENTED_EDGE ( 'NONE', *, *, #176, .T. ) ;
#150 = ADVANCED_FACE ( 'NONE', ( #293 ), #258, .T. ) ;
#151 = DIMENSIONAL_EXPONENTS ( 1.000000000000000000, 0.0000000000000000000, 0.0000000000000000000, 0.0000000000000000000, 0.0000000000000000000, 0.0000000000000000000, 0.0000000000000000000 ) ;
#152 = FACE_OUTER_BOUND ( 'NONE', #270, .T. ) ;
#153 = CIRCLE ( 'NONE', #20, 0.4994999999999999440 ) ;
#154 = AXIS2_PLACEMENT_3D ( 'NONE', #192, #111, #299 ) ;
#155 = FACE_OUTER_BOUND ( 'NONE', #168, .T. ) ;
#156 = CARTESIAN_POINT ( 'NONE',  ( 0.4994999999999999440, 6.117110761741028667E-17, -6.117110761741028667E-17 ) ) ;
#157 = TOROIDAL_SURFACE ( 'NONE', #2, 0.4395000000000000018, 0.05999999999999999778 ) ;
#158 = AXIS2_PLACEMENT_3D ( 'NONE', #351, #170, #24 ) ;
#159 = CARTESIAN_POINT ( 'NONE',  ( 1.836970198721030181E-16, 0.0000000000000000000, 1.500000000000000222 ) ) ;
#160 = LINE ( 'NONE', #156, #320 ) ;
#161 = EDGE_CURVE ( 'NONE', #201, #197, #327, .T. ) ;
#162 = PRESENTATION_LAYER_ASSIGNMENT (  '', '', ( #66 ) ) ;
#163 = CIRCLE ( 'NONE', #158, 0.5000000000000000000 ) ;
#164 = CYLINDRICAL_SURFACE ( 'NONE', #205, 0.5000000000000000000 ) ;
#165 = VERTEX_POINT ( 'NONE', #287 ) ;
#166 = EDGE_CURVE ( 'NONE', #197, #10, #215, .T. ) ;
#167 = PLANE ( 'NONE',  #198 ) ;
#168 = EDGE_LOOP ( 'NONE', ( #91, #136, #80, #318 ) ) ;
#169 = MANIFOLD_SOLID_BREP ( 'Fillet1', #8 ) ;
#170 = DIRECTION ( 'NONE',  ( 0.0000000000000000000, 0.0000000000000000000, -1.000000000000000000 ) ) ;
#171 = EDGE_LOOP ( 'NONE', ( #86, #141, #39, #85 ) ) ;
#172 = CIRCLE ( 'NONE', #139, 0.4850000000000009859 ) ;
#173 = CARTESIAN_POINT ( 'NONE',  ( 0.5000000000000002220, 6.123233995736768501E-17, 1.502835640909809589 ) ) ;
#174 = DIRECTION ( 'NONE',  ( 1.000000000000000000, 0.0000000000000000000, 0.0000000000000000000 ) ) ;
#175 = LINE ( 'NONE', #120, #226 ) ;
#176 = EDGE_CURVE ( 'NONE', #21, #109, #36, .T. ) ;
#177 = CARTESIAN_POINT ( 'NONE',  ( -0.4395000000000000018, 5.749716721996822286E-17, 0.0000000000000000000 ) ) ;
#178 = AXIS2_PLACEMENT_3D ( 'NONE', #48, #235, #73 ) ;
#179 = DIRECTION ( 'NONE',  ( 1.224646799147353207E-16, 0.0000000000000000000, 1.000000000000000000 ) ) ;
#180 = CARTESIAN_POINT ( 'NONE',  ( 0.5000000000000000000, 6.123233995736766036E-17, 3.985000000000000764 ) ) ;
#181 = SURFACE_STYLE_USAGE ( .BOTH. , #291 ) ;
#182 = CIRCLE ( 'NONE', #186, 0.05999999999999999778 ) ;
#183 = DIRECTION ( 'NONE',  ( -1.224646799147353207E-16, -0.0000000000000000000, -1.000000000000000000 ) ) ;
#184 = EDGE_CURVE ( 'NONE', #89, #165, #182, .T. ) ;
#185 = CARTESIAN_POINT ( 'NONE',  ( 0.0000000000000000000, 0.0000000000000000000, 4.000000000000000000 ) ) ;
#186 = AXIS2_PLACEMENT_3D ( 'NONE', #209, #42, #239 ) ;
#187 = CARTESIAN_POINT ( 'NONE',  ( 0.0000000000000000000, 0.0000000000000000000, 0.0000000000000000000 ) ) ;
#188 = DIRECTION ( 'NONE',  ( -0.7071067811865443531, 0.0000000000000000000, -0.7071067811865507924 ) ) ;
#189 = LINE ( 'NONE', #302, #220 ) ;
#190 = ORIENTED_EDGE ( 'NONE', *, *, #81, .F. ) ;
#191 = AXIS2_PLACEMENT_3D ( 'NONE', #159, #337, #211 ) ;
#192 = CARTESIAN_POINT ( 'NONE',  ( 0.0000000000000000000, 0.0000000000000000000, 4.000000000000000000 ) ) ;
#193 = EDGE_LOOP ( 'NONE', ( #217, #300, #223, #304 ) ) ;
#194 = DIRECTION ( 'NONE',  ( -0.0000000000000000000, -0.0000000000000000000, -1.000000000000000000 ) ) ;
#195 = ORIENTED_EDGE ( 'NONE', *, *, #346, .T. ) ;
#196 = FACE_OUTER_BOUND ( 'NONE', #113, .T. ) ;
#197 = VERTEX_POINT ( 'NONE', #315 ) ;
#198 = AXIS2_PLACEMENT_3D ( 'NONE', #51, #247, #294 ) ;
#199 = AXIS2_PLACEMENT_3D ( 'NONE', #140, #269, #218 ) ;
#200 = ADVANCED_FACE ( 'NONE', ( #155 ), #313, .T. ) ;
#201 = VERTEX_POINT ( 'NONE', #126 ) ;
#202 = FACE_OUTER_BOUND ( 'NONE', #309, .T. ) ;
#203 = DIRECTION ( 'NONE',  ( 1.000000000000000000, 0.0000000000000000000, 0.0000000000000000000 ) ) ;
#204 = EDGE_CURVE ( 'NONE', #10, #265, #214, .T. ) ;
#205 = AXIS2_PLACEMENT_3D ( 'NONE', #82, #29, #241 ) ;
#206 = DIRECTION ( 'NONE',  ( 0.0000000000000000000, 0.0000000000000000000, 1.000000000000000000 ) ) ;
#207 = DIRECTION ( 'NONE',  ( 1.000000000000000000, 0.0000000000000000000, 0.0000000000000000000 ) ) ;
#208 = EDGE_LOOP ( 'NONE', ( #275, #55, #326, #325 ) ) ;
#209 = CARTESIAN_POINT ( 'NONE',  ( 0.4395000000000000018, 0.0000000000000000000, 0.05999999999999999778 ) ) ;
#210 =( GEOMETRIC_REPRESENTATION_CONTEXT ( 3 ) GLOBAL_UNCERTAINTY_ASSIGNED_CONTEXT ( ( #11 ) ) GLOBAL_UNIT_ASSIGNED_CONTEXT ( ( #75, #70, #130 ) ) REPRESENTATION_CONTEXT ( 'NONE', 'WORKASPACE' ) );
#211 = DIRECTION ( 'NONE',  ( -1.000000000000000000, 0.0000000000000000000, 0.0000000000000000000 ) ) ;
#212 = CARTESIAN_POINT ( 'NONE',  ( 0.0000000000000000000, 0.0000000000000000000, 4.000000000000000000 ) ) ;
#213 = APPLICATION_CONTEXT ( 'automotive_design' ) ;
#214 = CIRCLE ( 'NONE', #178, 0.5000000000000000000 ) ;
#215 = LINE ( 'NONE', #13, #261 ) ;
#216 =( NAMED_UNIT ( * ) SI_UNIT ( $, .STERADIAN. ) SOLID_ANGLE_UNIT ( ) );
#217 = ORIENTED_EDGE ( 'NONE', *, *, #131, .T. ) ;
#218 = DIRECTION ( 'NONE',  ( -1.000000000000000000, 0.0000000000000000000, 1.224646799147353207E-16 ) ) ;
#219 = ORIENTED_EDGE ( 'NONE', *, *, #43, .F. ) ;
#220 = VECTOR ( 'NONE', #268, 39.37007874015748143 ) ;
#221 = LINE ( 'NONE', #317, #16 ) ;
#222 = ORIENTED_EDGE ( 'NONE', *, *, #31, .F. ) ;
#223 = ORIENTED_EDGE ( 'NONE', *, *, #43, .T. ) ;
#224 = ADVANCED_FACE ( 'NONE', ( #288 ), #164, .T. ) ;
#225 = EDGE_LOOP ( 'NONE', ( #244, #344, #234, #84 ) ) ;
#226 = VECTOR ( 'NONE', #276, 39.37007874015748143 ) ;
#227 = DIRECTION ( 'NONE',  ( 0.0000000000000000000, 0.0000000000000000000, 1.000000000000000000 ) ) ;
#228 =( NAMED_UNIT ( * ) PLANE_ANGLE_UNIT ( ) SI_UNIT ( $, .RADIAN. ) );
#229 = ORIENTED_EDGE ( 'NONE', *, *, #277, .F. ) ;
#230 = EDGE_CURVE ( 'NONE', #201, #265, #319, .T. ) ;
#231 = ORIENTED_EDGE ( 'NONE', *, *, #267, .T. ) ;
#232 = AXIS2_PLACEMENT_3D ( 'NONE', #251, #4, #236 ) ;
#233 = ORIENTED_EDGE ( 'NONE', *, *, #204, .F. ) ;
#234 = ORIENTED_EDGE ( 'NONE', *, *, #81, .T. ) ;
#235 = DIRECTION ( 'NONE',  ( -1.224646799147353207E-16, -0.0000000000000000000, -1.000000000000000000 ) ) ;
#236 = DIRECTION ( 'NONE',  ( 1.000000000000000000, 0.0000000000000000000, 0.0000000000000000000 ) ) ;
#237 = AXIS2_PLACEMENT_3D ( 'NONE', #125, #283, #97 ) ;
#238 = CARTESIAN_POINT ( 'NONE',  ( 1.836970198721030181E-16, 0.0000000000000000000, 1.500000000000000222 ) ) ;
#239 = DIRECTION ( 'NONE',  ( 0.0000000000000000000, 0.0000000000000000000, -1.000000000000000000 ) ) ;
#240 = AXIS2_PLACEMENT_3D ( 'NONE', #144, #145, #203 ) ;
#241 = DIRECTION ( 'NONE',  ( -1.000000000000000000, 0.0000000000000000000, 0.0000000000000000000 ) ) ;
#242 = EDGE_CURVE ( 'NONE', #265, #10, #146, .T. ) ;
#243 = LINE ( 'NONE', #264, #14 ) ;
#244 = ORIENTED_EDGE ( 'NONE', *, *, #267, .F. ) ;
#245 = CARTESIAN_POINT ( 'NONE',  ( 1.840442857284759413E-16, 0.0000000000000000000, 1.502835640909809589 ) ) ;
#246 = DIRECTION ( 'NONE',  ( 1.000000000000000000, 0.0000000000000000000, 0.0000000000000000000 ) ) ;
#247 = DIRECTION ( 'NONE',  ( 0.0000000000000000000, 0.0000000000000000000, 1.000000000000000000 ) ) ;
#248 = SURFACE_STYLE_USAGE ( .BOTH. , #278 ) ;
#249 = DIRECTION ( 'NONE',  ( 0.0000000000000000000, 0.0000000000000000000, 1.000000000000000000 ) ) ;
#250 = EDGE_CURVE ( 'NONE', #88, #143, #273, .T. ) ;
#251 = CARTESIAN_POINT ( 'NONE',  ( 0.0000000000000000000, 0.0000000000000000000, 3.985000000000000764 ) ) ;
#252 = ORIENTED_EDGE ( 'NONE', *, *, #250, .T. ) ;
#253 = CARTESIAN_POINT ( 'NONE',  ( 7.347880794884119921E-18, 0.0000000000000000000, 0.06000000000000001166 ) ) ;
#254 = LENGTH_MEASURE_WITH_UNIT ( LENGTH_MEASURE( 0.02539999999999999897 ), #95 );
#255 = ORIENTED_EDGE ( 'NONE', *, *, #230, .F. ) ;
#256 = ADVANCED_FACE ( 'NONE', ( #196 ), #167, .F. ) ;
#257 = DIRECTION ( 'NONE',  ( -1.224646799147353207E-16, -0.0000000000000000000, -1.000000000000000000 ) ) ;
#258 = CYLINDRICAL_SURFACE ( 'NONE', #119, 0.5000000000000000000 ) ;
#259 = SURFACE_STYLE_FILL_AREA ( #263 ) ;
#260 = AXIS2_PLACEMENT_3D ( 'NONE', #187, #257, #12 ) ;
#261 = VECTOR ( 'NONE', #102, 39.37007874015747433 ) ;
#262 = DIRECTION ( 'NONE',  ( 0.0000000000000000000, 0.0000000000000000000, 1.000000000000000000 ) ) ;
#263 = FILL_AREA_STYLE ('',( #314 ) ) ;
#264 = CARTESIAN_POINT ( 'NONE',  ( -0.4994999999999999440, 0.0000000000000000000, 6.117110761741028667E-17 ) ) ;
#265 = VERTEX_POINT ( 'NONE', #173 ) ;
#266 = AXIS2_PLACEMENT_3D ( 'NONE', #238, #183, #99 ) ;
#267 = EDGE_CURVE ( 'NONE', #65, #265, #189, .T. ) ;
#268 = DIRECTION ( 'NONE',  ( -0.0000000000000000000, -0.0000000000000000000, -1.000000000000000000 ) ) ;
#269 = DIRECTION ( 'NONE',  ( -1.224646799147353207E-16, -0.0000000000000000000, -1.000000000000000000 ) ) ;
#270 = EDGE_LOOP ( 'NONE', ( #350, #149 ) ) ;
#271 = LENGTH_MEASURE_WITH_UNIT ( LENGTH_MEASURE( 0.02539999999999999897 ), #49 );
#272 = ORIENTED_EDGE ( 'NONE', *, *, #305, .T. ) ;
#273 = CIRCLE ( 'NONE', #316, 0.05999999999999997696 ) ;
#274 = CARTESIAN_POINT ( 'NONE',  ( 7.347880794884118380E-18, 0.0000000000000000000, 0.0000000000000000000 ) ) ;
#275 = ORIENTED_EDGE ( 'NONE', *, *, #176, .F. ) ;
#276 = DIRECTION ( 'NONE',  ( -0.0000000000000000000, -0.0000000000000000000, -1.000000000000000000 ) ) ;
#277 = EDGE_CURVE ( 'NONE', #21, #65, #54, .T. ) ;
#278 = SURFACE_SIDE_STYLE ('',( #284 ) ) ;
#279 = CARTESIAN_POINT ( 'NONE',  ( 7.347880794884118380E-18, 0.0000000000000000000, 0.05999999999999999778 ) ) ;
#280 = TOROIDAL_SURFACE ( 'NONE', #72, 0.4395000000000000018, 0.05999999999999999778 ) ;
#281 = FILL_AREA_STYLE ('',( #330 ) ) ;
#282 = DIRECTION ( 'NONE',  ( 1.000000000000000000, 0.0000000000000000000, 0.0000000000000000000 ) ) ;
#283 = DIRECTION ( 'NONE',  ( -0.0000000000000000000, -0.0000000000000000000, -1.000000000000000000 ) ) ;
#284 = SURFACE_STYLE_FILL_AREA ( #281 ) ;
#285 = VERTEX_POINT ( 'NONE', #25 ) ;
#286 = PRODUCT_DEFINITION ( 'UNKNOWN', '', #105, #101 ) ;
#287 = CARTESIAN_POINT ( 'NONE',  ( 0.4994999999999999440, 6.117110761741028667E-17, 0.06000000000000001166 ) ) ;
#288 = FACE_OUTER_BOUND ( 'NONE', #225, .T. ) ;
#289 = UNCERTAINTY_MEASURE_WITH_UNIT (LENGTH_MEASURE( 1.000000000000000082E-05 ), #87, 'distance_accuracy_value', 'NONE');
#290 = PRODUCT_RELATED_PRODUCT_CATEGORY ( 'part', '', ( #62 ) ) ;
#291 = SURFACE_SIDE_STYLE ('',( #259 ) ) ;
#292 = CIRCLE ( 'NONE', #232, 0.5000000000000000000 ) ;
#293 = FACE_OUTER_BOUND ( 'NONE', #134, .T. ) ;
#294 = DIRECTION ( 'NONE',  ( 1.000000000000000000, 0.0000000000000000000, -0.0000000000000000000 ) ) ;
#295 = EDGE_CURVE ( 'NONE', #197, #143, #243, .T. ) ;
#296 = CARTESIAN_POINT ( 'NONE',  ( 0.4850000000000009859, 5.939536975864675788E-17, 4.000000000000000000 ) ) ;
#297 = ORIENTED_EDGE ( 'NONE', *, *, #31, .T. ) ;
#298 = CIRCLE ( 'NONE', #237, 0.4395000000000000018 ) ;
#299 = DIRECTION ( 'NONE',  ( -1.000000000000000000, 0.0000000000000000000, 0.0000000000000000000 ) ) ;
#300 = ORIENTED_EDGE ( 'NONE', *, *, #138, .T. ) ;
#301 = ORIENTED_EDGE ( 'NONE', *, *, #204, .T. ) ;
#302 = CARTESIAN_POINT ( 'NONE',  ( 0.5000000000000000000, 6.123233995736766036E-17, 4.000000000000000000 ) ) ;
#303 = CIRCLE ( 'NONE', #336, 0.4395000000000000018 ) ;
#304 = ORIENTED_EDGE ( 'NONE', *, *, #295, .F. ) ;
#305 = EDGE_CURVE ( 'NONE', #88, #89, #303, .T. ) ;
#306 = CARTESIAN_POINT ( 'NONE',  ( 0.4395000000000000018, 0.0000000000000000000, 0.0000000000000000000 ) ) ;
#307 = DIRECTION ( 'NONE',  ( -1.000000000000000000, 0.0000000000000000000, 0.0000000000000000000 ) ) ;
#308 = EDGE_CURVE ( 'NONE', #143, #165, #153, .T. ) ;
#309 = EDGE_LOOP ( 'NONE', ( #53, #222, #348, #331 ) ) ;
#310 = DIMENSIONAL_EXPONENTS ( 1.000000000000000000, 0.0000000000000000000, 0.0000000000000000000, 0.0000000000000000000, 0.0000000000000000000, 0.0000000000000000000, 0.0000000000000000000 ) ;
#311 = FACE_OUTER_BOUND ( 'NONE', #59, .T. ) ;
#312 = CIRCLE ( 'NONE', #104, 0.4994999999999999440 ) ;
#313 = CYLINDRICAL_SURFACE ( 'NONE', #260, 0.4994999999999999440 ) ;
#314 = FILL_AREA_STYLE_COLOUR ( '', #83 ) ;
#315 = CARTESIAN_POINT ( 'NONE',  ( -0.4994999999999996665, 6.120172378738897351E-17, 1.500000000000000222 ) ) ;
#316 = AXIS2_PLACEMENT_3D ( 'NONE', #347, #343, #116 ) ;
#317 = CARTESIAN_POINT ( 'NONE',  ( -0.4850000000000009859, 0.0000000000000000000, 4.000000000000000000 ) ) ;
#318 = ORIENTED_EDGE ( 'NONE', *, *, #308, .T. ) ;
#319 = LINE ( 'NONE', #137, #27 ) ;
#320 = VECTOR ( 'NONE', #17, 39.37007874015748143 ) ;
#321 = ADVANCED_FACE ( 'NONE', ( #345 ), #133, .T. ) ;
#322 = PRODUCT_DEFINITION_SHAPE ( 'NONE', 'NONE',  #286 ) ;
#323 = STYLED_ITEM ( 'NONE', ( #90 ), #28 ) ;
#324 = DIRECTION ( 'NONE',  ( -1.224646799147353207E-16, -0.0000000000000000000, -1.000000000000000000 ) ) ;
#325 = ORIENTED_EDGE ( 'NONE', *, *, #346, .F. ) ;
#326 = ORIENTED_EDGE ( 'NONE', *, *, #328, .F. ) ;
#327 = CIRCLE ( 'NONE', #191, 0.4994999999999998885 ) ;
#328 = EDGE_CURVE ( 'NONE', #285, #65, #163, .T. ) ;
#329 = DIRECTION ( 'NONE',  ( 1.000000000000000000, 0.0000000000000000000, 0.0000000000000000000 ) ) ;
#330 = FILL_AREA_STYLE_COLOUR ( '', #124 ) ;
#331 = ORIENTED_EDGE ( 'NONE', *, *, #308, .F. ) ;
#332 = CARTESIAN_POINT ( 'NONE',  ( 0.4850000000000009859, 6.031385485800721528E-17, 4.000000000000000000 ) ) ;
#333 = MECHANICAL_DESIGN_GEOMETRIC_PRESENTATION_REPRESENTATION (  '', ( #323 ), #67 ) ;
#334 = FACE_OUTER_BOUND ( 'NONE', #26, .T. ) ;
#335 = DIRECTION ( 'NONE',  ( -0.0000000000000000000, -0.0000000000000000000, -1.000000000000000000 ) ) ;
#336 = AXIS2_PLACEMENT_3D ( 'NONE', #274, #194, #142 ) ;
#337 = DIRECTION ( 'NONE',  ( -1.224646799147353207E-16, -0.0000000000000000000, -1.000000000000000000 ) ) ;
#338 = CARTESIAN_POINT ( 'NONE',  ( 0.0000000000000000000, 0.0000000000000000000, 4.000000000000000000 ) ) ;
#339 = ADVANCED_FACE ( 'NONE', ( #349 ), #61, .T. ) ;
#340 = DIRECTION ( 'NONE',  ( -1.000000000000000000, 0.0000000000000000000, 0.0000000000000000000 ) ) ;
#341 = AXIS2_PLACEMENT_3D ( 'NONE', #121, #249, #63 ) ;
#342 =( GEOMETRIC_REPRESENTATION_CONTEXT ( 3 ) GLOBAL_UNCERTAINTY_ASSIGNED_CONTEXT ( ( #40 ) ) GLOBAL_UNIT_ASSIGNED_CONTEXT ( ( #114, #79, #216 ) ) REPRESENTATION_CONTEXT ( 'NONE', 'WORKASPACE' ) );
#343 = DIRECTION ( 'NONE',  ( 1.224646799147353207E-16, 1.000000000000000000, -0.0000000000000000000 ) ) ;
#344 = ORIENTED_EDGE ( 'NONE', *, *, #106, .T. ) ;
#345 = FACE_OUTER_BOUND ( 'NONE', #193, .T. ) ;
#346 = EDGE_CURVE ( 'NONE', #109, #285, #221, .T. ) ;
#347 = CARTESIAN_POINT ( 'NONE',  ( -0.4395000000000000018, 5.382322682252617137E-17, 0.05999999999999999778 ) ) ;
#348 = ORIENTED_EDGE ( 'NONE', *, *, #184, .T. ) ;
#349 = FACE_OUTER_BOUND ( 'NONE', #208, .T. ) ;
#350 = ORIENTED_EDGE ( 'NONE', *, *, #127, .T. ) ;
#351 = CARTESIAN_POINT ( 'NONE',  ( 0.0000000000000000000, 0.0000000000000000000, 3.985000000000000764 ) ) ;
ENDSEC;
END-ISO-10303-21;
