ISO-10303-21;
HEADER;
FILE_DESCRIPTION (( 'STEP AP214' ),
    '1' );
FILE_NAME ('44407.STEP',
    '2023-06-22T20:31:43',
    ( '' ),
    ( '' ),
    'SwSTEP 2.0',
    'SolidWorks 2023',
    '' );
FILE_SCHEMA (( 'AUTOMOTIVE_DESIGN' ));
ENDSEC;

DATA;
#1 = CARTESIAN_POINT ( 'NONE',  ( 2.449293598294707400E-16, 4.000000000000000000, 0.000000000000000000 ) ) ;
#2 = CARTESIAN_POINT ( 'NONE',  ( 0.5000000000000001110, 1.250000000000000000, 6.123233995736766036E-17 ) ) ;
#3 = EDGE_CURVE ( 'NONE', #246, #158, #240, .T. ) ;
#4 = AXIS2_PLACEMENT_3D ( 'NONE', #193, #197, #305 ) ;
#5 = AXIS2_PLACEMENT_3D ( 'NONE', #124, #200, #74 ) ;
#6 = DIRECTION ( 'NONE',  ( 0.000000000000000000, -1.000000000000000000, -0.000000000000000000 ) ) ;
#7 = CARTESIAN_POINT ( 'NONE',  ( 0.5000000000000000000, 4.000000000000000000, 0.000000000000000000 ) ) ;
#8 =( CONVERSION_BASED_UNIT ( 'INCH', #241 ) LENGTH_UNIT ( ) NAMED_UNIT ( #172 ) );
#9 = EDGE_LOOP ( 'NONE', ( #130, #226 ) ) ;
#10 = ADVANCED_FACE ( 'NONE', ( #209 ), #59, .T. ) ;
#11 = DIRECTION ( 'NONE',  ( 8.906522175617119052E-17, 1.000000000000000000, -0.000000000000000000 ) ) ;
#12 = COLOUR_RGB ( '',0.7921568627450980005, 0.8196078431372548767, 0.9333333333333333481 ) ;
#13 = CARTESIAN_POINT ( 'NONE',  ( 0.000000000000000000, 1.250000000000000000, 0.000000000000000000 ) ) ;
#14 = LENGTH_MEASURE_WITH_UNIT ( LENGTH_MEASURE( 0.02539999999999999897 ), #187 );
#15 = ORIENTED_EDGE ( 'NONE', *, *, #264, .F. ) ;
#16 = AXIS2_PLACEMENT_3D ( 'NONE', #13, #247, #208 ) ;
#17 = EDGE_CURVE ( 'NONE', #239, #262, #260, .T. ) ;
#18 =( NAMED_UNIT ( * ) PLANE_ANGLE_UNIT ( ) SI_UNIT ( $, .RADIAN. ) );
#19 = DIMENSIONAL_EXPONENTS ( 1.000000000000000000, 0.000000000000000000, 0.000000000000000000, 0.000000000000000000, 0.000000000000000000, 0.000000000000000000, 0.000000000000000000 ) ;
#20 = COLOUR_RGB ( '',1.000000000000000000, 0.000000000000000000, 0.000000000000000000 ) ;
#21 = ORIENTED_EDGE ( 'NONE', *, *, #154, .F. ) ;
#22 = PRESENTATION_LAYER_ASSIGNMENT (  '', '', ( #36 ) ) ;
#23 = PRODUCT_DEFINITION_FORMATION_WITH_SPECIFIED_SOURCE ( 'ANY', '', #142, .NOT_KNOWN. ) ;
#24 = LENGTH_MEASURE_WITH_UNIT ( LENGTH_MEASURE( 0.02539999999999999897 ), #163 );
#25 =( CONVERSION_BASED_UNIT ( 'INCH', #243 ) LENGTH_UNIT ( ) NAMED_UNIT ( #78 ) );
#26 = PLANE ( 'NONE',  #84 ) ;
#27 = UNCERTAINTY_MEASURE_WITH_UNIT (LENGTH_MEASURE( 1.000000000000000082E-05 ), #112, 'distance_accuracy_value', 'NONE');
#28 = PRESENTATION_LAYER_ASSIGNMENT (  '', '', ( #301 ) ) ;
#29 =( NAMED_UNIT ( * ) SI_UNIT ( $, .STERADIAN. ) SOLID_ANGLE_UNIT ( ) );
#30 =( NAMED_UNIT ( * ) PLANE_ANGLE_UNIT ( ) SI_UNIT ( $, .RADIAN. ) );
#31 = PRODUCT_DEFINITION_SHAPE ( 'NONE', 'NONE',  #149 ) ;
#32 = VECTOR ( 'NONE', #185, 39.37007874015748143 ) ;
#33 = LINE ( 'NONE', #51, #251 ) ;
#34 = DIMENSIONAL_EXPONENTS ( 1.000000000000000000, 0.000000000000000000, 0.000000000000000000, 0.000000000000000000, 0.000000000000000000, 0.000000000000000000, 0.000000000000000000 ) ;
#35 = DIRECTION ( 'NONE',  ( -1.000000000000000000, 0.000000000000000000, 0.000000000000000000 ) ) ;
#36 = STYLED_ITEM ( 'NONE', ( #234 ), #89 ) ;
#37 = ORIENTED_EDGE ( 'NONE', *, *, #67, .F. ) ;
#38 =( GEOMETRIC_REPRESENTATION_CONTEXT ( 3 ) GLOBAL_UNCERTAINTY_ASSIGNED_CONTEXT ( ( #266 ) ) GLOBAL_UNIT_ASSIGNED_CONTEXT ( ( #236, #107, #29 ) ) REPRESENTATION_CONTEXT ( 'NONE', 'WORKASPACE' ) );
#39 = SURFACE_SIDE_STYLE ('',( #259 ) ) ;
#40 = EDGE_LOOP ( 'NONE', ( #249, #151 ) ) ;
#41 = STYLED_ITEM ( 'NONE', ( #129 ), #10 ) ;
#42 = SURFACE_STYLE_FILL_AREA ( #309 ) ;
#43 = DIRECTION ( 'NONE',  ( 8.906522175617119052E-17, 1.000000000000000000, -0.000000000000000000 ) ) ;
#44 = EDGE_LOOP ( 'NONE', ( #162, #283, #121, #15 ) ) ;
#45 = CARTESIAN_POINT ( 'NONE',  ( 0.000000000000000000, 0.000000000000000000, -0.5000000000000000000 ) ) ;
#46 = CARTESIAN_POINT ( 'NONE',  ( 0.5000000000000001110, 4.000000000000000000, 6.123233995736766036E-17 ) ) ;
#47 = ORIENTED_EDGE ( 'NONE', *, *, #116, .F. ) ;
#48 = PRESENTATION_LAYER_ASSIGNMENT (  '', '', ( #41 ) ) ;
#49 = CIRCLE ( 'NONE', #65, 0.5000000000000000000 ) ;
#50 = SURFACE_STYLE_FILL_AREA ( #93 ) ;
#51 = CARTESIAN_POINT ( 'NONE',  ( 0.5000000000000001110, 4.000000000000000000, 6.123233995736764803E-17 ) ) ;
#52 = EDGE_CURVE ( 'NONE', #191, #225, #218, .T. ) ;
#53 = CARTESIAN_POINT ( 'NONE',  ( 0.000000000000000000, 1.250000000000000000, 0.000000000000000000 ) ) ;
#54 =( GEOMETRIC_REPRESENTATION_CONTEXT ( 3 ) GLOBAL_UNCERTAINTY_ASSIGNED_CONTEXT ( ( #27 ) ) GLOBAL_UNIT_ASSIGNED_CONTEXT ( ( #112, #115, #269 ) ) REPRESENTATION_CONTEXT ( 'NONE', 'WORKASPACE' ) );
#55 = MANIFOLD_SOLID_BREP ( 'Revolve - Cutting Edge', #300 ) ;
#56 = DIMENSIONAL_EXPONENTS ( 1.000000000000000000, 0.000000000000000000, 0.000000000000000000, 0.000000000000000000, 0.000000000000000000, 0.000000000000000000, 0.000000000000000000 ) ;
#57 = EDGE_LOOP ( 'NONE', ( #137, #244 ) ) ;
#58 = PRESENTATION_STYLE_ASSIGNMENT (( #263 ) ) ;
#59 = PLANE ( 'NONE',  #102 ) ;
#60 = ADVANCED_FACE ( 'NONE', ( #298 ), #26, .F. ) ;
#61 =( GEOMETRIC_REPRESENTATION_CONTEXT ( 3 ) GLOBAL_UNCERTAINTY_ASSIGNED_CONTEXT ( ( #135 ) ) GLOBAL_UNIT_ASSIGNED_CONTEXT ( ( #8, #18, #141 ) ) REPRESENTATION_CONTEXT ( 'NONE', 'WORKASPACE' ) );
#62 = SURFACE_STYLE_USAGE ( .BOTH. , #39 ) ;
#63 = SURFACE_SIDE_STYLE ('',( #286 ) ) ;
#64 = MANIFOLD_SOLID_BREP ( 'Revolve - Tool Body (Straight Shanked)', #175 ) ;
#65 = AXIS2_PLACEMENT_3D ( 'NONE', #117, #100, #186 ) ;
#66 = ORIENTED_EDGE ( 'NONE', *, *, #140, .F. ) ;
#67 = EDGE_CURVE ( 'NONE', #246, #191, #201, .T. ) ;
#68 = DIRECTION ( 'NONE',  ( 8.906522175617119052E-17, 1.000000000000000000, -0.000000000000000000 ) ) ;
#69 = SURFACE_STYLE_USAGE ( .BOTH. , #220 ) ;
#70 = CIRCLE ( 'NONE', #145, 0.5000000000000000000 ) ;
#71 = CYLINDRICAL_SURFACE ( 'NONE', #106, 0.4999999999999998335 ) ;
#72 = SURFACE_SIDE_STYLE ('',( #179 ) ) ;
#73 = DIRECTION ( 'NONE',  ( -1.000000000000000000, 0.000000000000000000, 0.000000000000000000 ) ) ;
#74 = DIRECTION ( 'NONE',  ( 1.000000000000000000, 0.000000000000000000, 0.000000000000000000 ) ) ;
#75 =( CONVERSION_BASED_UNIT ( 'INCH', #222 ) LENGTH_UNIT ( ) NAMED_UNIT ( #56 ) );
#76 = CARTESIAN_POINT ( 'NONE',  ( 0.000000000000000000, 0.000000000000000000, 0.000000000000000000 ) ) ;
#77 = DIRECTION ( 'NONE',  ( -1.000000000000000000, 0.000000000000000000, 0.000000000000000000 ) ) ;
#78 = DIMENSIONAL_EXPONENTS ( 1.000000000000000000, 0.000000000000000000, 0.000000000000000000, 0.000000000000000000, 0.000000000000000000, 0.000000000000000000, 0.000000000000000000 ) ;
#79 = ADVANCED_BREP_SHAPE_REPRESENTATION ( '44407', ( #55, #64, #5 ), #182 ) ;
#80 = STYLED_ITEM ( 'NONE', ( #58 ), #194 ) ;
#81 =( CONVERSION_BASED_UNIT ( 'INCH', #230 ) LENGTH_UNIT ( ) NAMED_UNIT ( #231 ) );
#82 = PRODUCT_RELATED_PRODUCT_CATEGORY ( 'part', '', ( #142 ) ) ;
#83 = FILL_AREA_STYLE ('',( #146 ) ) ;
#84 = AXIS2_PLACEMENT_3D ( 'NONE', #7, #98, #273 ) ;
#85 = LENGTH_MEASURE_WITH_UNIT ( LENGTH_MEASURE( 0.02539999999999999897 ), #232 );
#86 = CARTESIAN_POINT ( 'NONE',  ( 0.000000000000000000, 0.000000000000000000, 0.000000000000000000 ) ) ;
#87 = ORIENTED_EDGE ( 'NONE', *, *, #140, .T. ) ;
#88 = DIRECTION ( 'NONE',  ( -0.000000000000000000, -1.000000000000000000, -0.000000000000000000 ) ) ;
#89 = ADVANCED_FACE ( 'NONE', ( #203 ), #210, .T. ) ;
#90 = FACE_OUTER_BOUND ( 'NONE', #44, .T. ) ;
#91 = DIRECTION ( 'NONE',  ( 0.000000000000000000, 0.000000000000000000, -1.000000000000000000 ) ) ;
#92 = FILL_AREA_STYLE ('',( #297 ) ) ;
#93 = FILL_AREA_STYLE ('',( #238 ) ) ;
#94 =( NAMED_UNIT ( * ) SI_UNIT ( $, .STERADIAN. ) SOLID_ANGLE_UNIT ( ) );
#95 = CARTESIAN_POINT ( 'NONE',  ( 2.449293598294707400E-16, 4.000000000000000000, 0.000000000000000000 ) ) ;
#96 = CARTESIAN_POINT ( 'NONE',  ( 2.449293598294707400E-16, 4.000000000000000000, 0.000000000000000000 ) ) ;
#97 = FACE_OUTER_BOUND ( 'NONE', #132, .T. ) ;
#98 = DIRECTION ( 'NONE',  ( -8.906522175617119052E-17, -1.000000000000000000, 0.000000000000000000 ) ) ;
#99 = PRESENTATION_LAYER_ASSIGNMENT (  '', '', ( #139 ) ) ;
#100 = DIRECTION ( 'NONE',  ( -0.000000000000000000, -1.000000000000000000, -0.000000000000000000 ) ) ;
#101 = CARTESIAN_POINT ( 'NONE',  ( 0.000000000000000000, 1.250000000000000000, 0.000000000000000000 ) ) ;
#102 = AXIS2_PLACEMENT_3D ( 'NONE', #250, #279, #252 ) ;
#103 = DIRECTION ( 'NONE',  ( 8.906522175617119052E-17, 1.000000000000000000, -0.000000000000000000 ) ) ;
#104 = ADVANCED_FACE ( 'NONE', ( #178 ), #272, .F. ) ;
#105 = MECHANICAL_DESIGN_GEOMETRIC_PRESENTATION_REPRESENTATION (  '', ( #36 ), #38 ) ;
#106 = AXIS2_PLACEMENT_3D ( 'NONE', #183, #68, #271 ) ;
#107 =( NAMED_UNIT ( * ) PLANE_ANGLE_UNIT ( ) SI_UNIT ( $, .RADIAN. ) );
#108 = VERTEX_POINT ( 'NONE', #258 ) ;
#109 = DIRECTION ( 'NONE',  ( 8.906522175617119052E-17, 1.000000000000000000, -0.000000000000000000 ) ) ;
#110 = APPLICATION_PROTOCOL_DEFINITION ( 'draft international standard', 'automotive_design', 1998, #159 ) ;
#111 = CYLINDRICAL_SURFACE ( 'NONE', #281, 0.5000000000000000000 ) ;
#112 =( CONVERSION_BASED_UNIT ( 'INCH', #14 ) LENGTH_UNIT ( ) NAMED_UNIT ( #19 ) );
#113 = CARTESIAN_POINT ( 'NONE',  ( 0.000000000000000000, 1.250000000000000000, -0.5000000000000000000 ) ) ;
#114 = SURFACE_STYLE_USAGE ( .BOTH. , #177 ) ;
#115 =( NAMED_UNIT ( * ) PLANE_ANGLE_UNIT ( ) SI_UNIT ( $, .RADIAN. ) );
#116 = EDGE_CURVE ( 'NONE', #278, #108, #165, .T. ) ;
#117 = CARTESIAN_POINT ( 'NONE',  ( 0.000000000000000000, 1.250000000000000000, 0.000000000000000000 ) ) ;
#118 = CIRCLE ( 'NONE', #198, 0.4999999999999997224 ) ;
#119 = CARTESIAN_POINT ( 'NONE',  ( 6.123233995736766036E-17, 0.000000000000000000, 0.5000000000000000000 ) ) ;
#120 = ORIENTED_EDGE ( 'NONE', *, *, #67, .T. ) ;
#121 = ORIENTED_EDGE ( 'NONE', *, *, #212, .F. ) ;
#122 = PRESENTATION_STYLE_ASSIGNMENT (( #114 ) ) ;
#123 =( GEOMETRIC_REPRESENTATION_CONTEXT ( 3 ) GLOBAL_UNCERTAINTY_ASSIGNED_CONTEXT ( ( #215 ) ) GLOBAL_UNIT_ASSIGNED_CONTEXT ( ( #25, #30, #94 ) ) REPRESENTATION_CONTEXT ( 'NONE', 'WORKASPACE' ) );
#124 = CARTESIAN_POINT ( 'NONE',  ( 0.000000000000000000, 0.000000000000000000, 0.000000000000000000 ) ) ;
#125 = UNCERTAINTY_MEASURE_WITH_UNIT (LENGTH_MEASURE( 1.000000000000000082E-05 ), #81, 'distance_accuracy_value', 'NONE');
#126 = AXIS2_PLACEMENT_3D ( 'NONE', #292, #6, #91 ) ;
#127 = CIRCLE ( 'NONE', #170, 0.5000000000000000000 ) ;
#128 = DIMENSIONAL_EXPONENTS ( 1.000000000000000000, 0.000000000000000000, 0.000000000000000000, 0.000000000000000000, 0.000000000000000000, 0.000000000000000000, 0.000000000000000000 ) ;
#129 = PRESENTATION_STYLE_ASSIGNMENT (( #152 ) ) ;
#130 = ORIENTED_EDGE ( 'NONE', *, *, #52, .T. ) ;
#131 = ORIENTED_EDGE ( 'NONE', *, *, #147, .F. ) ;
#132 = EDGE_LOOP ( 'NONE', ( #21, #257, #294, #47 ) ) ;
#133 =( LENGTH_UNIT ( ) NAMED_UNIT ( * ) SI_UNIT ( $, .METRE. ) );
#134 = PRESENTATION_STYLE_ASSIGNMENT (( #69 ) ) ;
#135 = UNCERTAINTY_MEASURE_WITH_UNIT (LENGTH_MEASURE( 1.000000000000000082E-05 ), #8, 'distance_accuracy_value', 'NONE');
#136 = CYLINDRICAL_SURFACE ( 'NONE', #161, 0.5000000000000000000 ) ;
#137 = ORIENTED_EDGE ( 'NONE', *, *, #3, .F. ) ;
#138 = DIRECTION ( 'NONE',  ( -1.000000000000000000, 0.000000000000000000, 0.000000000000000000 ) ) ;
#139 = STYLED_ITEM ( 'NONE', ( #134 ), #55 ) ;
#140 = EDGE_CURVE ( 'NONE', #158, #225, #245, .T. ) ;
#141 =( NAMED_UNIT ( * ) SI_UNIT ( $, .STERADIAN. ) SOLID_ANGLE_UNIT ( ) );
#142 = PRODUCT ( '44407', '44407', '', ( #157 ) ) ;
#143 = DIRECTION ( 'NONE',  ( 0.000000000000000000, 0.000000000000000000, -1.000000000000000000 ) ) ;
#144 = APPLICATION_CONTEXT ( 'automotive_design' ) ;
#145 = AXIS2_PLACEMENT_3D ( 'NONE', #53, #171, #77 ) ;
#146 = FILL_AREA_STYLE_COLOUR ( '', #20 ) ;
#147 = EDGE_CURVE ( 'NONE', #262, #239, #70, .T. ) ;
#148 = FILL_AREA_STYLE ('',( #153 ) ) ;
#149 = PRODUCT_DEFINITION ( 'UNKNOWN', '', #23, #227 ) ;
#150 = VECTOR ( 'NONE', #306, 39.37007874015748143 ) ;
#151 = ORIENTED_EDGE ( 'NONE', *, *, #116, .T. ) ;
#152 = SURFACE_STYLE_USAGE ( .BOTH. , #63 ) ;
#153 = FILL_AREA_STYLE_COLOUR ( '', #284 ) ;
#154 = EDGE_CURVE ( 'NONE', #262, #278, #33, .T. ) ;
#155 = LINE ( 'NONE', #192, #211 ) ;
#156 =( NAMED_UNIT ( * ) SI_UNIT ( $, .STERADIAN. ) SOLID_ANGLE_UNIT ( ) );
#157 = PRODUCT_CONTEXT ( 'NONE', #144, 'mechanical' ) ;
#158 = VERTEX_POINT ( 'NONE', #217 ) ;
#159 = APPLICATION_CONTEXT ( 'automotive_design' ) ;
#160 = COLOUR_RGB ( '',1.000000000000000000, 0.000000000000000000, 0.000000000000000000 ) ;
#161 = AXIS2_PLACEMENT_3D ( 'NONE', #76, #167, #143 ) ;
#162 = ORIENTED_EDGE ( 'NONE', *, *, #17, .T. ) ;
#163 =( LENGTH_UNIT ( ) NAMED_UNIT ( * ) SI_UNIT ( $, .METRE. ) );
#164 =( NAMED_UNIT ( * ) PLANE_ANGLE_UNIT ( ) SI_UNIT ( $, .RADIAN. ) );
#165 = CIRCLE ( 'NONE', #190, 0.4999999999999997224 ) ;
#166 = AXIS2_PLACEMENT_3D ( 'NONE', #86, #196, #214 ) ;
#167 = DIRECTION ( 'NONE',  ( -0.000000000000000000, -1.000000000000000000, -0.000000000000000000 ) ) ;
#168 = FACE_OUTER_BOUND ( 'NONE', #255, .T. ) ;
#169 = EDGE_LOOP ( 'NONE', ( #66, #189, #120, #291 ) ) ;
#170 = AXIS2_PLACEMENT_3D ( 'NONE', #188, #195, #295 ) ;
#171 = DIRECTION ( 'NONE',  ( 8.906522175617119052E-17, 1.000000000000000000, -0.000000000000000000 ) ) ;
#172 = DIMENSIONAL_EXPONENTS ( 1.000000000000000000, 0.000000000000000000, 0.000000000000000000, 0.000000000000000000, 0.000000000000000000, 0.000000000000000000, 0.000000000000000000 ) ;
#173 = CARTESIAN_POINT ( 'NONE',  ( 0.000000000000000000, 0.000000000000000000, 0.000000000000000000 ) ) ;
#174 = CARTESIAN_POINT ( 'NONE',  ( 0.000000000000000000, 0.000000000000000000, -0.5000000000000000000 ) ) ;
#175 = CLOSED_SHELL ( 'NONE', ( #274, #104, #207, #60 ) ) ;
#176 = FILL_AREA_STYLE ('',( #307 ) ) ;
#177 = SURFACE_SIDE_STYLE ('',( #42 ) ) ;
#178 = FACE_OUTER_BOUND ( 'NONE', #223, .T. ) ;
#179 = SURFACE_STYLE_FILL_AREA ( #92 ) ;
#180 =( CONVERSION_BASED_UNIT ( 'INCH', #24 ) LENGTH_UNIT ( ) NAMED_UNIT ( #34 ) );
#181 = DIRECTION ( 'NONE',  ( 8.906522175617119052E-17, 1.000000000000000000, -0.000000000000000000 ) ) ;
#182 =( GEOMETRIC_REPRESENTATION_CONTEXT ( 3 ) GLOBAL_UNCERTAINTY_ASSIGNED_CONTEXT ( ( #282 ) ) GLOBAL_UNIT_ASSIGNED_CONTEXT ( ( #75, #233, #202 ) ) REPRESENTATION_CONTEXT ( 'NONE', 'WORKASPACE' ) );
#183 = CARTESIAN_POINT ( 'NONE',  ( 2.449293598294707400E-16, 4.000000000000000000, 0.000000000000000000 ) ) ;
#184 = SURFACE_STYLE_USAGE ( .BOTH. , #72 ) ;
#185 = DIRECTION ( 'NONE',  ( -0.000000000000000000, -1.000000000000000000, -0.000000000000000000 ) ) ;
#186 = DIRECTION ( 'NONE',  ( 0.000000000000000000, 0.000000000000000000, -1.000000000000000000 ) ) ;
#187 =( LENGTH_UNIT ( ) NAMED_UNIT ( * ) SI_UNIT ( $, .METRE. ) );
#188 = CARTESIAN_POINT ( 'NONE',  ( 0.000000000000000000, 0.000000000000000000, 0.000000000000000000 ) ) ;
#189 = ORIENTED_EDGE ( 'NONE', *, *, #299, .T. ) ;
#190 = AXIS2_PLACEMENT_3D ( 'NONE', #1, #43, #138 ) ;
#191 = VERTEX_POINT ( 'NONE', #45 ) ;
#192 = CARTESIAN_POINT ( 'NONE',  ( -0.4999999999999996114, 4.000000000000000000, 0.000000000000000000 ) ) ;
#193 = CARTESIAN_POINT ( 'NONE',  ( 1.983153431618987466E-33, 1.250000000000000000, 0.000000000000000000 ) ) ;
#194 = ADVANCED_FACE ( 'NONE', ( #168 ), #111, .T. ) ;
#195 = DIRECTION ( 'NONE',  ( -0.000000000000000000, -1.000000000000000000, -0.000000000000000000 ) ) ;
#196 = DIRECTION ( 'NONE',  ( -0.000000000000000000, -1.000000000000000000, -0.000000000000000000 ) ) ;
#197 = DIRECTION ( 'NONE',  ( 8.906522175617119052E-17, 1.000000000000000000, -0.000000000000000000 ) ) ;
#198 = AXIS2_PLACEMENT_3D ( 'NONE', #96, #254, #228 ) ;
#199 = ADVANCED_FACE ( 'NONE', ( #293 ), #136, .T. ) ;
#200 = DIRECTION ( 'NONE',  ( 0.000000000000000000, 0.000000000000000000, 1.000000000000000000 ) ) ;
#201 = LINE ( 'NONE', #174, #150 ) ;
#202 =( NAMED_UNIT ( * ) SI_UNIT ( $, .STERADIAN. ) SOLID_ANGLE_UNIT ( ) );
#203 = FACE_OUTER_BOUND ( 'NONE', #9, .T. ) ;
#204 = SHAPE_DEFINITION_REPRESENTATION ( #31, #79 ) ;
#205 = PRESENTATION_LAYER_ASSIGNMENT (  '', '', ( #302 ) ) ;
#206 = FILL_AREA_STYLE_COLOUR ( '', #267 ) ;
#207 = ADVANCED_FACE ( 'NONE', ( #97 ), #275, .T. ) ;
#208 = DIRECTION ( 'NONE',  ( 0.000000000000000000, 0.000000000000000000, -1.000000000000000000 ) ) ;
#209 = FACE_OUTER_BOUND ( 'NONE', #57, .T. ) ;
#210 = PLANE ( 'NONE',  #126 ) ;
#211 = VECTOR ( 'NONE', #103, 39.37007874015748143 ) ;
#212 = EDGE_CURVE ( 'NONE', #108, #278, #118, .T. ) ;
#213 =( GEOMETRIC_REPRESENTATION_CONTEXT ( 3 ) GLOBAL_UNCERTAINTY_ASSIGNED_CONTEXT ( ( #125 ) ) GLOBAL_UNIT_ASSIGNED_CONTEXT ( ( #81, #237, #156 ) ) REPRESENTATION_CONTEXT ( 'NONE', 'WORKASPACE' ) );
#214 = DIRECTION ( 'NONE',  ( 0.000000000000000000, 0.000000000000000000, -1.000000000000000000 ) ) ;
#215 = UNCERTAINTY_MEASURE_WITH_UNIT (LENGTH_MEASURE( 1.000000000000000082E-05 ), #25, 'distance_accuracy_value', 'NONE');
#216 = UNCERTAINTY_MEASURE_WITH_UNIT (LENGTH_MEASURE( 1.000000000000000082E-05 ), #180, 'distance_accuracy_value', 'NONE');
#217 = CARTESIAN_POINT ( 'NONE',  ( 6.123233995736766036E-17, 1.250000000000000000, 0.5000000000000000000 ) ) ;
#218 = CIRCLE ( 'NONE', #166, 0.5000000000000000000 ) ;
#219 = ORIENTED_EDGE ( 'NONE', *, *, #3, .T. ) ;
#220 = SURFACE_SIDE_STYLE ('',( #50 ) ) ;
#221 = CARTESIAN_POINT ( 'NONE',  ( 6.123233995736766036E-17, 0.000000000000000000, 0.5000000000000000000 ) ) ;
#222 = LENGTH_MEASURE_WITH_UNIT ( LENGTH_MEASURE( 0.02539999999999999897 ), #265 );
#223 = EDGE_LOOP ( 'NONE', ( #229, #131 ) ) ;
#224 = MECHANICAL_DESIGN_GEOMETRIC_PRESENTATION_REPRESENTATION (  '', ( #302 ), #123 ) ;
#225 = VERTEX_POINT ( 'NONE', #221 ) ;
#226 = ORIENTED_EDGE ( 'NONE', *, *, #268, .T. ) ;
#227 = PRODUCT_DEFINITION_CONTEXT ( 'detailed design', #159, 'design' ) ;
#228 = DIRECTION ( 'NONE',  ( -1.000000000000000000, 0.000000000000000000, 0.000000000000000000 ) ) ;
#229 = ORIENTED_EDGE ( 'NONE', *, *, #17, .F. ) ;
#230 = LENGTH_MEASURE_WITH_UNIT ( LENGTH_MEASURE( 0.02539999999999999897 ), #253 );
#231 = DIMENSIONAL_EXPONENTS ( 1.000000000000000000, 0.000000000000000000, 0.000000000000000000, 0.000000000000000000, 0.000000000000000000, 0.000000000000000000, 0.000000000000000000 ) ;
#232 =( LENGTH_UNIT ( ) NAMED_UNIT ( * ) SI_UNIT ( $, .METRE. ) );
#233 =( NAMED_UNIT ( * ) PLANE_ANGLE_UNIT ( ) SI_UNIT ( $, .RADIAN. ) );
#234 = PRESENTATION_STYLE_ASSIGNMENT (( #62 ) ) ;
#235 = COLOUR_RGB ( '',0.7921568627450980005, 0.8196078431372548767, 0.9333333333333333481 ) ;
#236 =( CONVERSION_BASED_UNIT ( 'INCH', #85 ) LENGTH_UNIT ( ) NAMED_UNIT ( #128 ) );
#237 =( NAMED_UNIT ( * ) PLANE_ANGLE_UNIT ( ) SI_UNIT ( $, .RADIAN. ) );
#238 = FILL_AREA_STYLE_COLOUR ( '', #235 ) ;
#239 = VERTEX_POINT ( 'NONE', #270 ) ;
#240 = CIRCLE ( 'NONE', #16, 0.5000000000000000000 ) ;
#241 = LENGTH_MEASURE_WITH_UNIT ( LENGTH_MEASURE( 0.02539999999999999897 ), #285 );
#242 = PRESENTATION_STYLE_ASSIGNMENT (( #184 ) ) ;
#243 = LENGTH_MEASURE_WITH_UNIT ( LENGTH_MEASURE( 0.02539999999999999897 ), #133 );
#244 = ORIENTED_EDGE ( 'NONE', *, *, #299, .F. ) ;
#245 = LINE ( 'NONE', #119, #32 ) ;
#246 = VERTEX_POINT ( 'NONE', #113 ) ;
#247 = DIRECTION ( 'NONE',  ( -0.000000000000000000, -1.000000000000000000, -0.000000000000000000 ) ) ;
#248 = MECHANICAL_DESIGN_GEOMETRIC_PRESENTATION_REPRESENTATION (  '', ( #139 ), #54 ) ;
#249 = ORIENTED_EDGE ( 'NONE', *, *, #212, .T. ) ;
#250 = CARTESIAN_POINT ( 'NONE',  ( 0.000000000000000000, 1.250000000000000000, 0.000000000000000000 ) ) ;
#251 = VECTOR ( 'NONE', #11, 39.37007874015748143 ) ;
#252 = DIRECTION ( 'NONE',  ( 0.000000000000000000, -0.000000000000000000, 1.000000000000000000 ) ) ;
#253 =( LENGTH_UNIT ( ) NAMED_UNIT ( * ) SI_UNIT ( $, .METRE. ) );
#254 = DIRECTION ( 'NONE',  ( 8.906522175617119052E-17, 1.000000000000000000, -0.000000000000000000 ) ) ;
#255 = EDGE_LOOP ( 'NONE', ( #219, #87, #287, #37 ) ) ;
#256 = DIRECTION ( 'NONE',  ( 0.000000000000000000, 0.000000000000000000, -1.000000000000000000 ) ) ;
#257 = ORIENTED_EDGE ( 'NONE', *, *, #147, .T. ) ;
#258 = CARTESIAN_POINT ( 'NONE',  ( -0.4999999999999994449, 4.000000000000000000, 0.000000000000000000 ) ) ;
#259 = SURFACE_STYLE_FILL_AREA ( #148 ) ;
#260 = CIRCLE ( 'NONE', #296, 0.5000000000000000000 ) ;
#261 = SURFACE_STYLE_FILL_AREA ( #83 ) ;
#262 = VERTEX_POINT ( 'NONE', #2 ) ;
#263 = SURFACE_STYLE_USAGE ( .BOTH. , #303 ) ;
#264 = EDGE_CURVE ( 'NONE', #239, #108, #155, .T. ) ;
#265 =( LENGTH_UNIT ( ) NAMED_UNIT ( * ) SI_UNIT ( $, .METRE. ) );
#266 = UNCERTAINTY_MEASURE_WITH_UNIT (LENGTH_MEASURE( 1.000000000000000082E-05 ), #236, 'distance_accuracy_value', 'NONE');
#267 = COLOUR_RGB ( '',1.000000000000000000, 0.000000000000000000, 0.000000000000000000 ) ;
#268 = EDGE_CURVE ( 'NONE', #225, #191, #127, .T. ) ;
#269 =( NAMED_UNIT ( * ) SI_UNIT ( $, .STERADIAN. ) SOLID_ANGLE_UNIT ( ) );
#270 = CARTESIAN_POINT ( 'NONE',  ( -0.5000000000000000000, 1.250000000000000000, 0.000000000000000000 ) ) ;
#271 = DIRECTION ( 'NONE',  ( -1.000000000000000000, 0.000000000000000000, 0.000000000000000000 ) ) ;
#272 = PLANE ( 'NONE',  #4 ) ;
#273 = DIRECTION ( 'NONE',  ( 1.000000000000000000, -8.906522175617119052E-17, 0.000000000000000000 ) ) ;
#274 = ADVANCED_FACE ( 'NONE', ( #90 ), #71, .T. ) ;
#275 = CYLINDRICAL_SURFACE ( 'NONE', #277, 0.4999999999999998335 ) ;
#276 = MECHANICAL_DESIGN_GEOMETRIC_PRESENTATION_REPRESENTATION (  '', ( #301 ), #280 ) ;
#277 = AXIS2_PLACEMENT_3D ( 'NONE', #95, #181, #73 ) ;
#278 = VERTEX_POINT ( 'NONE', #46 ) ;
#279 = DIRECTION ( 'NONE',  ( 0.000000000000000000, 1.000000000000000000, 0.000000000000000000 ) ) ;
#280 =( GEOMETRIC_REPRESENTATION_CONTEXT ( 3 ) GLOBAL_UNCERTAINTY_ASSIGNED_CONTEXT ( ( #216 ) ) GLOBAL_UNIT_ASSIGNED_CONTEXT ( ( #180, #164, #288 ) ) REPRESENTATION_CONTEXT ( 'NONE', 'WORKASPACE' ) );
#281 = AXIS2_PLACEMENT_3D ( 'NONE', #173, #88, #256 ) ;
#282 = UNCERTAINTY_MEASURE_WITH_UNIT (LENGTH_MEASURE( 1.000000000000000082E-05 ), #75, 'distance_accuracy_value', 'NONE');
#283 = ORIENTED_EDGE ( 'NONE', *, *, #154, .T. ) ;
#284 = COLOUR_RGB ( '',1.000000000000000000, 0.000000000000000000, 0.000000000000000000 ) ;
#285 =( LENGTH_UNIT ( ) NAMED_UNIT ( * ) SI_UNIT ( $, .METRE. ) );
#286 = SURFACE_STYLE_FILL_AREA ( #176 ) ;
#287 = ORIENTED_EDGE ( 'NONE', *, *, #52, .F. ) ;
#288 =( NAMED_UNIT ( * ) SI_UNIT ( $, .STERADIAN. ) SOLID_ANGLE_UNIT ( ) );
#289 = MECHANICAL_DESIGN_GEOMETRIC_PRESENTATION_REPRESENTATION (  '', ( #80 ), #213 ) ;
#290 = APPLICATION_PROTOCOL_DEFINITION ( 'draft international standard', 'automotive_design', 1998, #144 ) ;
#291 = ORIENTED_EDGE ( 'NONE', *, *, #268, .F. ) ;
#292 = CARTESIAN_POINT ( 'NONE',  ( 0.000000000000000000, 0.000000000000000000, 0.000000000000000000 ) ) ;
#293 = FACE_OUTER_BOUND ( 'NONE', #169, .T. ) ;
#294 = ORIENTED_EDGE ( 'NONE', *, *, #264, .T. ) ;
#295 = DIRECTION ( 'NONE',  ( 0.000000000000000000, 0.000000000000000000, -1.000000000000000000 ) ) ;
#296 = AXIS2_PLACEMENT_3D ( 'NONE', #101, #109, #35 ) ;
#297 = FILL_AREA_STYLE_COLOUR ( '', #12 ) ;
#298 = FACE_OUTER_BOUND ( 'NONE', #40, .T. ) ;
#299 = EDGE_CURVE ( 'NONE', #158, #246, #49, .T. ) ;
#300 = CLOSED_SHELL ( 'NONE', ( #194, #10, #199, #89 ) ) ;
#301 = STYLED_ITEM ( 'NONE', ( #242 ), #64 ) ;
#302 = STYLED_ITEM ( 'NONE', ( #122 ), #199 ) ;
#303 = SURFACE_SIDE_STYLE ('',( #261 ) ) ;
#304 = PRESENTATION_LAYER_ASSIGNMENT (  '', '', ( #80 ) ) ;
#305 = DIRECTION ( 'NONE',  ( -1.000000000000000000, 8.906522175617119052E-17, 0.000000000000000000 ) ) ;
#306 = DIRECTION ( 'NONE',  ( -0.000000000000000000, -1.000000000000000000, -0.000000000000000000 ) ) ;
#307 = FILL_AREA_STYLE_COLOUR ( '', #160 ) ;
#308 = MECHANICAL_DESIGN_GEOMETRIC_PRESENTATION_REPRESENTATION (  '', ( #41 ), #61 ) ;
#309 = FILL_AREA_STYLE ('',( #206 ) ) ;
ENDSEC;
END-ISO-10303-21;
