ISO-10303-21;
HEADER;
FILE_DESCRIPTION (( 'STEP AP214' ),
    '1' );
FILE_NAME ('Micro_SFA-125-42.STEP',
    '2021-09-02T03:40:42',
    ( '' ),
    ( '' ),
    'SwSTEP 2.0',
    'SolidWorks 2020',
    '' );
FILE_SCHEMA (( 'AUTOMOTIVE_DESIGN' ));
ENDSEC;

DATA;
#1 = ADVANCED_FACE ( 'NONE', ( #185 ), #289, .T. ) ;
#2 = UNCERTAINTY_MEASURE_WITH_UNIT (LENGTH_MEASURE( 1.000000000000000082E-05 ), #257, 'distance_accuracy_value', 'NONE');
#3 = CARTESIAN_POINT ( 'NONE',  ( 3.061616997868383018E-17, 0.0000000000000000000, 0.2500000000000000000 ) ) ;
#4 = AXIS2_PLACEMENT_3D ( 'NONE', #112, #110, #206 ) ;
#5 = AXIS2_PLACEMENT_3D ( 'NONE', #3, #282, #85 ) ;
#6 = PRESENTATION_STYLE_ASSIGNMENT (( #125 ) ) ;
#7 = CARTESIAN_POINT ( 'NONE',  ( -0.06243749999999997219, 1.147723672075910277E-17, 0.2500000000000000000 ) ) ;
#8 =( NAMED_UNIT ( * ) PLANE_ANGLE_UNIT ( ) SI_UNIT ( $, .RADIAN. ) );
#9 = CARTESIAN_POINT ( 'NONE',  ( 0.0000000000000000000, 0.0000000000000000000, 2.000000000000000000 ) ) ;
#10 = COLOUR_RGB ( '',0.7921568627450980005, 0.8196078431372548767, 0.9333333333333333481 ) ;
#11 = ADVANCED_FACE ( 'NONE', ( #92 ), #91, .T. ) ;
#12 = VERTEX_POINT ( 'NONE', #68 ) ;
#13 = FACE_OUTER_BOUND ( 'NONE', #47, .T. ) ;
#14 = ORIENTED_EDGE ( 'NONE', *, *, #171, .F. ) ;
#15 = DIRECTION ( 'NONE',  ( -0.0000000000000000000, -0.0000000000000000000, -1.000000000000000000 ) ) ;
#16 = ORIENTED_EDGE ( 'NONE', *, *, #27, .T. ) ;
#17 = AXIS2_PLACEMENT_3D ( 'NONE', #45, #137, #43 ) ;
#18 = CARTESIAN_POINT ( 'NONE',  ( -0.1099999999999996397, 0.0000000000000000000, 2.000000000000000000 ) ) ;
#19 = EDGE_CURVE ( 'NONE', #241, #113, #167, .T. ) ;
#20 = CARTESIAN_POINT ( 'NONE',  ( 7.406781025733896371E-17, 0.0000000000000000000, 0.6048095688398309466 ) ) ;
#21 = ORIENTED_EDGE ( 'NONE', *, *, #70, .T. ) ;
#22 = SURFACE_STYLE_FILL_AREA ( #96 ) ;
#23 = ORIENTED_EDGE ( 'NONE', *, *, #135, .F. ) ;
#24 = AXIS2_PLACEMENT_3D ( 'NONE', #139, #232, #115 ) ;
#25 = VERTEX_POINT ( 'NONE', #18 ) ;
#26 = DIRECTION ( 'NONE',  ( -1.000000000000000000, 0.0000000000000000000, 0.0000000000000000000 ) ) ;
#27 = EDGE_CURVE ( 'NONE', #246, #53, #109, .T. ) ;
#28 = FACE_OUTER_BOUND ( 'NONE', #82, .T. ) ;
#29 = DIRECTION ( 'NONE',  ( 1.000000000000000000, 0.0000000000000000000, 0.0000000000000000000 ) ) ;
#30 = EDGE_CURVE ( 'NONE', #12, #180, #146, .T. ) ;
#31 = CARTESIAN_POINT ( 'NONE',  ( 0.0000000000000000000, 0.0000000000000000000, 2.000000000000000000 ) ) ;
#32 = EDGE_CURVE ( 'NONE', #246, #113, #204, .T. ) ;
#33 = AXIS2_PLACEMENT_3D ( 'NONE', #130, #226, #288 ) ;
#34 = STYLED_ITEM ( 'NONE', ( #295 ), #208 ) ;
#35 = DIRECTION ( 'NONE',  ( -1.000000000000000000, 0.0000000000000000000, 0.0000000000000000000 ) ) ;
#36 = CARTESIAN_POINT ( 'NONE',  ( -0.1249999999999999306, 0.0000000000000000000, 0.6048095688398309466 ) ) ;
#37 = UNCERTAINTY_MEASURE_WITH_UNIT (LENGTH_MEASURE( 1.000000000000000082E-05 ), #52, 'distance_accuracy_value', 'NONE');
#38 = AXIS2_PLACEMENT_3D ( 'NONE', #196, #240, #35 ) ;
#39 = LENGTH_MEASURE_WITH_UNIT ( LENGTH_MEASURE( 0.02539999999999999897 ), #79 );
#40 = CARTESIAN_POINT ( 'NONE',  ( 0.06243750000000001382, 7.646388452176288915E-18, 0.0000000000000000000 ) ) ;
#41 = ORIENTED_EDGE ( 'NONE', *, *, #135, .T. ) ;
#42 = CARTESIAN_POINT ( 'NONE',  ( 0.1250000000000000555, 1.530808498934192125E-17, 0.6048095688398309466 ) ) ;
#43 = DIRECTION ( 'NONE',  ( -1.000000000000000000, 0.0000000000000000000, 1.224646799147353207E-16 ) ) ;
#44 = ORIENTED_EDGE ( 'NONE', *, *, #275, .T. ) ;
#45 = CARTESIAN_POINT ( 'NONE',  ( 0.0000000000000000000, 0.0000000000000000000, 0.0000000000000000000 ) ) ;
#46 = ORIENTED_EDGE ( 'NONE', *, *, #86, .T. ) ;
#47 = EDGE_LOOP ( 'NONE', ( #95, #41, #72, #186 ) ) ;
#48 = CARTESIAN_POINT ( 'NONE',  ( 0.0000000000000000000, 0.0000000000000000000, 2.000000000000000000 ) ) ;
#49 = PRESENTATION_LAYER_ASSIGNMENT (  '', '', ( #242 ) ) ;
#50 = ORIENTED_EDGE ( 'NONE', *, *, #83, .T. ) ;
#51 = DIRECTION ( 'NONE',  ( 0.0000000000000000000, 0.0000000000000000000, 1.000000000000000000 ) ) ;
#52 =( CONVERSION_BASED_UNIT ( 'INCH', #150 ) LENGTH_UNIT ( ) NAMED_UNIT ( #237 ) );
#53 = VERTEX_POINT ( 'NONE', #42 ) ;
#54 = ADVANCED_FACE ( 'NONE', ( #13 ), #252, .T. ) ;
#55 =( LENGTH_UNIT ( ) NAMED_UNIT ( * ) SI_UNIT ( $, .METRE. ) );
#56 = DIRECTION ( 'NONE',  ( -0.7071067811865434649, 0.0000000000000000000, -0.7071067811865515695 ) ) ;
#57 = FILL_AREA_STYLE ('',( #195 ) ) ;
#58 = AXIS2_PLACEMENT_3D ( 'NONE', #90, #156, #231 ) ;
#59 = AXIS2_PLACEMENT_3D ( 'NONE', #199, #178, #283 ) ;
#60 = FACE_OUTER_BOUND ( 'NONE', #138, .T. ) ;
#61 = PRODUCT_RELATED_PRODUCT_CATEGORY ( 'part', '', ( #152 ) ) ;
#62 = ORIENTED_EDGE ( 'NONE', *, *, #194, .T. ) ;
#63 = CARTESIAN_POINT ( 'NONE',  ( 0.1250000000000000000, 1.530808498934191509E-17, 2.000000000000000000 ) ) ;
#64 = DIRECTION ( 'NONE',  ( -1.000000000000000000, 0.0000000000000000000, 1.224646799147353207E-16 ) ) ;
#65 =( CONVERSION_BASED_UNIT ( 'INCH', #39 ) LENGTH_UNIT ( ) NAMED_UNIT ( #219 ) );
#66 = CARTESIAN_POINT ( 'NONE',  ( 0.0000000000000000000, 0.0000000000000000000, 2.000000000000000000 ) ) ;
#67 = AXIS2_PLACEMENT_3D ( 'NONE', #277, #235, #292 ) ;
#68 = CARTESIAN_POINT ( 'NONE',  ( -0.1250000000000000000, 0.0000000000000000000, 1.984999999999999432 ) ) ;
#69 = ADVANCED_FACE ( 'NONE', ( #249 ), #254, .T. ) ;
#70 = EDGE_CURVE ( 'NONE', #293, #241, #201, .T. ) ;
#71 = CARTESIAN_POINT ( 'NONE',  ( 3.061616997868383018E-17, 0.0000000000000000000, 0.2500000000000000000 ) ) ;
#72 = ORIENTED_EDGE ( 'NONE', *, *, #80, .T. ) ;
#73 = FACE_OUTER_BOUND ( 'NONE', #255, .T. ) ;
#74 = AXIS2_PLACEMENT_3D ( 'NONE', #9, #127, #149 ) ;
#75 = APPLICATION_PROTOCOL_DEFINITION ( 'draft international standard', 'automotive_design', 1998, #81 ) ;
#76 = DIRECTION ( 'NONE',  ( 1.000000000000000000, 0.0000000000000000000, 0.0000000000000000000 ) ) ;
#77 = PRODUCT_DEFINITION_SHAPE ( 'NONE', 'NONE',  #111 ) ;
#78 = LINE ( 'NONE', #174, #268 ) ;
#79 =( LENGTH_UNIT ( ) NAMED_UNIT ( * ) SI_UNIT ( $, .METRE. ) );
#80 = EDGE_CURVE ( 'NONE', #12, #286, #287, .T. ) ;
#81 = APPLICATION_CONTEXT ( 'automotive_design' ) ;
#82 = EDGE_LOOP ( 'NONE', ( #263, #250 ) ) ;
#83 = EDGE_CURVE ( 'NONE', #180, #53, #265, .T. ) ;
#84 =( NAMED_UNIT ( * ) SI_UNIT ( $, .STERADIAN. ) SOLID_ANGLE_UNIT ( ) );
#85 = DIRECTION ( 'NONE',  ( -1.000000000000000000, 0.0000000000000000000, 0.0000000000000000000 ) ) ;
#86 = EDGE_CURVE ( 'NONE', #246, #293, #210, .T. ) ;
#87 = CARTESIAN_POINT ( 'NONE',  ( 0.06243750000000003464, 0.0000000000000000000, 0.2500000000000000000 ) ) ;
#88 = AXIS2_PLACEMENT_3D ( 'NONE', #205, #161, #64 ) ;
#89 = APPLICATION_PROTOCOL_DEFINITION ( 'draft international standard', 'automotive_design', 1998, #145 ) ;
#90 = CARTESIAN_POINT ( 'NONE',  ( 0.0000000000000000000, 0.0000000000000000000, 1.984999999999999432 ) ) ;
#91 = CYLINDRICAL_SURFACE ( 'NONE', #133, 0.06243750000000001382 ) ;
#92 = FACE_OUTER_BOUND ( 'NONE', #202, .T. ) ;
#93 = DIRECTION ( 'NONE',  ( 0.7071067811865434649, 8.659560562354883554E-17, -0.7071067811865515695 ) ) ;
#94 =( NAMED_UNIT ( * ) PLANE_ANGLE_UNIT ( ) SI_UNIT ( $, .RADIAN. ) );
#95 = ORIENTED_EDGE ( 'NONE', *, *, #83, .F. ) ;
#96 = FILL_AREA_STYLE ('',( #143 ) ) ;
#97 = ORIENTED_EDGE ( 'NONE', *, *, #217, .F. ) ;
#98 = ORIENTED_EDGE ( 'NONE', *, *, #171, .T. ) ;
#99 = PRODUCT_DEFINITION_CONTEXT ( 'detailed design', #145, 'design' ) ;
#100 = VECTOR ( 'NONE', #93, 39.37007874015748143 ) ;
#101 = ADVANCED_BREP_SHAPE_REPRESENTATION ( 'Micro_SFA-125-42', ( #208, #248 ), #102 ) ;
#102 =( GEOMETRIC_REPRESENTATION_CONTEXT ( 3 ) GLOBAL_UNCERTAINTY_ASSIGNED_CONTEXT ( ( #192 ) ) GLOBAL_UNIT_ASSIGNED_CONTEXT ( ( #65, #8, #169 ) ) REPRESENTATION_CONTEXT ( 'NONE', 'WORKASPACE' ) );
#103 = DIRECTION ( 'NONE',  ( 0.1736481776669313859, 0.0000000000000000000, 0.9848077530122077983 ) ) ;
#104 = ORIENTED_EDGE ( 'NONE', *, *, #275, .F. ) ;
#105 = ORIENTED_EDGE ( 'NONE', *, *, #70, .F. ) ;
#106 = DIRECTION ( 'NONE',  ( -1.224646799147353207E-16, -0.0000000000000000000, -1.000000000000000000 ) ) ;
#107 = AXIS2_PLACEMENT_3D ( 'NONE', #153, #106, #290 ) ;
#108 = SHAPE_DEFINITION_REPRESENTATION ( #77, #101 ) ;
#109 = LINE ( 'NONE', #87, #218 ) ;
#110 = DIRECTION ( 'NONE',  ( 0.0000000000000000000, 0.0000000000000000000, -1.000000000000000000 ) ) ;
#111 = PRODUCT_DEFINITION ( 'UNKNOWN', '', #183, #99 ) ;
#112 = CARTESIAN_POINT ( 'NONE',  ( 0.0000000000000000000, 0.0000000000000000000, 2.000000000000000000 ) ) ;
#113 = VERTEX_POINT ( 'NONE', #40 ) ;
#114 = DIRECTION ( 'NONE',  ( 1.000000000000000000, 0.0000000000000000000, 0.0000000000000000000 ) ) ;
#115 = DIRECTION ( 'NONE',  ( -1.000000000000000000, 0.0000000000000000000, 1.224646799147353207E-16 ) ) ;
#116 = ORIENTED_EDGE ( 'NONE', *, *, #32, .T. ) ;
#117 = ORIENTED_EDGE ( 'NONE', *, *, #224, .T. ) ;
#118 = CARTESIAN_POINT ( 'NONE',  ( 0.1099999999999996397, 1.347111479062084158E-17, 2.000000000000000000 ) ) ;
#119 = ADVANCED_FACE ( 'NONE', ( #251 ), #121, .T. ) ;
#120 =( NAMED_UNIT ( * ) SI_UNIT ( $, .STERADIAN. ) SOLID_ANGLE_UNIT ( ) );
#121 = CONICAL_SURFACE ( 'NONE', #33, 0.06243749999999999994, 0.1745329251994338915 ) ;
#122 =( LENGTH_UNIT ( ) NAMED_UNIT ( * ) SI_UNIT ( $, .METRE. ) );
#123 = ADVANCED_FACE ( 'NONE', ( #209 ), #285, .T. ) ;
#124 = CARTESIAN_POINT ( 'NONE',  ( 0.06243750000000003464, 0.0000000000000000000, 0.2500000000000000000 ) ) ;
#125 = SURFACE_STYLE_USAGE ( .BOTH. , #243 ) ;
#126 = AXIS2_PLACEMENT_3D ( 'NONE', #66, #271, #158 ) ;
#127 = DIRECTION ( 'NONE',  ( 0.0000000000000000000, 0.0000000000000000000, 1.000000000000000000 ) ) ;
#128 = EDGE_LOOP ( 'NONE', ( #266, #46, #21, #157 ) ) ;
#129 =( GEOMETRIC_REPRESENTATION_CONTEXT ( 3 ) GLOBAL_UNCERTAINTY_ASSIGNED_CONTEXT ( ( #2 ) ) GLOBAL_UNIT_ASSIGNED_CONTEXT ( ( #257, #168, #120 ) ) REPRESENTATION_CONTEXT ( 'NONE', 'WORKASPACE' ) );
#130 = CARTESIAN_POINT ( 'NONE',  ( 3.061616997868383018E-17, 0.0000000000000000000, 0.2500000000000000000 ) ) ;
#131 = ORIENTED_EDGE ( 'NONE', *, *, #175, .T. ) ;
#132 = DIRECTION ( 'NONE',  ( -1.224646799147353207E-16, -0.0000000000000000000, -1.000000000000000000 ) ) ;
#133 = AXIS2_PLACEMENT_3D ( 'NONE', #170, #165, #245 ) ;
#134 = CIRCLE ( 'NONE', #220, 0.1099999999999996397 ) ;
#135 = EDGE_CURVE ( 'NONE', #180, #12, #159, .T. ) ;
#136 = CARTESIAN_POINT ( 'NONE',  ( -0.1250000000000000000, 0.0000000000000000000, 2.000000000000000000 ) ) ;
#137 = DIRECTION ( 'NONE',  ( -1.224646799147353207E-16, -0.0000000000000000000, -1.000000000000000000 ) ) ;
#138 = EDGE_LOOP ( 'NONE', ( #62, #207 ) ) ;
#139 = CARTESIAN_POINT ( 'NONE',  ( 9.364125142994975765E-34, 0.0000000000000000000, 7.646388452176288915E-18 ) ) ;
#140 = ORIENTED_EDGE ( 'NONE', *, *, #86, .F. ) ;
#141 = COLOUR_RGB ( '',0.7921568627450980005, 0.8196078431372548767, 0.9333333333333333481 ) ;
#142 = DIRECTION ( 'NONE',  ( 0.0000000000000000000, 0.0000000000000000000, -1.000000000000000000 ) ) ;
#143 = FILL_AREA_STYLE_COLOUR ( '', #10 ) ;
#144 = DIRECTION ( 'NONE',  ( 0.0000000000000000000, 0.0000000000000000000, -1.000000000000000000 ) ) ;
#145 = APPLICATION_CONTEXT ( 'automotive_design' ) ;
#146 = CIRCLE ( 'NONE', #58, 0.1250000000000000000 ) ;
#147 = ORIENTED_EDGE ( 'NONE', *, *, #270, .F. ) ;
#148 = ADVANCED_FACE ( 'NONE', ( #73 ), #239, .T. ) ;
#149 = DIRECTION ( 'NONE',  ( 1.000000000000000000, 0.0000000000000000000, -0.0000000000000000000 ) ) ;
#150 = LENGTH_MEASURE_WITH_UNIT ( LENGTH_MEASURE( 0.02539999999999999897 ), #55 );
#151 = VERTEX_POINT ( 'NONE', #259 ) ;
#152 = PRODUCT ( 'Micro_SFA-125-42', 'Micro_SFA-125-42', '', ( #279 ) ) ;
#153 = CARTESIAN_POINT ( 'NONE',  ( 3.061616997868383018E-17, 0.0000000000000000000, 0.2500000000000000000 ) ) ;
#154 = AXIS2_PLACEMENT_3D ( 'NONE', #274, #144, #299 ) ;
#155 = CIRCLE ( 'NONE', #59, 0.1250000000000000000 ) ;
#156 = DIRECTION ( 'NONE',  ( 0.0000000000000000000, 0.0000000000000000000, -1.000000000000000000 ) ) ;
#157 = ORIENTED_EDGE ( 'NONE', *, *, #228, .F. ) ;
#158 = DIRECTION ( 'NONE',  ( -1.000000000000000000, 0.0000000000000000000, 0.0000000000000000000 ) ) ;
#159 = CIRCLE ( 'NONE', #154, 0.1250000000000000000 ) ;
#160 = CIRCLE ( 'NONE', #5, 0.06243749999999999994 ) ;
#161 = DIRECTION ( 'NONE',  ( -1.224646799147353207E-16, -0.0000000000000000000, -1.000000000000000000 ) ) ;
#162 = ADVANCED_FACE ( 'NONE', ( #28 ), #191, .F. ) ;
#163 = SURFACE_SIDE_STYLE ('',( #22 ) ) ;
#164 = ORIENTED_EDGE ( 'NONE', *, *, #19, .F. ) ;
#165 = DIRECTION ( 'NONE',  ( -1.224646799147353207E-16, -0.0000000000000000000, -1.000000000000000000 ) ) ;
#166 = ORIENTED_EDGE ( 'NONE', *, *, #284, .F. ) ;
#167 = CIRCLE ( 'NONE', #88, 0.06243750000000001382 ) ;
#168 =( NAMED_UNIT ( * ) PLANE_ANGLE_UNIT ( ) SI_UNIT ( $, .RADIAN. ) );
#169 =( NAMED_UNIT ( * ) SI_UNIT ( $, .STERADIAN. ) SOLID_ANGLE_UNIT ( ) );
#170 = CARTESIAN_POINT ( 'NONE',  ( 0.0000000000000000000, 0.0000000000000000000, 0.0000000000000000000 ) ) ;
#171 = EDGE_CURVE ( 'NONE', #151, #180, #297, .T. ) ;
#172 = LINE ( 'NONE', #261, #298 ) ;
#173 = VECTOR ( 'NONE', #269, 39.37007874015748143 ) ;
#174 = CARTESIAN_POINT ( 'NONE',  ( -0.06243749999999997219, 7.646388452176287375E-18, 0.2500000000000000000 ) ) ;
#175 = EDGE_CURVE ( 'NONE', #53, #286, #225, .T. ) ;
#176 = CIRCLE ( 'NONE', #24, 0.06243750000000001382 ) ;
#177 = ORIENTED_EDGE ( 'NONE', *, *, #194, .F. ) ;
#178 = DIRECTION ( 'NONE',  ( -1.224646799147353207E-16, -0.0000000000000000000, -1.000000000000000000 ) ) ;
#179 = CARTESIAN_POINT ( 'NONE',  ( -0.06243750000000001382, 0.0000000000000000000, 7.646388452176288915E-18 ) ) ;
#180 = VERTEX_POINT ( 'NONE', #238 ) ;
#181 = CARTESIAN_POINT ( 'NONE',  ( 0.06243750000000001382, 7.646388452176288915E-18, -7.646388452176288915E-18 ) ) ;
#182 = AXIS2_PLACEMENT_3D ( 'NONE', #71, #278, #114 ) ;
#183 = PRODUCT_DEFINITION_FORMATION_WITH_SPECIFIED_SOURCE ( 'ANY', '', #152, .NOT_KNOWN. ) ;
#184 = DIRECTION ( 'NONE',  ( -1.224646799147353207E-16, -0.0000000000000000000, -1.000000000000000000 ) ) ;
#185 = FACE_OUTER_BOUND ( 'NONE', #296, .T. ) ;
#186 = ORIENTED_EDGE ( 'NONE', *, *, #175, .F. ) ;
#187 = ORIENTED_EDGE ( 'NONE', *, *, #224, .F. ) ;
#188 = CARTESIAN_POINT ( 'NONE',  ( 0.0000000000000000000, 0.0000000000000000000, 2.000000000000000000 ) ) ;
#189 = EDGE_LOOP ( 'NONE', ( #147, #291, #44, #258 ) ) ;
#190 = PRESENTATION_LAYER_ASSIGNMENT (  '', '', ( #34 ) ) ;
#191 = PLANE ( 'NONE',  #67 ) ;
#192 = UNCERTAINTY_MEASURE_WITH_UNIT (LENGTH_MEASURE( 1.000000000000000082E-05 ), #65, 'distance_accuracy_value', 'NONE');
#193 = DIRECTION ( 'NONE',  ( 0.0000000000000000000, 0.0000000000000000000, 1.000000000000000000 ) ) ;
#194 = EDGE_CURVE ( 'NONE', #25, #151, #267, .T. ) ;
#195 = FILL_AREA_STYLE_COLOUR ( '', #141 ) ;
#196 = CARTESIAN_POINT ( 'NONE',  ( 0.0000000000000000000, 0.0000000000000000000, 2.000000000000000000 ) ) ;
#197 = CARTESIAN_POINT ( 'NONE',  ( -0.06243750000000001382, 0.0000000000000000000, 1.529277690435257783E-17 ) ) ;
#198 = DIMENSIONAL_EXPONENTS ( 1.000000000000000000, 0.0000000000000000000, 0.0000000000000000000, 0.0000000000000000000, 0.0000000000000000000, 0.0000000000000000000, 0.0000000000000000000 ) ;
#199 = CARTESIAN_POINT ( 'NONE',  ( 7.406781025733896371E-17, 0.0000000000000000000, 0.6048095688398309466 ) ) ;
#200 = VECTOR ( 'NONE', #15, 39.37007874015748143 ) ;
#201 = LINE ( 'NONE', #179, #253 ) ;
#202 = EDGE_LOOP ( 'NONE', ( #213, #116, #164, #105 ) ) ;
#203 = DIRECTION ( 'NONE',  ( -0.0000000000000000000, -0.0000000000000000000, -1.000000000000000000 ) ) ;
#204 = LINE ( 'NONE', #181, #173 ) ;
#205 = CARTESIAN_POINT ( 'NONE',  ( 9.364125142994975765E-34, 0.0000000000000000000, 7.646388452176288915E-18 ) ) ;
#206 = DIRECTION ( 'NONE',  ( -1.000000000000000000, 0.0000000000000000000, 0.0000000000000000000 ) ) ;
#207 = ORIENTED_EDGE ( 'NONE', *, *, #217, .T. ) ;
#208 = MANIFOLD_SOLID_BREP ( 'Cut-Revolve1', #256 ) ;
#209 = FACE_OUTER_BOUND ( 'NONE', #189, .T. ) ;
#210 = CIRCLE ( 'NONE', #107, 0.06243749999999999994 ) ;
#211 = AXIS2_PLACEMENT_3D ( 'NONE', #188, #51, #214 ) ;
#212 = FACE_OUTER_BOUND ( 'NONE', #236, .T. ) ;
#213 = ORIENTED_EDGE ( 'NONE', *, *, #270, .T. ) ;
#214 = DIRECTION ( 'NONE',  ( 1.000000000000000000, 0.0000000000000000000, 0.0000000000000000000 ) ) ;
#215 = DIRECTION ( 'NONE',  ( 0.0000000000000000000, 0.0000000000000000000, 1.000000000000000000 ) ) ;
#216 = SURFACE_STYLE_USAGE ( .BOTH. , #163 ) ;
#217 = EDGE_CURVE ( 'NONE', #151, #25, #134, .T. ) ;
#218 = VECTOR ( 'NONE', #103, 39.37007874015748143 ) ;
#219 = DIMENSIONAL_EXPONENTS ( 1.000000000000000000, 0.0000000000000000000, 0.0000000000000000000, 0.0000000000000000000, 0.0000000000000000000, 0.0000000000000000000, 0.0000000000000000000 ) ;
#220 = AXIS2_PLACEMENT_3D ( 'NONE', #31, #193, #76 ) ;
#221 = LENGTH_MEASURE_WITH_UNIT ( LENGTH_MEASURE( 0.02539999999999999897 ), #122 );
#222 = PLANE ( 'NONE',  #74 ) ;
#223 =( GEOMETRIC_REPRESENTATION_CONTEXT ( 3 ) GLOBAL_UNCERTAINTY_ASSIGNED_CONTEXT ( ( #37 ) ) GLOBAL_UNIT_ASSIGNED_CONTEXT ( ( #52, #94, #84 ) ) REPRESENTATION_CONTEXT ( 'NONE', 'WORKASPACE' ) );
#224 = EDGE_CURVE ( 'NONE', #25, #12, #172, .T. ) ;
#225 = CIRCLE ( 'NONE', #233, 0.1250000000000000000 ) ;
#226 = DIRECTION ( 'NONE',  ( 1.224646799147353207E-16, 0.0000000000000000000, 1.000000000000000000 ) ) ;
#227 = EDGE_LOOP ( 'NONE', ( #166, #140, #16, #131 ) ) ;
#228 = EDGE_CURVE ( 'NONE', #113, #241, #176, .T. ) ;
#229 = ORIENTED_EDGE ( 'NONE', *, *, #30, .T. ) ;
#230 = ADVANCED_FACE ( 'NONE', ( #212 ), #294, .T. ) ;
#231 = DIRECTION ( 'NONE',  ( 1.000000000000000000, 0.0000000000000000000, 0.0000000000000000000 ) ) ;
#232 = DIRECTION ( 'NONE',  ( -1.224646799147353207E-16, -0.0000000000000000000, -1.000000000000000000 ) ) ;
#233 = AXIS2_PLACEMENT_3D ( 'NONE', #20, #184, #260 ) ;
#234 = MECHANICAL_DESIGN_GEOMETRIC_PRESENTATION_REPRESENTATION (  '', ( #242 ), #223 ) ;
#235 = DIRECTION ( 'NONE',  ( 0.0000000000000000000, 0.0000000000000000000, 1.000000000000000000 ) ) ;
#236 = EDGE_LOOP ( 'NONE', ( #229, #50, #104, #273 ) ) ;
#237 = DIMENSIONAL_EXPONENTS ( 1.000000000000000000, 0.0000000000000000000, 0.0000000000000000000, 0.0000000000000000000, 0.0000000000000000000, 0.0000000000000000000, 0.0000000000000000000 ) ;
#238 = CARTESIAN_POINT ( 'NONE',  ( 0.1250000000000000000, 1.530808498934191509E-17, 1.984999999999999432 ) ) ;
#239 = CONICAL_SURFACE ( 'NONE', #272, 0.1099999999999996397, 0.7853981633974426169 ) ;
#240 = DIRECTION ( 'NONE',  ( -0.0000000000000000000, -0.0000000000000000000, -1.000000000000000000 ) ) ;
#241 = VERTEX_POINT ( 'NONE', #197 ) ;
#242 = STYLED_ITEM ( 'NONE', ( #6 ), #101 ) ;
#243 = SURFACE_SIDE_STYLE ('',( #281 ) ) ;
#244 = DIRECTION ( 'NONE',  ( -0.1736481776669311916, 2.126576849575783316E-17, 0.9848077530122080203 ) ) ;
#245 = DIRECTION ( 'NONE',  ( -1.000000000000000000, 0.0000000000000000000, 1.224646799147353207E-16 ) ) ;
#246 = VERTEX_POINT ( 'NONE', #124 ) ;
#247 = CARTESIAN_POINT ( 'NONE',  ( 0.0000000000000000000, 0.0000000000000000000, 0.0000000000000000000 ) ) ;
#248 = AXIS2_PLACEMENT_3D ( 'NONE', #247, #215, #29 ) ;
#249 = FACE_OUTER_BOUND ( 'NONE', #128, .T. ) ;
#250 = ORIENTED_EDGE ( 'NONE', *, *, #228, .T. ) ;
#251 = FACE_OUTER_BOUND ( 'NONE', #227, .T. ) ;
#252 = CYLINDRICAL_SURFACE ( 'NONE', #126, 0.1250000000000000000 ) ;
#253 = VECTOR ( 'NONE', #132, 39.37007874015748143 ) ;
#254 = CYLINDRICAL_SURFACE ( 'NONE', #17, 0.06243750000000001382 ) ;
#255 = EDGE_LOOP ( 'NONE', ( #97, #98, #262, #187 ) ) ;
#256 = CLOSED_SHELL ( 'NONE', ( #11, #123, #148, #230, #54, #264, #1, #119, #69, #162 ) ) ;
#257 =( CONVERSION_BASED_UNIT ( 'INCH', #221 ) LENGTH_UNIT ( ) NAMED_UNIT ( #198 ) );
#258 = ORIENTED_EDGE ( 'NONE', *, *, #27, .F. ) ;
#259 = CARTESIAN_POINT ( 'NONE',  ( 0.1099999999999996397, 1.438959988998137757E-17, 2.000000000000000000 ) ) ;
#260 = DIRECTION ( 'NONE',  ( 1.000000000000000000, 0.0000000000000000000, 0.0000000000000000000 ) ) ;
#261 = CARTESIAN_POINT ( 'NONE',  ( -0.1099999999999996397, 0.0000000000000000000, 2.000000000000000000 ) ) ;
#262 = ORIENTED_EDGE ( 'NONE', *, *, #30, .F. ) ;
#263 = ORIENTED_EDGE ( 'NONE', *, *, #19, .T. ) ;
#264 = ADVANCED_FACE ( 'NONE', ( #60 ), #222, .T. ) ;
#265 = LINE ( 'NONE', #63, #200 ) ;
#266 = ORIENTED_EDGE ( 'NONE', *, *, #32, .F. ) ;
#267 = CIRCLE ( 'NONE', #211, 0.1099999999999996397 ) ;
#268 = VECTOR ( 'NONE', #244, 39.37007874015747433 ) ;
#269 = DIRECTION ( 'NONE',  ( -1.224646799147353207E-16, -0.0000000000000000000, -1.000000000000000000 ) ) ;
#270 = EDGE_CURVE ( 'NONE', #293, #246, #160, .T. ) ;
#271 = DIRECTION ( 'NONE',  ( -0.0000000000000000000, -0.0000000000000000000, -1.000000000000000000 ) ) ;
#272 = AXIS2_PLACEMENT_3D ( 'NONE', #48, #142, #26 ) ;
#273 = ORIENTED_EDGE ( 'NONE', *, *, #80, .F. ) ;
#274 = CARTESIAN_POINT ( 'NONE',  ( 0.0000000000000000000, 0.0000000000000000000, 1.984999999999999432 ) ) ;
#275 = EDGE_CURVE ( 'NONE', #286, #53, #155, .T. ) ;
#276 = MECHANICAL_DESIGN_GEOMETRIC_PRESENTATION_REPRESENTATION (  '', ( #34 ), #129 ) ;
#277 = CARTESIAN_POINT ( 'NONE',  ( 0.0000000000000000000, 0.0000000000000000000, 0.0000000000000000000 ) ) ;
#278 = DIRECTION ( 'NONE',  ( 1.224646799147353207E-16, 0.0000000000000000000, 1.000000000000000000 ) ) ;
#279 = PRODUCT_CONTEXT ( 'NONE', #81, 'mechanical' ) ;
#280 = VECTOR ( 'NONE', #203, 39.37007874015748143 ) ;
#281 = SURFACE_STYLE_FILL_AREA ( #57 ) ;
#282 = DIRECTION ( 'NONE',  ( -1.224646799147353207E-16, -0.0000000000000000000, -1.000000000000000000 ) ) ;
#283 = DIRECTION ( 'NONE',  ( 1.000000000000000000, 0.0000000000000000000, 0.0000000000000000000 ) ) ;
#284 = EDGE_CURVE ( 'NONE', #293, #286, #78, .T. ) ;
#285 = CONICAL_SURFACE ( 'NONE', #182, 0.06243749999999999994, 0.1745329251994338915 ) ;
#286 = VERTEX_POINT ( 'NONE', #36 ) ;
#287 = LINE ( 'NONE', #136, #280 ) ;
#288 = DIRECTION ( 'NONE',  ( 1.000000000000000000, 0.0000000000000000000, 0.0000000000000000000 ) ) ;
#289 = CONICAL_SURFACE ( 'NONE', #4, 0.1099999999999996397, 0.7853981633974426169 ) ;
#290 = DIRECTION ( 'NONE',  ( -1.000000000000000000, 0.0000000000000000000, 0.0000000000000000000 ) ) ;
#291 = ORIENTED_EDGE ( 'NONE', *, *, #284, .T. ) ;
#292 = DIRECTION ( 'NONE',  ( 1.000000000000000000, 0.0000000000000000000, -0.0000000000000000000 ) ) ;
#293 = VERTEX_POINT ( 'NONE', #7 ) ;
#294 = CYLINDRICAL_SURFACE ( 'NONE', #38, 0.1250000000000000000 ) ;
#295 = PRESENTATION_STYLE_ASSIGNMENT (( #216 ) ) ;
#296 = EDGE_LOOP ( 'NONE', ( #14, #177, #117, #23 ) ) ;
#297 = LINE ( 'NONE', #118, #100 ) ;
#298 = VECTOR ( 'NONE', #56, 39.37007874015748143 ) ;
#299 = DIRECTION ( 'NONE',  ( 1.000000000000000000, 0.0000000000000000000, 0.0000000000000000000 ) ) ;
ENDSEC;
END-ISO-10303-21;
