ISO-10303-21;
HEADER;
FILE_DESCRIPTION (( 'STEP AP214' ),
    '1' );
FILE_NAME ('Micro_BMR-012-2X.STEP',
    '2021-09-03T13:41:45',
    ( '' ),
    ( '' ),
    'SwSTEP 2.0',
    'SolidWorks 2020',
    '' );
FILE_SCHEMA (( 'AUTOMOTIVE_DESIGN' ));
ENDSEC;

DATA;
#1 = DIRECTION ( 'NONE',  ( -1.224646799147353454E-16, -0.0000000000000000000, -1.000000000000000000 ) ) ;
#2 = DIRECTION ( 'NONE',  ( 0.0000000000000000000, 1.000000000000000000, 0.0000000000000000000 ) ) ;
#3 = ORIENTED_EDGE ( 'NONE', *, *, #100, .T. ) ;
#4 = AXIS2_PLACEMENT_3D ( 'NONE', #157, #82, #231 ) ;
#5 = FILL_AREA_STYLE ('',( #309 ) ) ;
#6 = DIRECTION ( 'NONE',  ( 0.0000000000000000000, 0.0000000000000000000, -1.000000000000000000 ) ) ;
#7 = CARTESIAN_POINT ( 'NONE',  ( 7.340532914089237189E-19, 0.0000000000000000000, 0.005994000000000000196 ) ) ;
#8 = COLOUR_RGB ( '',0.7921568627450980005, 0.8196078431372548767, 0.9333333333333333481 ) ;
#9 = VERTEX_POINT ( 'NONE', #234 ) ;
#10 = CONICAL_SURFACE ( 'NONE', #198, 0.04750000000000064587, 0.7853981633974466137 ) ;
#11 = EDGE_LOOP ( 'NONE', ( #32, #106, #228, #308 ) ) ;
#12 = CARTESIAN_POINT ( 'NONE',  ( 4.408728476930471799E-18, 0.0000000000000000000, 0.03599999999999999728 ) ) ;
#13 = VERTEX_POINT ( 'NONE', #195 ) ;
#14 = AXIS2_PLACEMENT_3D ( 'NONE', #288, #191, #41 ) ;
#15 = DIRECTION ( 'NONE',  ( 0.0000000000000000000, 0.0000000000000000000, 1.000000000000000000 ) ) ;
#16 = DIMENSIONAL_EXPONENTS ( 1.000000000000000000, 0.0000000000000000000, 0.0000000000000000000, 0.0000000000000000000, 0.0000000000000000000, 0.0000000000000000000, 0.0000000000000000000 ) ;
#17 = CARTESIAN_POINT ( 'NONE',  ( 0.0000000000000000000, 0.0000000000000000000, 0.0000000000000000000 ) ) ;
#18 = EDGE_CURVE ( 'NONE', #319, #84, #272, .T. ) ;
#19 = CARTESIAN_POINT ( 'NONE',  ( 0.0000000000000000000, 0.0000000000000000000, 0.0000000000000000000 ) ) ;
#20 = PRODUCT_CONTEXT ( 'NONE', #196, 'mechanical' ) ;
#21 = CYLINDRICAL_SURFACE ( 'NONE', #306, 0.005994000000000001931 ) ;
#22 = VECTOR ( 'NONE', #264, 39.37007874015748143 ) ;
#23 = SURFACE_SIDE_STYLE ('',( #324 ) ) ;
#24 = CARTESIAN_POINT ( 'NONE',  ( 4.408728476930471799E-18, 0.0000000000000000000, 0.03599999999999999728 ) ) ;
#25 = DIRECTION ( 'NONE',  ( -1.224646799147353454E-16, -0.0000000000000000000, -1.000000000000000000 ) ) ;
#26 = AXIS2_PLACEMENT_3D ( 'NONE', #19, #262, #140 ) ;
#27 = PRODUCT_DEFINITION_SHAPE ( 'NONE', 'NONE',  #238 ) ;
#28 = CARTESIAN_POINT ( 'NONE',  ( -0.005993999999999994992, 7.340532914089234300E-19, 0.03599999999999999728 ) ) ;
#29 = ADVANCED_FACE ( 'NONE', ( #292 ), #219, .T. ) ;
#30 = CARTESIAN_POINT ( 'NONE',  ( -0.04750000000000064587, 0.0000000000000000000, 1.500000000000000222 ) ) ;
#31 = DIRECTION ( 'NONE',  ( -1.000000000000000000, 0.0000000000000000000, 0.0000000000000000000 ) ) ;
#32 = ORIENTED_EDGE ( 'NONE', *, *, #221, .F. ) ;
#33 = CIRCLE ( 'NONE', #14, 0.005994000000000000196 ) ;
#34 =( LENGTH_UNIT ( ) NAMED_UNIT ( * ) SI_UNIT ( $, .METRE. ) );
#35 = EDGE_CURVE ( 'NONE', #9, #290, #72, .T. ) ;
#36 = DIRECTION ( 'NONE',  ( -1.000000000000000000, 0.0000000000000000000, 0.0000000000000000000 ) ) ;
#37 = ORIENTED_EDGE ( 'NONE', *, *, #283, .F. ) ;
#38 = VERTEX_POINT ( 'NONE', #239 ) ;
#39 = VECTOR ( 'NONE', #102, 39.37007874015748143 ) ;
#40 = ORIENTED_EDGE ( 'NONE', *, *, #18, .F. ) ;
#41 = DIRECTION ( 'NONE',  ( -1.000000000000000000, 1.224646799147353207E-16, 0.0000000000000000000 ) ) ;
#42 = CARTESIAN_POINT ( 'NONE',  ( 7.340532914089237189E-19, 0.0000000000000000000, 0.005994000000000000196 ) ) ;
#43 = PRESENTATION_LAYER_ASSIGNMENT (  '', '', ( #99 ) ) ;
#44 = AXIS2_PLACEMENT_3D ( 'NONE', #117, #312, #91 ) ;
#45 = ORIENTED_EDGE ( 'NONE', *, *, #65, .T. ) ;
#46 = LINE ( 'NONE', #93, #104 ) ;
#47 = UNCERTAINTY_MEASURE_WITH_UNIT (LENGTH_MEASURE( 1.000000000000000082E-05 ), #79, 'distance_accuracy_value', 'NONE');
#48 =( LENGTH_UNIT ( ) NAMED_UNIT ( * ) SI_UNIT ( $, .METRE. ) );
#49 = COLOUR_RGB ( '',0.7921568627450980005, 0.8196078431372548767, 0.9333333333333333481 ) ;
#50 = DIRECTION ( 'NONE',  ( 1.000000000000000000, 0.0000000000000000000, 0.0000000000000000000 ) ) ;
#51 =( GEOMETRIC_REPRESENTATION_CONTEXT ( 3 ) GLOBAL_UNCERTAINTY_ASSIGNED_CONTEXT ( ( #282 ) ) GLOBAL_UNIT_ASSIGNED_CONTEXT ( ( #161, #70, #145 ) ) REPRESENTATION_CONTEXT ( 'NONE', 'WORKASPACE' ) );
#52 = ADVANCED_FACE ( 'NONE', ( #71 ), #167, .T. ) ;
#53 = DIRECTION ( 'NONE',  ( 0.7071067811865462405, 8.659560562354916834E-17, -0.7071067811865486830 ) ) ;
#54 = ADVANCED_FACE ( 'NONE', ( #215 ), #248, .T. ) ;
#55 = LENGTH_MEASURE_WITH_UNIT ( LENGTH_MEASURE( 0.02539999999999999897 ), #34 );
#56 = AXIS2_PLACEMENT_3D ( 'NONE', #130, #129, #76 ) ;
#57 =( NAMED_UNIT ( * ) SI_UNIT ( $, .STERADIAN. ) SOLID_ANGLE_UNIT ( ) );
#58 =( GEOMETRIC_REPRESENTATION_CONTEXT ( 3 ) GLOBAL_UNCERTAINTY_ASSIGNED_CONTEXT ( ( #95 ) ) GLOBAL_UNIT_ASSIGNED_CONTEXT ( ( #132, #154, #57 ) ) REPRESENTATION_CONTEXT ( 'NONE', 'WORKASPACE' ) );
#59 = DIRECTION ( 'NONE',  ( 0.0000000000000000000, 0.0000000000000000000, -1.000000000000000000 ) ) ;
#60 = ORIENTED_EDGE ( 'NONE', *, *, #85, .F. ) ;
#61 = EDGE_LOOP ( 'NONE', ( #89, #135 ) ) ;
#62 = VERTEX_POINT ( 'NONE', #116 ) ;
#63 = VECTOR ( 'NONE', #53, 39.37007874015748854 ) ;
#64 = EDGE_LOOP ( 'NONE', ( #208, #40, #210, #230 ) ) ;
#65 = EDGE_CURVE ( 'NONE', #62, #138, #33, .T. ) ;
#66 = ORIENTED_EDGE ( 'NONE', *, *, #100, .F. ) ;
#67 = LENGTH_MEASURE_WITH_UNIT ( LENGTH_MEASURE( 0.02539999999999999897 ), #256 );
#68 = ORIENTED_EDGE ( 'NONE', *, *, #189, .T. ) ;
#69 =( GEOMETRIC_REPRESENTATION_CONTEXT ( 3 ) GLOBAL_UNCERTAINTY_ASSIGNED_CONTEXT ( ( #47 ) ) GLOBAL_UNIT_ASSIGNED_CONTEXT ( ( #79, #199, #148 ) ) REPRESENTATION_CONTEXT ( 'NONE', 'WORKASPACE' ) );
#70 =( NAMED_UNIT ( * ) PLANE_ANGLE_UNIT ( ) SI_UNIT ( $, .RADIAN. ) );
#71 = FACE_OUTER_BOUND ( 'NONE', #260, .T. ) ;
#72 = LINE ( 'NONE', #170, #318 ) ;
#73 = CARTESIAN_POINT ( 'NONE',  ( -0.005994000000000000196, 0.0000000000000000000, 0.005994000000000001931 ) ) ;
#74 = CIRCLE ( 'NONE', #271, 0.005993999999999999329 ) ;
#75 = CIRCLE ( 'NONE', #87, 0.005994000000000001931 ) ;
#76 = DIRECTION ( 'NONE',  ( 1.000000000000000000, 0.0000000000000000000, 0.0000000000000000000 ) ) ;
#77 = DIRECTION ( 'NONE',  ( 1.000000000000000000, 0.0000000000000000000, 0.0000000000000000000 ) ) ;
#78 = LINE ( 'NONE', #176, #63 ) ;
#79 =( CONVERSION_BASED_UNIT ( 'INCH', #153 ) LENGTH_UNIT ( ) NAMED_UNIT ( #16 ) );
#80 = CARTESIAN_POINT ( 'NONE',  ( 0.06250000000000006939, 7.654042494670963708E-18, 0.3564614504993167121 ) ) ;
#81 = ORIENTED_EDGE ( 'NONE', *, *, #107, .T. ) ;
#82 = DIRECTION ( 'NONE',  ( 0.0000000000000000000, 0.0000000000000000000, 1.000000000000000000 ) ) ;
#83 = EDGE_CURVE ( 'NONE', #114, #305, #212, .T. ) ;
#84 = VERTEX_POINT ( 'NONE', #286 ) ;
#85 = EDGE_CURVE ( 'NONE', #38, #290, #261, .T. ) ;
#86 = ORIENTED_EDGE ( 'NONE', *, *, #283, .T. ) ;
#87 = AXIS2_PLACEMENT_3D ( 'NONE', #42, #143, #314 ) ;
#88 = CARTESIAN_POINT ( 'NONE',  ( 0.0000000000000000000, 0.0000000000000000000, 1.485000000000000764 ) ) ;
#89 = ORIENTED_EDGE ( 'NONE', *, *, #18, .T. ) ;
#90 = CARTESIAN_POINT ( 'NONE',  ( -0.06250000000000002776, 0.0000000000000000000, 1.500000000000000222 ) ) ;
#91 = DIRECTION ( 'NONE',  ( -1.000000000000000000, 0.0000000000000000000, 0.0000000000000000000 ) ) ;
#92 = ORIENTED_EDGE ( 'NONE', *, *, #119, .T. ) ;
#93 = CARTESIAN_POINT ( 'NONE',  ( -0.04750000000000064587, 0.0000000000000000000, 1.500000000000000222 ) ) ;
#94 = AXIS2_PLACEMENT_3D ( 'NONE', #265, #266, #233 ) ;
#95 = UNCERTAINTY_MEASURE_WITH_UNIT (LENGTH_MEASURE( 1.000000000000000082E-05 ), #132, 'distance_accuracy_value', 'NONE');
#96 = ORIENTED_EDGE ( 'NONE', *, *, #83, .F. ) ;
#97 = FACE_OUTER_BOUND ( 'NONE', #11, .T. ) ;
#98 = MECHANICAL_DESIGN_GEOMETRIC_PRESENTATION_REPRESENTATION (  '', ( #263 ), #69 ) ;
#99 = STYLED_ITEM ( 'NONE', ( #182 ), #105 ) ;
#100 = EDGE_CURVE ( 'NONE', #303, #138, #243, .T. ) ;
#101 = LINE ( 'NONE', #179, #39 ) ;
#102 = DIRECTION ( 'NONE',  ( -1.224646799147353454E-16, -0.0000000000000000000, -1.000000000000000000 ) ) ;
#103 = SURFACE_STYLE_FILL_AREA ( #5 ) ;
#104 = VECTOR ( 'NONE', #147, 39.37007874015748854 ) ;
#105 = ADVANCED_BREP_SHAPE_REPRESENTATION ( 'Micro_BMR-012-2X', ( #126, #172 ), #58 ) ;
#106 = ORIENTED_EDGE ( 'NONE', *, *, #206, .T. ) ;
#107 = EDGE_CURVE ( 'NONE', #138, #303, #75, .T. ) ;
#108 = SURFACE_SIDE_STYLE ('',( #103 ) ) ;
#109 = ADVANCED_FACE ( 'NONE', ( #144 ), #21, .T. ) ;
#110 = ORIENTED_EDGE ( 'NONE', *, *, #107, .F. ) ;
#111 = DIRECTION ( 'NONE',  ( 1.000000000000000000, 0.0000000000000000000, 0.0000000000000000000 ) ) ;
#112 = ORIENTED_EDGE ( 'NONE', *, *, #250, .F. ) ;
#113 = CARTESIAN_POINT ( 'NONE',  ( 0.0000000000000000000, 0.0000000000000000000, 1.500000000000000222 ) ) ;
#114 = VERTEX_POINT ( 'NONE', #218 ) ;
#115 = EDGE_CURVE ( 'NONE', #319, #114, #46, .T. ) ;
#116 = CARTESIAN_POINT ( 'NONE',  ( 1.101079937113385482E-18, 0.0000000000000000000, 0.0000000000000000000 ) ) ;
#117 = CARTESIAN_POINT ( 'NONE',  ( 0.0000000000000000000, 0.0000000000000000000, 1.500000000000000222 ) ) ;
#118 = AXIS2_PLACEMENT_3D ( 'NONE', #258, #59, #274 ) ;
#119 = EDGE_CURVE ( 'NONE', #13, #305, #298, .T. ) ;
#120 = DIRECTION ( 'NONE',  ( -1.224646799147353454E-16, -0.0000000000000000000, -1.000000000000000000 ) ) ;
#121 = DIRECTION ( 'NONE',  ( -0.0000000000000000000, -0.0000000000000000000, -1.000000000000000000 ) ) ;
#122 = APPLICATION_PROTOCOL_DEFINITION ( 'draft international standard', 'automotive_design', 1998, #141 ) ;
#123 = EDGE_LOOP ( 'NONE', ( #168, #253, #277, #194 ) ) ;
#124 = EDGE_CURVE ( 'NONE', #13, #138, #101, .T. ) ;
#125 = LINE ( 'NONE', #320, #268 ) ;
#126 = MANIFOLD_SOLID_BREP ( 'Fillet1', #149 ) ;
#127 = MECHANICAL_DESIGN_GEOMETRIC_PRESENTATION_REPRESENTATION (  '', ( #99 ), #51 ) ;
#128 = EDGE_CURVE ( 'NONE', #9, #303, #125, .T. ) ;
#129 = DIRECTION ( 'NONE',  ( 0.0000000000000000000, 1.000000000000000000, 0.0000000000000000000 ) ) ;
#130 = CARTESIAN_POINT ( 'NONE',  ( 7.340532914089237189E-19, 0.0000000000000000000, 0.005994000000000000196 ) ) ;
#131 = PRODUCT_RELATED_PRODUCT_CATEGORY ( 'part', '', ( #325 ) ) ;
#132 =( CONVERSION_BASED_UNIT ( 'INCH', #55 ) LENGTH_UNIT ( ) NAMED_UNIT ( #321 ) );
#133 = AXIS2_PLACEMENT_3D ( 'NONE', #12, #313, #217 ) ;
#134 = FACE_OUTER_BOUND ( 'NONE', #158, .T. ) ;
#135 = ORIENTED_EDGE ( 'NONE', *, *, #221, .T. ) ;
#136 = ADVANCED_FACE ( 'NONE', ( #97 ), #10, .T. ) ;
#137 = CYLINDRICAL_SURFACE ( 'NONE', #254, 0.06250000000000002776 ) ;
#138 = VERTEX_POINT ( 'NONE', #73 ) ;
#139 = ORIENTED_EDGE ( 'NONE', *, *, #128, .F. ) ;
#140 = DIRECTION ( 'NONE',  ( -1.000000000000000000, 0.0000000000000000000, 1.224646799147353207E-16 ) ) ;
#141 = APPLICATION_CONTEXT ( 'automotive_design' ) ;
#142 = CARTESIAN_POINT ( 'NONE',  ( 0.06250000000000002776, 7.654042494670959086E-18, 1.500000000000000222 ) ) ;
#143 = DIRECTION ( 'NONE',  ( 1.224646799147353454E-16, 0.0000000000000000000, 1.000000000000000000 ) ) ;
#144 = FACE_OUTER_BOUND ( 'NONE', #160, .T. ) ;
#145 =( NAMED_UNIT ( * ) SI_UNIT ( $, .STERADIAN. ) SOLID_ANGLE_UNIT ( ) );
#146 = ADVANCED_FACE ( 'NONE', ( #294 ), #152, .T. ) ;
#147 = DIRECTION ( 'NONE',  ( -0.7071067811865462405, 0.0000000000000000000, -0.7071067811865486830 ) ) ;
#148 =( NAMED_UNIT ( * ) SI_UNIT ( $, .STERADIAN. ) SOLID_ANGLE_UNIT ( ) );
#149 = CLOSED_SHELL ( 'NONE', ( #169, #52, #151, #136, #29, #296, #281, #216, #54, #109, #146 ) ) ;
#150 = DIRECTION ( 'NONE',  ( 1.000000000000000000, 0.0000000000000000000, 0.0000000000000000000 ) ) ;
#151 = ADVANCED_FACE ( 'NONE', ( #244 ), #276, .T. ) ;
#152 = SPHERICAL_SURFACE ( 'NONE', #56, 0.005994000000000000196 ) ;
#153 = LENGTH_MEASURE_WITH_UNIT ( LENGTH_MEASURE( 0.02539999999999999897 ), #48 );
#154 =( NAMED_UNIT ( * ) PLANE_ANGLE_UNIT ( ) SI_UNIT ( $, .RADIAN. ) );
#155 = DIRECTION ( 'NONE',  ( 0.0000000000000000000, -1.000000000000000000, 0.0000000000000000000 ) ) ;
#156 = ORIENTED_EDGE ( 'NONE', *, *, #35, .F. ) ;
#157 = CARTESIAN_POINT ( 'NONE',  ( 0.0000000000000000000, 0.0000000000000000000, 1.500000000000000222 ) ) ;
#158 = EDGE_LOOP ( 'NONE', ( #60, #280, #164, #181 ) ) ;
#159 = DIRECTION ( 'NONE',  ( 1.000000000000000000, 0.0000000000000000000, -0.0000000000000000000 ) ) ;
#160 = EDGE_LOOP ( 'NONE', ( #139, #227, #205, #81 ) ) ;
#161 =( CONVERSION_BASED_UNIT ( 'INCH', #67 ) LENGTH_UNIT ( ) NAMED_UNIT ( #291 ) );
#162 = AXIS2_PLACEMENT_3D ( 'NONE', #297, #2, #50 ) ;
#163 = SHAPE_DEFINITION_REPRESENTATION ( #27, #105 ) ;
#164 = ORIENTED_EDGE ( 'NONE', *, *, #83, .T. ) ;
#165 = EDGE_CURVE ( 'NONE', #9, #13, #235, .T. ) ;
#166 = ORIENTED_EDGE ( 'NONE', *, *, #189, .F. ) ;
#167 = CYLINDRICAL_SURFACE ( 'NONE', #26, 0.005994000000000001931 ) ;
#168 = ORIENTED_EDGE ( 'NONE', *, *, #119, .F. ) ;
#169 = ADVANCED_FACE ( 'NONE', ( #200 ), #269, .T. ) ;
#170 = CARTESIAN_POINT ( 'NONE',  ( 0.005994000000000003665, 0.0000000000000000000, 0.03599999999999999728 ) ) ;
#171 = DIRECTION ( 'NONE',  ( -1.000000000000000000, 0.0000000000000000000, 0.0000000000000000000 ) ) ;
#172 = AXIS2_PLACEMENT_3D ( 'NONE', #211, #15, #311 ) ;
#173 = CIRCLE ( 'NONE', #285, 0.06250000000000002776 ) ;
#174 = DIRECTION ( 'NONE',  ( 1.224646799147353454E-16, 0.0000000000000000000, 1.000000000000000000 ) ) ;
#175 = DIRECTION ( 'NONE',  ( -0.1736481776669311639, 2.126576849575783008E-17, 0.9848077530122080203 ) ) ;
#176 = CARTESIAN_POINT ( 'NONE',  ( 0.04750000000000064587, 5.817072295950006528E-18, 1.500000000000000222 ) ) ;
#177 = VECTOR ( 'NONE', #175, 39.37007874015747433 ) ;
#178 = EDGE_CURVE ( 'NONE', #290, #305, #173, .T. ) ;
#179 = CARTESIAN_POINT ( 'NONE',  ( -0.005994000000000001931, 0.0000000000000000000, 7.340532914089238152E-19 ) ) ;
#180 = CARTESIAN_POINT ( 'NONE',  ( -0.06249999999999997918, 0.0000000000000000000, 0.3564614504993167121 ) ) ;
#181 = ORIENTED_EDGE ( 'NONE', *, *, #178, .F. ) ;
#182 = PRESENTATION_STYLE_ASSIGNMENT (( #302 ) ) ;
#183 = EDGE_LOOP ( 'NONE', ( #193, #259, #110 ) ) ;
#184 = AXIS2_PLACEMENT_3D ( 'NONE', #113, #251, #159 ) ;
#185 = EDGE_LOOP ( 'NONE', ( #37, #92, #68, #156 ) ) ;
#186 = DIRECTION ( 'NONE',  ( -0.0000000000000000000, -0.0000000000000000000, -1.000000000000000000 ) ) ;
#187 = ORIENTED_EDGE ( 'NONE', *, *, #85, .T. ) ;
#188 = PRODUCT_DEFINITION_CONTEXT ( 'detailed design', #141, 'design' ) ;
#189 = EDGE_CURVE ( 'NONE', #305, #290, #214, .T. ) ;
#190 = VECTOR ( 'NONE', #121, 39.37007874015748143 ) ;
#191 = DIRECTION ( 'NONE',  ( 1.224646799147353207E-16, 1.000000000000000000, -0.0000000000000000000 ) ) ;
#192 = CARTESIAN_POINT ( 'NONE',  ( 7.340532914089237189E-19, 0.0000000000000000000, 0.005994000000000000196 ) ) ;
#193 = ORIENTED_EDGE ( 'NONE', *, *, #65, .F. ) ;
#194 = ORIENTED_EDGE ( 'NONE', *, *, #178, .T. ) ;
#195 = CARTESIAN_POINT ( 'NONE',  ( -0.005993999999999994992, 4.194047893039942847E-18, 0.03599999999999999728 ) ) ;
#196 = APPLICATION_CONTEXT ( 'automotive_design' ) ;
#197 = CARTESIAN_POINT ( 'NONE',  ( 0.0000000000000000000, 0.0000000000000000000, 1.500000000000000222 ) ) ;
#198 = AXIS2_PLACEMENT_3D ( 'NONE', #197, #293, #171 ) ;
#199 =( NAMED_UNIT ( * ) PLANE_ANGLE_UNIT ( ) SI_UNIT ( $, .RADIAN. ) );
#200 = FACE_OUTER_BOUND ( 'NONE', #301, .T. ) ;
#201 = AXIS2_PLACEMENT_3D ( 'NONE', #245, #25, #222 ) ;
#202 = CARTESIAN_POINT ( 'NONE',  ( 0.0000000000000000000, 0.0000000000000000000, 1.485000000000000764 ) ) ;
#203 = CARTESIAN_POINT ( 'NONE',  ( 0.005994000000000002798, 7.340532914089237189E-19, 0.005993999999999999329 ) ) ;
#204 = FACE_OUTER_BOUND ( 'NONE', #64, .T. ) ;
#205 = ORIENTED_EDGE ( 'NONE', *, *, #124, .T. ) ;
#206 = EDGE_CURVE ( 'NONE', #84, #38, #78, .T. ) ;
#207 = FACE_OUTER_BOUND ( 'NONE', #61, .T. ) ;
#208 = ORIENTED_EDGE ( 'NONE', *, *, #206, .F. ) ;
#209 = APPLICATION_PROTOCOL_DEFINITION ( 'draft international standard', 'automotive_design', 1998, #196 ) ;
#210 = ORIENTED_EDGE ( 'NONE', *, *, #115, .T. ) ;
#211 = CARTESIAN_POINT ( 'NONE',  ( 0.0000000000000000000, 0.0000000000000000000, 0.0000000000000000000 ) ) ;
#212 = LINE ( 'NONE', #90, #190 ) ;
#213 = AXIS2_PLACEMENT_3D ( 'NONE', #202, #300, #111 ) ;
#214 = CIRCLE ( 'NONE', #201, 0.06250000000000002776 ) ;
#215 = FACE_OUTER_BOUND ( 'NONE', #123, .T. ) ;
#216 = ADVANCED_FACE ( 'NONE', ( #204 ), #255, .T. ) ;
#217 = DIRECTION ( 'NONE',  ( 1.000000000000000000, 0.0000000000000000000, 0.0000000000000000000 ) ) ;
#218 = CARTESIAN_POINT ( 'NONE',  ( -0.06250000000000002776, 0.0000000000000000000, 1.485000000000000764 ) ) ;
#219 = CYLINDRICAL_SURFACE ( 'NONE', #44, 0.06250000000000002776 ) ;
#220 = FILL_AREA_STYLE ('',( #242 ) ) ;
#221 = EDGE_CURVE ( 'NONE', #84, #319, #295, .T. ) ;
#222 = DIRECTION ( 'NONE',  ( 1.000000000000000000, 0.0000000000000000000, 0.0000000000000000000 ) ) ;
#223 = AXIS2_PLACEMENT_3D ( 'NONE', #192, #237, #287 ) ;
#224 = CARTESIAN_POINT ( 'NONE',  ( 4.408728476930471799E-18, 0.0000000000000000000, 0.03599999999999999728 ) ) ;
#225 = DIRECTION ( 'NONE',  ( -1.224646799147353454E-16, -0.0000000000000000000, -1.000000000000000000 ) ) ;
#226 = ORIENTED_EDGE ( 'NONE', *, *, #124, .F. ) ;
#227 = ORIENTED_EDGE ( 'NONE', *, *, #165, .T. ) ;
#228 = ORIENTED_EDGE ( 'NONE', *, *, #246, .F. ) ;
#229 = CARTESIAN_POINT ( 'NONE',  ( 0.0000000000000000000, 0.0000000000000000000, 1.500000000000000222 ) ) ;
#230 = ORIENTED_EDGE ( 'NONE', *, *, #316, .F. ) ;
#231 = DIRECTION ( 'NONE',  ( 1.000000000000000000, 0.0000000000000000000, 0.0000000000000000000 ) ) ;
#232 = ORIENTED_EDGE ( 'NONE', *, *, #246, .T. ) ;
#233 = DIRECTION ( 'NONE',  ( 1.000000000000000000, 0.0000000000000000000, 0.0000000000000000000 ) ) ;
#234 = CARTESIAN_POINT ( 'NONE',  ( 0.005994000000000003665, 0.0000000000000000000, 0.03599999999999999728 ) ) ;
#235 = CIRCLE ( 'NONE', #273, 0.005993999999999999329 ) ;
#236 = PRESENTATION_LAYER_ASSIGNMENT (  '', '', ( #263 ) ) ;
#237 = DIRECTION ( 'NONE',  ( 1.224646799147353454E-16, 0.0000000000000000000, 1.000000000000000000 ) ) ;
#238 = PRODUCT_DEFINITION ( 'UNKNOWN', '', #278, #188 ) ;
#239 = CARTESIAN_POINT ( 'NONE',  ( 0.06250000000000002776, 7.654042494670959086E-18, 1.485000000000000764 ) ) ;
#240 = DIRECTION ( 'NONE',  ( -1.000000000000000000, 0.0000000000000000000, 1.224646799147353207E-16 ) ) ;
#241 = AXIS2_PLACEMENT_3D ( 'NONE', #88, #275, #304 ) ;
#242 = FILL_AREA_STYLE_COLOUR ( '', #49 ) ;
#243 = CIRCLE ( 'NONE', #223, 0.005994000000000001931 ) ;
#244 = FACE_OUTER_BOUND ( 'NONE', #185, .T. ) ;
#245 = CARTESIAN_POINT ( 'NONE',  ( 4.365393743734110901E-17, 0.0000000000000000000, 0.3564614504993167121 ) ) ;
#246 = EDGE_CURVE ( 'NONE', #114, #38, #284, .T. ) ;
#247 = DIRECTION ( 'NONE',  ( -1.224646799147353454E-16, -0.0000000000000000000, -1.000000000000000000 ) ) ;
#248 = CONICAL_SURFACE ( 'NONE', #133, 0.005993999999999999329, 0.1745329251994338637 ) ;
#249 = SURFACE_STYLE_USAGE ( .BOTH. , #23 ) ;
#250 = EDGE_CURVE ( 'NONE', #62, #303, #323, .T. ) ;
#251 = DIRECTION ( 'NONE',  ( 0.0000000000000000000, 0.0000000000000000000, 1.000000000000000000 ) ) ;
#252 = DIRECTION ( 'NONE',  ( -1.224646799147353454E-16, -0.0000000000000000000, -1.000000000000000000 ) ) ;
#253 = ORIENTED_EDGE ( 'NONE', *, *, #165, .F. ) ;
#254 = AXIS2_PLACEMENT_3D ( 'NONE', #229, #186, #31 ) ;
#255 = CONICAL_SURFACE ( 'NONE', #118, 0.04750000000000064587, 0.7853981633974466137 ) ;
#256 =( LENGTH_UNIT ( ) NAMED_UNIT ( * ) SI_UNIT ( $, .METRE. ) );
#257 = EDGE_LOOP ( 'NONE', ( #232, #187, #166, #96 ) ) ;
#258 = CARTESIAN_POINT ( 'NONE',  ( 0.0000000000000000000, 0.0000000000000000000, 1.500000000000000222 ) ) ;
#259 = ORIENTED_EDGE ( 'NONE', *, *, #250, .T. ) ;
#260 = EDGE_LOOP ( 'NONE', ( #86, #310, #3, #226 ) ) ;
#261 = LINE ( 'NONE', #142, #22 ) ;
#262 = DIRECTION ( 'NONE',  ( -1.224646799147353454E-16, -0.0000000000000000000, -1.000000000000000000 ) ) ;
#263 = STYLED_ITEM ( 'NONE', ( #267 ), #126 ) ;
#264 = DIRECTION ( 'NONE',  ( -0.0000000000000000000, -0.0000000000000000000, -1.000000000000000000 ) ) ;
#265 = CARTESIAN_POINT ( 'NONE',  ( 0.0000000000000000000, 0.0000000000000000000, 1.500000000000000222 ) ) ;
#266 = DIRECTION ( 'NONE',  ( 0.0000000000000000000, 0.0000000000000000000, 1.000000000000000000 ) ) ;
#267 = PRESENTATION_STYLE_ASSIGNMENT (( #249 ) ) ;
#268 = VECTOR ( 'NONE', #247, 39.37007874015748143 ) ;
#269 = SPHERICAL_SURFACE ( 'NONE', #162, 0.005994000000000000196 ) ;
#270 = DIRECTION ( 'NONE',  ( -1.000000000000000000, 0.0000000000000000000, 0.0000000000000000000 ) ) ;
#271 = AXIS2_PLACEMENT_3D ( 'NONE', #307, #252, #36 ) ;
#272 = CIRCLE ( 'NONE', #94, 0.04750000000000064587 ) ;
#273 = AXIS2_PLACEMENT_3D ( 'NONE', #224, #1, #270 ) ;
#274 = DIRECTION ( 'NONE',  ( -1.000000000000000000, 0.0000000000000000000, 0.0000000000000000000 ) ) ;
#275 = DIRECTION ( 'NONE',  ( 0.0000000000000000000, 0.0000000000000000000, -1.000000000000000000 ) ) ;
#276 = CONICAL_SURFACE ( 'NONE', #299, 0.005993999999999999329, 0.1745329251994338637 ) ;
#277 = ORIENTED_EDGE ( 'NONE', *, *, #35, .T. ) ;
#278 = PRODUCT_DEFINITION_FORMATION_WITH_SPECIFIED_SOURCE ( 'ANY', '', #325, .NOT_KNOWN. ) ;
#279 = PLANE ( 'NONE',  #184 ) ;
#280 = ORIENTED_EDGE ( 'NONE', *, *, #316, .T. ) ;
#281 = ADVANCED_FACE ( 'NONE', ( #207 ), #279, .T. ) ;
#282 = UNCERTAINTY_MEASURE_WITH_UNIT (LENGTH_MEASURE( 1.000000000000000082E-05 ), #161, 'distance_accuracy_value', 'NONE');
#283 = EDGE_CURVE ( 'NONE', #13, #9, #74, .T. ) ;
#284 = CIRCLE ( 'NONE', #213, 0.06250000000000002776 ) ;
#285 = AXIS2_PLACEMENT_3D ( 'NONE', #322, #225, #150 ) ;
#286 = CARTESIAN_POINT ( 'NONE',  ( 0.04750000000000064587, 6.735557395310483192E-18, 1.500000000000000222 ) ) ;
#287 = DIRECTION ( 'NONE',  ( -1.000000000000000000, 0.0000000000000000000, 1.780327198073244060E-16 ) ) ;
#288 = CARTESIAN_POINT ( 'NONE',  ( 7.340532914089237189E-19, 0.0000000000000000000, 0.005994000000000000196 ) ) ;
#289 = CIRCLE ( 'NONE', #241, 0.06250000000000002776 ) ;
#290 = VERTEX_POINT ( 'NONE', #80 ) ;
#291 = DIMENSIONAL_EXPONENTS ( 1.000000000000000000, 0.0000000000000000000, 0.0000000000000000000, 0.0000000000000000000, 0.0000000000000000000, 0.0000000000000000000, 0.0000000000000000000 ) ;
#292 = FACE_OUTER_BOUND ( 'NONE', #257, .T. ) ;
#293 = DIRECTION ( 'NONE',  ( 0.0000000000000000000, 0.0000000000000000000, -1.000000000000000000 ) ) ;
#294 = FACE_OUTER_BOUND ( 'NONE', #183, .T. ) ;
#295 = CIRCLE ( 'NONE', #4, 0.04750000000000064587 ) ;
#296 = ADVANCED_FACE ( 'NONE', ( #134 ), #137, .T. ) ;
#297 = CARTESIAN_POINT ( 'NONE',  ( 7.340532914089237189E-19, 0.0000000000000000000, 0.005994000000000000196 ) ) ;
#298 = LINE ( 'NONE', #28, #177 ) ;
#299 = AXIS2_PLACEMENT_3D ( 'NONE', #24, #174, #77 ) ;
#300 = DIRECTION ( 'NONE',  ( 0.0000000000000000000, 0.0000000000000000000, -1.000000000000000000 ) ) ;
#301 = EDGE_LOOP ( 'NONE', ( #112, #45, #66 ) ) ;
#302 = SURFACE_STYLE_USAGE ( .BOTH. , #108 ) ;
#303 = VERTEX_POINT ( 'NONE', #203 ) ;
#304 = DIRECTION ( 'NONE',  ( 1.000000000000000000, 0.0000000000000000000, 0.0000000000000000000 ) ) ;
#305 = VERTEX_POINT ( 'NONE', #180 ) ;
#306 = AXIS2_PLACEMENT_3D ( 'NONE', #17, #120, #240 ) ;
#307 = CARTESIAN_POINT ( 'NONE',  ( 4.408728476930471799E-18, 0.0000000000000000000, 0.03599999999999999728 ) ) ;
#308 = ORIENTED_EDGE ( 'NONE', *, *, #115, .F. ) ;
#309 = FILL_AREA_STYLE_COLOUR ( '', #8 ) ;
#310 = ORIENTED_EDGE ( 'NONE', *, *, #128, .T. ) ;
#311 = DIRECTION ( 'NONE',  ( 1.000000000000000000, 0.0000000000000000000, 0.0000000000000000000 ) ) ;
#312 = DIRECTION ( 'NONE',  ( -0.0000000000000000000, -0.0000000000000000000, -1.000000000000000000 ) ) ;
#313 = DIRECTION ( 'NONE',  ( 1.224646799147353454E-16, 0.0000000000000000000, 1.000000000000000000 ) ) ;
#314 = DIRECTION ( 'NONE',  ( -1.000000000000000000, 0.0000000000000000000, 1.780327198073244060E-16 ) ) ;
#315 = DIRECTION ( 'NONE',  ( 0.1736481776669313581, 0.0000000000000000000, 0.9848077530122077983 ) ) ;
#316 = EDGE_CURVE ( 'NONE', #38, #114, #289, .T. ) ;
#317 = AXIS2_PLACEMENT_3D ( 'NONE', #7, #155, #6 ) ;
#318 = VECTOR ( 'NONE', #315, 39.37007874015748143 ) ;
#319 = VERTEX_POINT ( 'NONE', #30 ) ;
#320 = CARTESIAN_POINT ( 'NONE',  ( 0.005994000000000001931, 7.340532914089237189E-19, -7.340532914089238152E-19 ) ) ;
#321 = DIMENSIONAL_EXPONENTS ( 1.000000000000000000, 0.0000000000000000000, 0.0000000000000000000, 0.0000000000000000000, 0.0000000000000000000, 0.0000000000000000000, 0.0000000000000000000 ) ;
#322 = CARTESIAN_POINT ( 'NONE',  ( 4.365393743734110901E-17, 0.0000000000000000000, 0.3564614504993167121 ) ) ;
#323 = CIRCLE ( 'NONE', #317, 0.005994000000000000196 ) ;
#324 = SURFACE_STYLE_FILL_AREA ( #220 ) ;
#325 = PRODUCT ( 'Micro_BMR-012-2X', 'Micro_BMR-012-2X', '', ( #20 ) ) ;
ENDSEC;
END-ISO-10303-21;
