ISO-10303-21;
HEADER;
FILE_DESCRIPTION (( 'STEP AP214' ),
    '1' );
FILE_NAME ('Micro_AELM-140-2X.STEP',
    '2021-09-01T17:07:51',
    ( '' ),
    ( '' ),
    'SwSTEP 2.0',
    'SolidWorks 2020',
    '' );
FILE_SCHEMA (( 'AUTOMOTIVE_DESIGN' ));
ENDSEC;

DATA;
#1 = CLOSED_SHELL ( 'NONE', ( #125, #41, #166, #249, #29, #128, #142, #70, #229, #109 ) ) ;
#2 = FACE_OUTER_BOUND ( 'NONE', #46, .T. ) ;
#3 = EDGE_CURVE ( 'NONE', #183, #220, #141, .T. ) ;
#4 = DIRECTION ( 'NONE',  ( 0.0000000000000000000, 0.0000000000000000000, -1.000000000000000000 ) ) ;
#5 = VECTOR ( 'NONE', #246, 39.37007874015748143 ) ;
#6 = CIRCLE ( 'NONE', #133, 0.2605905000000012794 ) ;
#7 = CARTESIAN_POINT ( 'NONE',  ( 0.2755905000000000715, 3.375010237004187113E-17, 5.496811000000001002 ) ) ;
#8 = DIRECTION ( 'NONE',  ( -1.224646799147353207E-16, -0.0000000000000000000, -1.000000000000000000 ) ) ;
#9 = VECTOR ( 'NONE', #160, 39.37007874015748854 ) ;
#10 = FACE_OUTER_BOUND ( 'NONE', #79, .T. ) ;
#11 = FILL_AREA_STYLE ('',( #89 ) ) ;
#12 = DIRECTION ( 'NONE',  ( -1.224646799147353207E-16, -0.0000000000000000000, -1.000000000000000000 ) ) ;
#13 = EDGE_CURVE ( 'NONE', #293, #97, #179, .T. ) ;
#14 = CIRCLE ( 'NONE', #275, 0.2753149094999999824 ) ;
#15 = CONICAL_SURFACE ( 'NONE', #37, 0.2753149094999999824, 0.1745329251994337805 ) ;
#16 = PRESENTATION_LAYER_ASSIGNMENT (  '', '', ( #120 ) ) ;
#17 = ORIENTED_EDGE ( 'NONE', *, *, #146, .F. ) ;
#18 =( NAMED_UNIT ( * ) SI_UNIT ( $, .STERADIAN. ) SOLID_ANGLE_UNIT ( ) );
#19 = EDGE_CURVE ( 'NONE', #181, #207, #77, .T. ) ;
#20 = PRESENTATION_LAYER_ASSIGNMENT (  '', '', ( #177 ) ) ;
#21 = ORIENTED_EDGE ( 'NONE', *, *, #65, .F. ) ;
#22 = CYLINDRICAL_SURFACE ( 'NONE', #76, 0.2755905000000000715 ) ;
#23 = ORIENTED_EDGE ( 'NONE', *, *, #49, .F. ) ;
#24 = FACE_OUTER_BOUND ( 'NONE', #137, .T. ) ;
#25 = EDGE_LOOP ( 'NONE', ( #257, #113, #298, #21 ) ) ;
#26 = CARTESIAN_POINT ( 'NONE',  ( -0.2755905000000000715, 0.0000000000000000000, 5.496811000000001002 ) ) ;
#27 = DIRECTION ( 'NONE',  ( -1.224646799147353207E-16, -0.0000000000000000000, -1.000000000000000000 ) ) ;
#28 = CYLINDRICAL_SURFACE ( 'NONE', #73, 0.2753149094999999824 ) ;
#29 = ADVANCED_FACE ( 'NONE', ( #235 ), #22, .T. ) ;
#30 = ORIENTED_EDGE ( 'NONE', *, *, #95, .T. ) ;
#31 = PLANE ( 'NONE',  #200 ) ;
#32 = MANIFOLD_SOLID_BREP ( 'Cut-Revolve1', #1 ) ;
#33 =( NAMED_UNIT ( * ) PLANE_ANGLE_UNIT ( ) SI_UNIT ( $, .RADIAN. ) );
#34 = AXIS2_PLACEMENT_3D ( 'NONE', #178, #12, #64 ) ;
#35 = DIRECTION ( 'NONE',  ( -1.224646799147353207E-16, -0.0000000000000000000, -1.000000000000000000 ) ) ;
#36 = DIMENSIONAL_EXPONENTS ( 1.000000000000000000, 0.0000000000000000000, 0.0000000000000000000, 0.0000000000000000000, 0.0000000000000000000, 0.0000000000000000000, 0.0000000000000000000 ) ;
#37 = AXIS2_PLACEMENT_3D ( 'NONE', #100, #190, #222 ) ;
#38 = FACE_OUTER_BOUND ( 'NONE', #227, .T. ) ;
#39 = AXIS2_PLACEMENT_3D ( 'NONE', #98, #213, #271 ) ;
#40 = APPLICATION_PROTOCOL_DEFINITION ( 'draft international standard', 'automotive_design', 1998, #168 ) ;
#41 = ADVANCED_FACE ( 'NONE', ( #38 ), #135, .T. ) ;
#42 = DIRECTION ( 'NONE',  ( -1.224646799147353207E-16, -0.0000000000000000000, -1.000000000000000000 ) ) ;
#43 = LENGTH_MEASURE_WITH_UNIT ( LENGTH_MEASURE( 0.02539999999999999897 ), #74 );
#44 = ORIENTED_EDGE ( 'NONE', *, *, #146, .T. ) ;
#45 = DIRECTION ( 'NONE',  ( -1.000000000000000000, 0.0000000000000000000, 1.224646799147353207E-16 ) ) ;
#46 = EDGE_LOOP ( 'NONE', ( #116, #184 ) ) ;
#47 = DIRECTION ( 'NONE',  ( -1.224646799147353207E-16, -0.0000000000000000000, -1.000000000000000000 ) ) ;
#48 = COLOUR_RGB ( '',0.7921568627450980005, 0.8196078431372548767, 0.9333333333333333481 ) ;
#49 = EDGE_CURVE ( 'NONE', #238, #226, #14, .T. ) ;
#50 = FACE_OUTER_BOUND ( 'NONE', #210, .T. ) ;
#51 = CARTESIAN_POINT ( 'NONE',  ( 0.2605905000000012794, 3.283161727068142605E-17, 5.511810999999999794 ) ) ;
#52 = ORIENTED_EDGE ( 'NONE', *, *, #13, .T. ) ;
#53 = CARTESIAN_POINT ( 'NONE',  ( -0.2755904999999997940, 0.0000000000000000000, 2.363767951392309552 ) ) ;
#54 = EDGE_CURVE ( 'NONE', #183, #293, #214, .T. ) ;
#55 =( GEOMETRIC_REPRESENTATION_CONTEXT ( 3 ) GLOBAL_UNCERTAINTY_ASSIGNED_CONTEXT ( ( #195 ) ) GLOBAL_UNIT_ASSIGNED_CONTEXT ( ( #286, #198, #285 ) ) REPRESENTATION_CONTEXT ( 'NONE', 'WORKASPACE' ) );
#56 = DIRECTION ( 'NONE',  ( -1.000000000000000000, 0.0000000000000000000, 0.0000000000000000000 ) ) ;
#57 = CARTESIAN_POINT ( 'NONE',  ( 2.892866792179873140E-16, 0.0000000000000000000, 2.362204999999999888 ) ) ;
#58 = PRODUCT_DEFINITION_CONTEXT ( 'detailed design', #168, 'design' ) ;
#59 = EDGE_CURVE ( 'NONE', #181, #220, #172, .T. ) ;
#60 = DIRECTION ( 'NONE',  ( -1.000000000000000000, 0.0000000000000000000, 0.0000000000000000000 ) ) ;
#61 = CONICAL_SURFACE ( 'NONE', #103, 0.2605905000000012794, 0.7853981633974540522 ) ;
#62 = FACE_OUTER_BOUND ( 'NONE', #209, .T. ) ;
#63 = DIMENSIONAL_EXPONENTS ( 1.000000000000000000, 0.0000000000000000000, 0.0000000000000000000, 0.0000000000000000000, 0.0000000000000000000, 0.0000000000000000000, 0.0000000000000000000 ) ;
#64 = DIRECTION ( 'NONE',  ( -1.000000000000000000, 0.0000000000000000000, 1.224646799147353207E-16 ) ) ;
#65 = EDGE_CURVE ( 'NONE', #207, #181, #68, .T. ) ;
#66 = SURFACE_STYLE_USAGE ( .BOTH. , #92 ) ;
#67 = MECHANICAL_DESIGN_GEOMETRIC_PRESENTATION_REPRESENTATION (  '', ( #177 ), #129 ) ;
#68 = CIRCLE ( 'NONE', #237, 0.2755905000000000715 ) ;
#69 = ORIENTED_EDGE ( 'NONE', *, *, #212, .T. ) ;
#70 = ADVANCED_FACE ( 'NONE', ( #50 ), #15, .T. ) ;
#71 = DIRECTION ( 'NONE',  ( -0.0000000000000000000, -0.0000000000000000000, -1.000000000000000000 ) ) ;
#72 = PRODUCT_DEFINITION ( 'UNKNOWN', '', #280, #58 ) ;
#73 = AXIS2_PLACEMENT_3D ( 'NONE', #221, #8, #194 ) ;
#74 =( LENGTH_UNIT ( ) NAMED_UNIT ( * ) SI_UNIT ( $, .METRE. ) );
#75 =( CONVERSION_BASED_UNIT ( 'INCH', #43 ) LENGTH_UNIT ( ) NAMED_UNIT ( #36 ) );
#76 = AXIS2_PLACEMENT_3D ( 'NONE', #139, #71, #162 ) ;
#77 = CIRCLE ( 'NONE', #39, 0.2755905000000000715 ) ;
#78 = DIRECTION ( 'NONE',  ( 1.000000000000000000, 0.0000000000000000000, 0.0000000000000000000 ) ) ;
#79 = EDGE_LOOP ( 'NONE', ( #234, #69, #122, #187 ) ) ;
#80 = DIRECTION ( 'NONE',  ( 0.0000000000000000000, 0.0000000000000000000, 1.000000000000000000 ) ) ;
#81 = FACE_OUTER_BOUND ( 'NONE', #25, .T. ) ;
#82 = CARTESIAN_POINT ( 'NONE',  ( 0.2753149094999999824, 3.371635226767182256E-17, -3.371635226767182256E-17 ) ) ;
#83 = APPLICATION_CONTEXT ( 'automotive_design' ) ;
#84 = CYLINDRICAL_SURFACE ( 'NONE', #252, 0.2753149094999999824 ) ;
#85 = ORIENTED_EDGE ( 'NONE', *, *, #59, .F. ) ;
#86 = VECTOR ( 'NONE', #154, 39.37007874015748143 ) ;
#87 = AXIS2_PLACEMENT_3D ( 'NONE', #251, #42, #215 ) ;
#88 = PRODUCT_DEFINITION_SHAPE ( 'NONE', 'NONE',  #72 ) ;
#89 = FILL_AREA_STYLE_COLOUR ( '', #48 ) ;
#90 = CIRCLE ( 'NONE', #211, 0.2755905000000000715 ) ;
#91 = ORIENTED_EDGE ( 'NONE', *, *, #171, .T. ) ;
#92 = SURFACE_SIDE_STYLE ('',( #199 ) ) ;
#93 = DIRECTION ( 'NONE',  ( -0.0000000000000000000, -0.0000000000000000000, -1.000000000000000000 ) ) ;
#94 = ORIENTED_EDGE ( 'NONE', *, *, #264, .F. ) ;
#95 = EDGE_CURVE ( 'NONE', #183, #226, #278, .T. ) ;
#96 = CARTESIAN_POINT ( 'NONE',  ( 4.129062288352889638E-33, 0.0000000000000000000, 3.371635226767182256E-17 ) ) ;
#97 = VERTEX_POINT ( 'NONE', #261 ) ;
#98 = CARTESIAN_POINT ( 'NONE',  ( 0.0000000000000000000, 0.0000000000000000000, 5.496811000000001002 ) ) ;
#99 = DIRECTION ( 'NONE',  ( 1.000000000000000000, 0.0000000000000000000, 0.0000000000000000000 ) ) ;
#100 = CARTESIAN_POINT ( 'NONE',  ( 2.892866792179873140E-16, 0.0000000000000000000, 2.362204999999999888 ) ) ;
#101 = UNCERTAINTY_MEASURE_WITH_UNIT (LENGTH_MEASURE( 1.000000000000000082E-05 ), #153, 'distance_accuracy_value', 'NONE');
#102 = CARTESIAN_POINT ( 'NONE',  ( 0.0000000000000000000, 0.0000000000000000000, 0.0000000000000000000 ) ) ;
#103 = AXIS2_PLACEMENT_3D ( 'NONE', #123, #4, #56 ) ;
#104 = EDGE_LOOP ( 'NONE', ( #182, #188, #30, #23 ) ) ;
#105 = DIRECTION ( 'NONE',  ( 1.000000000000000000, 0.0000000000000000000, 0.0000000000000000000 ) ) ;
#106 = DIRECTION ( 'NONE',  ( -0.0000000000000000000, -0.0000000000000000000, -1.000000000000000000 ) ) ;
#107 = ORIENTED_EDGE ( 'NONE', *, *, #112, .T. ) ;
#108 = CARTESIAN_POINT ( 'NONE',  ( 0.2753149094999999824, 3.371635226767182256E-17, 0.0000000000000000000 ) ) ;
#109 = ADVANCED_FACE ( 'NONE', ( #2 ), #192, .F. ) ;
#110 = LINE ( 'NONE', #289, #86 ) ;
#111 = COLOUR_RGB ( '',0.7921568627450980005, 0.8196078431372548767, 0.9333333333333333481 ) ;
#112 = EDGE_CURVE ( 'NONE', #169, #207, #282, .T. ) ;
#113 = ORIENTED_EDGE ( 'NONE', *, *, #279, .F. ) ;
#114 = CARTESIAN_POINT ( 'NONE',  ( 2.892866792179873140E-16, 0.0000000000000000000, 2.362204999999999888 ) ) ;
#115 = SURFACE_STYLE_FILL_AREA ( #143 ) ;
#116 = ORIENTED_EDGE ( 'NONE', *, *, #241, .T. ) ;
#117 = ORIENTED_EDGE ( 'NONE', *, *, #59, .T. ) ;
#118 = EDGE_LOOP ( 'NONE', ( #140, #205, #117, #255 ) ) ;
#119 = DIRECTION ( 'NONE',  ( -1.000000000000000000, 0.0000000000000000000, 0.0000000000000000000 ) ) ;
#120 = STYLED_ITEM ( 'NONE', ( #206 ), #32 ) ;
#121 = DIRECTION ( 'NONE',  ( -1.000000000000000000, 0.0000000000000000000, 1.224646799147353207E-16 ) ) ;
#122 = ORIENTED_EDGE ( 'NONE', *, *, #241, .F. ) ;
#123 = CARTESIAN_POINT ( 'NONE',  ( 0.0000000000000000000, 0.0000000000000000000, 5.511810999999999794 ) ) ;
#124 = AXIS2_PLACEMENT_3D ( 'NONE', #161, #268, #136 ) ;
#125 = ADVANCED_FACE ( 'NONE', ( #10 ), #84, .T. ) ;
#126 = DIRECTION ( 'NONE',  ( -1.224646799147353207E-16, -0.0000000000000000000, -1.000000000000000000 ) ) ;
#127 = DIRECTION ( 'NONE',  ( 0.0000000000000000000, 0.0000000000000000000, 1.000000000000000000 ) ) ;
#128 = ADVANCED_FACE ( 'NONE', ( #189 ), #31, .T. ) ;
#129 =( GEOMETRIC_REPRESENTATION_CONTEXT ( 3 ) GLOBAL_UNCERTAINTY_ASSIGNED_CONTEXT ( ( #101 ) ) GLOBAL_UNIT_ASSIGNED_CONTEXT ( ( #153, #33, #175 ) ) REPRESENTATION_CONTEXT ( 'NONE', 'WORKASPACE' ) );
#130 = DIRECTION ( 'NONE',  ( 1.000000000000000000, 0.0000000000000000000, 0.0000000000000000000 ) ) ;
#131 = CARTESIAN_POINT ( 'NONE',  ( 0.2753149095000002600, 0.0000000000000000000, 2.362204999999999888 ) ) ;
#132 = CARTESIAN_POINT ( 'NONE',  ( -0.2605905000000012794, 0.0000000000000000000, 5.511810999999999794 ) ) ;
#133 = AXIS2_PLACEMENT_3D ( 'NONE', #167, #256, #239 ) ;
#134 =( LENGTH_UNIT ( ) NAMED_UNIT ( * ) SI_UNIT ( $, .METRE. ) );
#135 = CONICAL_SURFACE ( 'NONE', #219, 0.2753149094999999824, 0.1745329251994337805 ) ;
#136 = DIRECTION ( 'NONE',  ( 1.000000000000000000, 0.0000000000000000000, 0.0000000000000000000 ) ) ;
#137 = EDGE_LOOP ( 'NONE', ( #180, #107, #202, #94 ) ) ;
#138 = ORIENTED_EDGE ( 'NONE', *, *, #3, .T. ) ;
#139 = CARTESIAN_POINT ( 'NONE',  ( 0.0000000000000000000, 0.0000000000000000000, 5.511810999999999794 ) ) ;
#140 = ORIENTED_EDGE ( 'NONE', *, *, #270, .F. ) ;
#141 = LINE ( 'NONE', #204, #9 ) ;
#142 = ADVANCED_FACE ( 'NONE', ( #81 ), #61, .T. ) ;
#143 = FILL_AREA_STYLE ('',( #250 ) ) ;
#144 = DIRECTION ( 'NONE',  ( -1.224646799147353207E-16, -0.0000000000000000000, -1.000000000000000000 ) ) ;
#145 = UNCERTAINTY_MEASURE_WITH_UNIT (LENGTH_MEASURE( 1.000000000000000082E-05 ), #75, 'distance_accuracy_value', 'NONE');
#146 = EDGE_CURVE ( 'NONE', #220, #97, #231, .T. ) ;
#147 = CARTESIAN_POINT ( 'NONE',  ( 0.0000000000000000000, 0.0000000000000000000, 0.0000000000000000000 ) ) ;
#148 = CARTESIAN_POINT ( 'NONE',  ( -0.2753149094999997049, 3.373322731885684685E-17, 2.362204999999999888 ) ) ;
#149 = CARTESIAN_POINT ( 'NONE',  ( -0.2753149094999999824, 0.0000000000000000000, 6.743270453534364513E-17 ) ) ;
#150 = VECTOR ( 'NONE', #259, 39.37007874015748143 ) ;
#151 = CARTESIAN_POINT ( 'NONE',  ( -0.2755905000000000715, 0.0000000000000000000, 5.511810999999999794 ) ) ;
#152 = VECTOR ( 'NONE', #297, 39.37007874015748143 ) ;
#153 =( CONVERSION_BASED_UNIT ( 'INCH', #174 ) LENGTH_UNIT ( ) NAMED_UNIT ( #63 ) );
#154 = DIRECTION ( 'NONE',  ( -0.0000000000000000000, -0.0000000000000000000, -1.000000000000000000 ) ) ;
#155 = AXIS2_PLACEMENT_3D ( 'NONE', #245, #267, #130 ) ;
#156 = DIRECTION ( 'NONE',  ( -1.000000000000000000, 0.0000000000000000000, 0.0000000000000000000 ) ) ;
#157 =( LENGTH_UNIT ( ) NAMED_UNIT ( * ) SI_UNIT ( $, .METRE. ) );
#158 = PRESENTATION_STYLE_ASSIGNMENT (( #66 ) ) ;
#159 = AXIS2_PLACEMENT_3D ( 'NONE', #57, #35, #156 ) ;
#160 = DIRECTION ( 'NONE',  ( -0.1736481776669310528, 2.126576849575781776E-17, 0.9848077530122080203 ) ) ;
#161 = CARTESIAN_POINT ( 'NONE',  ( 0.0000000000000000000, 0.0000000000000000000, 0.0000000000000000000 ) ) ;
#162 = DIRECTION ( 'NONE',  ( -1.000000000000000000, 0.0000000000000000000, 0.0000000000000000000 ) ) ;
#163 = ORIENTED_EDGE ( 'NONE', *, *, #270, .T. ) ;
#164 = DIRECTION ( 'NONE',  ( -1.224646799147353207E-16, -0.0000000000000000000, -1.000000000000000000 ) ) ;
#165 = CARTESIAN_POINT ( 'NONE',  ( -0.2753149094999999824, 0.0000000000000000000, 3.371635226767182256E-17 ) ) ;
#166 = ADVANCED_FACE ( 'NONE', ( #24 ), #242, .T. ) ;
#167 = CARTESIAN_POINT ( 'NONE',  ( 0.0000000000000000000, 0.0000000000000000000, 5.511810999999999794 ) ) ;
#168 = APPLICATION_CONTEXT ( 'automotive_design' ) ;
#169 = VERTEX_POINT ( 'NONE', #51 ) ;
#170 = DIRECTION ( 'NONE',  ( 0.0000000000000000000, 0.0000000000000000000, -1.000000000000000000 ) ) ;
#171 = EDGE_CURVE ( 'NONE', #169, #274, #6, .T. ) ;
#172 = LINE ( 'NONE', #151, #248 ) ;
#173 = DIRECTION ( 'NONE',  ( 1.000000000000000000, 0.0000000000000000000, 0.0000000000000000000 ) ) ;
#174 = LENGTH_MEASURE_WITH_UNIT ( LENGTH_MEASURE( 0.02539999999999999897 ), #134 );
#175 =( NAMED_UNIT ( * ) SI_UNIT ( $, .STERADIAN. ) SOLID_ANGLE_UNIT ( ) );
#176 = CARTESIAN_POINT ( 'NONE',  ( -0.2605905000000012794, 0.0000000000000000000, 5.511810999999999794 ) ) ;
#177 = STYLED_ITEM ( 'NONE', ( #158 ), #203 ) ;
#178 = CARTESIAN_POINT ( 'NONE',  ( 4.129062288352889638E-33, 0.0000000000000000000, 3.371635226767182256E-17 ) ) ;
#179 = LINE ( 'NONE', #272, #152 ) ;
#180 = ORIENTED_EDGE ( 'NONE', *, *, #171, .F. ) ;
#181 = VERTEX_POINT ( 'NONE', #26 ) ;
#182 = ORIENTED_EDGE ( 'NONE', *, *, #212, .F. ) ;
#183 = VERTEX_POINT ( 'NONE', #148 ) ;
#184 = ORIENTED_EDGE ( 'NONE', *, *, #49, .T. ) ;
#185 = AXIS2_PLACEMENT_3D ( 'NONE', #147, #80, #284 ) ;
#186 = EDGE_LOOP ( 'NONE', ( #253, #91 ) ) ;
#187 = ORIENTED_EDGE ( 'NONE', *, *, #95, .F. ) ;
#188 = ORIENTED_EDGE ( 'NONE', *, *, #288, .T. ) ;
#189 = FACE_OUTER_BOUND ( 'NONE', #186, .T. ) ;
#190 = DIRECTION ( 'NONE',  ( 1.224646799147353207E-16, 0.0000000000000000000, 1.000000000000000000 ) ) ;
#191 = AXIS2_PLACEMENT_3D ( 'NONE', #262, #93, #60 ) ;
#192 = PLANE ( 'NONE',  #185 ) ;
#193 = DIRECTION ( 'NONE',  ( 0.0000000000000000000, 0.0000000000000000000, -1.000000000000000000 ) ) ;
#194 = DIRECTION ( 'NONE',  ( -1.000000000000000000, 0.0000000000000000000, 1.224646799147353207E-16 ) ) ;
#195 = UNCERTAINTY_MEASURE_WITH_UNIT (LENGTH_MEASURE( 1.000000000000000082E-05 ), #286, 'distance_accuracy_value', 'NONE');
#196 = LENGTH_MEASURE_WITH_UNIT ( LENGTH_MEASURE( 0.02539999999999999897 ), #157 );
#197 = AXIS2_PLACEMENT_3D ( 'NONE', #277, #126, #78 ) ;
#198 =( NAMED_UNIT ( * ) PLANE_ANGLE_UNIT ( ) SI_UNIT ( $, .RADIAN. ) );
#199 = SURFACE_STYLE_FILL_AREA ( #11 ) ;
#200 = AXIS2_PLACEMENT_3D ( 'NONE', #218, #127, #236 ) ;
#201 = CYLINDRICAL_SURFACE ( 'NONE', #191, 0.2755905000000000715 ) ;
#202 = ORIENTED_EDGE ( 'NONE', *, *, #19, .F. ) ;
#203 = ADVANCED_BREP_SHAPE_REPRESENTATION ( 'Micro_AELM-140-2X', ( #32, #124 ), #55 ) ;
#204 = CARTESIAN_POINT ( 'NONE',  ( -0.2753149094999997049, 3.371635226767182256E-17, 2.362204999999999888 ) ) ;
#205 = ORIENTED_EDGE ( 'NONE', *, *, #65, .T. ) ;
#206 = PRESENTATION_STYLE_ASSIGNMENT (( #276 ) ) ;
#207 = VERTEX_POINT ( 'NONE', #7 ) ;
#208 = EDGE_CURVE ( 'NONE', #97, #220, #90, .T. ) ;
#209 = EDGE_LOOP ( 'NONE', ( #281, #163, #17, #85 ) ) ;
#210 = EDGE_LOOP ( 'NONE', ( #294, #228, #52, #273 ) ) ;
#211 = AXIS2_PLACEMENT_3D ( 'NONE', #240, #27, #105 ) ;
#212 = EDGE_CURVE ( 'NONE', #293, #238, #283, .T. ) ;
#213 = DIRECTION ( 'NONE',  ( 0.0000000000000000000, 0.0000000000000000000, -1.000000000000000000 ) ) ;
#214 = CIRCLE ( 'NONE', #87, 0.2753149094999999824 ) ;
#215 = DIRECTION ( 'NONE',  ( -1.000000000000000000, 0.0000000000000000000, 0.0000000000000000000 ) ) ;
#216 = CARTESIAN_POINT ( 'NONE',  ( 0.0000000000000000000, 0.0000000000000000000, 5.496811000000001002 ) ) ;
#217 = CIRCLE ( 'NONE', #155, 0.2605905000000012794 ) ;
#218 = CARTESIAN_POINT ( 'NONE',  ( 0.0000000000000000000, 0.0000000000000000000, 5.511810999999999794 ) ) ;
#219 = AXIS2_PLACEMENT_3D ( 'NONE', #114, #296, #99 ) ;
#220 = VERTEX_POINT ( 'NONE', #53 ) ;
#221 = CARTESIAN_POINT ( 'NONE',  ( 0.0000000000000000000, 0.0000000000000000000, 0.0000000000000000000 ) ) ;
#222 = DIRECTION ( 'NONE',  ( 1.000000000000000000, 0.0000000000000000000, 0.0000000000000000000 ) ) ;
#223 =( GEOMETRIC_REPRESENTATION_CONTEXT ( 3 ) GLOBAL_UNCERTAINTY_ASSIGNED_CONTEXT ( ( #145 ) ) GLOBAL_UNIT_ASSIGNED_CONTEXT ( ( #75, #269, #18 ) ) REPRESENTATION_CONTEXT ( 'NONE', 'WORKASPACE' ) );
#224 = ORIENTED_EDGE ( 'NONE', *, *, #13, .F. ) ;
#225 = APPLICATION_PROTOCOL_DEFINITION ( 'draft international standard', 'automotive_design', 1998, #83 ) ;
#226 = VERTEX_POINT ( 'NONE', #149 ) ;
#227 = EDGE_LOOP ( 'NONE', ( #232, #138, #44, #224 ) ) ;
#228 = ORIENTED_EDGE ( 'NONE', *, *, #288, .F. ) ;
#229 = ADVANCED_FACE ( 'NONE', ( #243 ), #28, .T. ) ;
#230 = SURFACE_SIDE_STYLE ('',( #115 ) ) ;
#231 = CIRCLE ( 'NONE', #197, 0.2755905000000000715 ) ;
#232 = ORIENTED_EDGE ( 'NONE', *, *, #54, .F. ) ;
#233 = SHAPE_DEFINITION_REPRESENTATION ( #88, #203 ) ;
#234 = ORIENTED_EDGE ( 'NONE', *, *, #54, .T. ) ;
#235 = FACE_OUTER_BOUND ( 'NONE', #118, .T. ) ;
#236 = DIRECTION ( 'NONE',  ( 1.000000000000000000, 0.0000000000000000000, -0.0000000000000000000 ) ) ;
#237 = AXIS2_PLACEMENT_3D ( 'NONE', #216, #193, #173 ) ;
#238 = VERTEX_POINT ( 'NONE', #108 ) ;
#239 = DIRECTION ( 'NONE',  ( 1.000000000000000000, 0.0000000000000000000, 0.0000000000000000000 ) ) ;
#240 = CARTESIAN_POINT ( 'NONE',  ( 2.894780855599687937E-16, 0.0000000000000000000, 2.363767951392309552 ) ) ;
#241 = EDGE_CURVE ( 'NONE', #226, #238, #299, .T. ) ;
#242 = CONICAL_SURFACE ( 'NONE', #265, 0.2605905000000012794, 0.7853981633974540522 ) ;
#243 = FACE_OUTER_BOUND ( 'NONE', #104, .T. ) ;
#244 = CARTESIAN_POINT ( 'NONE',  ( 0.2605905000000012794, 3.191313217132098713E-17, 5.511810999999999794 ) ) ;
#245 = CARTESIAN_POINT ( 'NONE',  ( 0.0000000000000000000, 0.0000000000000000000, 5.511810999999999794 ) ) ;
#246 = DIRECTION ( 'NONE',  ( -0.7071067811865515695, 0.0000000000000000000, -0.7071067811865434649 ) ) ;
#247 = CIRCLE ( 'NONE', #159, 0.2753149094999999824 ) ;
#248 = VECTOR ( 'NONE', #106, 39.37007874015748143 ) ;
#249 = ADVANCED_FACE ( 'NONE', ( #62 ), #201, .T. ) ;
#250 = FILL_AREA_STYLE_COLOUR ( '', #111 ) ;
#251 = CARTESIAN_POINT ( 'NONE',  ( 2.892866792179873140E-16, 0.0000000000000000000, 2.362204999999999888 ) ) ;
#252 = AXIS2_PLACEMENT_3D ( 'NONE', #102, #47, #121 ) ;
#253 = ORIENTED_EDGE ( 'NONE', *, *, #279, .T. ) ;
#254 = DIRECTION ( 'NONE',  ( 0.7071067811865515695, 8.659560562354982162E-17, -0.7071067811865434649 ) ) ;
#255 = ORIENTED_EDGE ( 'NONE', *, *, #208, .F. ) ;
#256 = DIRECTION ( 'NONE',  ( 0.0000000000000000000, 0.0000000000000000000, 1.000000000000000000 ) ) ;
#257 = ORIENTED_EDGE ( 'NONE', *, *, #112, .F. ) ;
#258 = CARTESIAN_POINT ( 'NONE',  ( 0.0000000000000000000, 0.0000000000000000000, 5.511810999999999794 ) ) ;
#259 = DIRECTION ( 'NONE',  ( -1.224646799147353207E-16, -0.0000000000000000000, -1.000000000000000000 ) ) ;
#260 = VECTOR ( 'NONE', #144, 39.37007874015748143 ) ;
#261 = CARTESIAN_POINT ( 'NONE',  ( 0.2755905000000002936, 3.375010237004190194E-17, 2.363767951392309552 ) ) ;
#262 = CARTESIAN_POINT ( 'NONE',  ( 0.0000000000000000000, 0.0000000000000000000, 5.511810999999999794 ) ) ;
#263 = PRODUCT ( 'Micro_AELM-140-2X', 'Micro_AELM-140-2X', '', ( #295 ) ) ;
#264 = EDGE_CURVE ( 'NONE', #274, #181, #291, .T. ) ;
#265 = AXIS2_PLACEMENT_3D ( 'NONE', #258, #170, #119 ) ;
#266 = PRODUCT_RELATED_PRODUCT_CATEGORY ( 'part', '', ( #263 ) ) ;
#267 = DIRECTION ( 'NONE',  ( 0.0000000000000000000, 0.0000000000000000000, 1.000000000000000000 ) ) ;
#268 = DIRECTION ( 'NONE',  ( 0.0000000000000000000, 0.0000000000000000000, 1.000000000000000000 ) ) ;
#269 =( NAMED_UNIT ( * ) PLANE_ANGLE_UNIT ( ) SI_UNIT ( $, .RADIAN. ) );
#270 = EDGE_CURVE ( 'NONE', #207, #97, #110, .T. ) ;
#271 = DIRECTION ( 'NONE',  ( 1.000000000000000000, 0.0000000000000000000, 0.0000000000000000000 ) ) ;
#272 = CARTESIAN_POINT ( 'NONE',  ( 0.2753149095000002600, 0.0000000000000000000, 2.362204999999999888 ) ) ;
#273 = ORIENTED_EDGE ( 'NONE', *, *, #208, .T. ) ;
#274 = VERTEX_POINT ( 'NONE', #132 ) ;
#275 = AXIS2_PLACEMENT_3D ( 'NONE', #96, #164, #45 ) ;
#276 = SURFACE_STYLE_USAGE ( .BOTH. , #230 ) ;
#277 = CARTESIAN_POINT ( 'NONE',  ( 2.894780855599687937E-16, 0.0000000000000000000, 2.363767951392309552 ) ) ;
#278 = LINE ( 'NONE', #165, #260 ) ;
#279 = EDGE_CURVE ( 'NONE', #274, #169, #217, .T. ) ;
#280 = PRODUCT_DEFINITION_FORMATION_WITH_SPECIFIED_SOURCE ( 'ANY', '', #263, .NOT_KNOWN. ) ;
#281 = ORIENTED_EDGE ( 'NONE', *, *, #19, .T. ) ;
#282 = LINE ( 'NONE', #244, #290 ) ;
#283 = LINE ( 'NONE', #82, #150 ) ;
#284 = DIRECTION ( 'NONE',  ( 1.000000000000000000, 0.0000000000000000000, -0.0000000000000000000 ) ) ;
#285 =( NAMED_UNIT ( * ) SI_UNIT ( $, .STERADIAN. ) SOLID_ANGLE_UNIT ( ) );
#286 =( CONVERSION_BASED_UNIT ( 'INCH', #196 ) LENGTH_UNIT ( ) NAMED_UNIT ( #292 ) );
#287 = MECHANICAL_DESIGN_GEOMETRIC_PRESENTATION_REPRESENTATION (  '', ( #120 ), #223 ) ;
#288 = EDGE_CURVE ( 'NONE', #293, #183, #247, .T. ) ;
#289 = CARTESIAN_POINT ( 'NONE',  ( 0.2755905000000000715, 3.375010237004187113E-17, 5.511810999999999794 ) ) ;
#290 = VECTOR ( 'NONE', #254, 39.37007874015748143 ) ;
#291 = LINE ( 'NONE', #176, #5 ) ;
#292 = DIMENSIONAL_EXPONENTS ( 1.000000000000000000, 0.0000000000000000000, 0.0000000000000000000, 0.0000000000000000000, 0.0000000000000000000, 0.0000000000000000000, 0.0000000000000000000 ) ;
#293 = VERTEX_POINT ( 'NONE', #131 ) ;
#294 = ORIENTED_EDGE ( 'NONE', *, *, #3, .F. ) ;
#295 = PRODUCT_CONTEXT ( 'NONE', #83, 'mechanical' ) ;
#296 = DIRECTION ( 'NONE',  ( 1.224646799147353207E-16, 0.0000000000000000000, 1.000000000000000000 ) ) ;
#297 = DIRECTION ( 'NONE',  ( 0.1736481776669312749, 0.0000000000000000000, 0.9848077530122077983 ) ) ;
#298 = ORIENTED_EDGE ( 'NONE', *, *, #264, .T. ) ;
#299 = CIRCLE ( 'NONE', #34, 0.2753149094999999824 ) ;
ENDSEC;
END-ISO-10303-21;
