ISO-10303-21;
HEADER;
FILE_DESCRIPTION (( 'STEP AP214' ),
    '1' );
FILE_NAME ('Micro_DMM-120-290X.STEP',
    '2021-09-02T16:33:22',
    ( '' ),
    ( '' ),
    'SwSTEP 2.0',
    'SolidWorks 2020',
    '' );
FILE_SCHEMA (( 'AUTOMOTIVE_DESIGN' ));
ENDSEC;

DATA;
#1 = FACE_OUTER_BOUND ( 'NONE', #104, .T. ) ;
#2 = PRESENTATION_LAYER_ASSIGNMENT (  '', '', ( #328 ) ) ;
#3 =( NAMED_UNIT ( * ) SI_UNIT ( $, .STERADIAN. ) SOLID_ANGLE_UNIT ( ) );
#4 = PRODUCT_RELATED_PRODUCT_CATEGORY ( 'part', '', ( #320 ) ) ;
#5 = CARTESIAN_POINT ( 'NONE',  ( 0.0000000000000000000, 0.0000000000000000000, 0.2286704999999991939 ) ) ;
#6 = VECTOR ( 'NONE', #120, 39.37007874015748143 ) ;
#7 = AXIS2_PLACEMENT_3D ( 'NONE', #103, #144, #18 ) ;
#8 = LENGTH_MEASURE_WITH_UNIT ( LENGTH_MEASURE( 0.02539999999999999897 ), #235 );
#9 = FACE_OUTER_BOUND ( 'NONE', #201, .T. ) ;
#10 = CARTESIAN_POINT ( 'NONE',  ( 0.0000000000000000000, 0.0000000000000000000, 1.181102000000000096 ) ) ;
#11 = CARTESIAN_POINT ( 'NONE',  ( -0.2361705000000000609, 2.892254468780301005E-17, 0.2286704999999991939 ) ) ;
#12 = ORIENTED_EDGE ( 'NONE', *, *, #27, .T. ) ;
#13 = CIRCLE ( 'NONE', #206, 0.2212205000000019295 ) ;
#14 = CARTESIAN_POINT ( 'NONE',  ( 0.007499999999999999722, 0.0000000000000000000, 1.707404996040164512E-17 ) ) ;
#15 = CARTESIAN_POINT ( 'NONE',  ( -0.2362204999999999999, 0.0000000000000000000, 1.181102000000000096 ) ) ;
#16 = DIRECTION ( 'NONE',  ( 0.0000000000000000000, 0.0000000000000000000, -1.000000000000000000 ) ) ;
#17 = ORIENTED_EDGE ( 'NONE', *, *, #175, .T. ) ;
#18 = DIRECTION ( 'NONE',  ( 1.000000000000000000, 0.0000000000000000000, 0.0000000000000000000 ) ) ;
#19 =( NAMED_UNIT ( * ) PLANE_ANGLE_UNIT ( ) SI_UNIT ( $, .RADIAN. ) );
#20 = DIRECTION ( 'NONE',  ( 0.0000000000000000000, 0.0000000000000000000, 1.000000000000000000 ) ) ;
#21 = AXIS2_PLACEMENT_3D ( 'NONE', #263, #158, #89 ) ;
#22 = ORIENTED_EDGE ( 'NONE', *, *, #111, .F. ) ;
#23 = ORIENTED_EDGE ( 'NONE', *, *, #57, .T. ) ;
#24 = LENGTH_MEASURE_WITH_UNIT ( LENGTH_MEASURE( 0.02539999999999999897 ), #248 );
#25 = PRODUCT_DEFINITION ( 'UNKNOWN', '', #113, #109 ) ;
#26 = ORIENTED_EDGE ( 'NONE', *, *, #117, .F. ) ;
#27 = EDGE_CURVE ( 'NONE', #168, #295, #51, .T. ) ;
#28 = CARTESIAN_POINT ( 'NONE',  ( 0.0000000000000000000, 0.0000000000000000000, 3.267717000000000649 ) ) ;
#29 = APPLICATION_CONTEXT ( 'automotive_design' ) ;
#30 = AXIS2_PLACEMENT_3D ( 'NONE', #294, #71, #101 ) ;
#31 = VECTOR ( 'NONE', #136, 39.37007874015748143 ) ;
#32 = DIRECTION ( 'NONE',  ( 0.7071067811865489050, 0.0000000000000000000, 0.7071067811865461294 ) ) ;
#33 = CIRCLE ( 'NONE', #207, 0.2212205000000019295 ) ;
#34 = CARTESIAN_POINT ( 'NONE',  ( 0.2362204999999999999, 2.892866792179872647E-17, 1.181102000000000096 ) ) ;
#35 = CARTESIAN_POINT ( 'NONE',  ( -0.007499999999999999722, 9.184850993605147975E-19, 1.707404996040164512E-17 ) ) ;
#36 = DIRECTION ( 'NONE',  ( -0.0000000000000000000, -0.0000000000000000000, -1.000000000000000000 ) ) ;
#37 = EDGE_CURVE ( 'NONE', #291, #293, #93, .T. ) ;
#38 = ORIENTED_EDGE ( 'NONE', *, *, #251, .T. ) ;
#39 = CARTESIAN_POINT ( 'NONE',  ( 0.0000000000000000000, 0.0000000000000000000, 1.181102000000000096 ) ) ;
#40 = CIRCLE ( 'NONE', #195, 0.2362204999999999999 ) ;
#41 = CARTESIAN_POINT ( 'NONE',  ( 0.0000000000000000000, 0.0000000000000000000, 1.707404996040164512E-17 ) ) ;
#42 = VERTEX_POINT ( 'NONE', #227 ) ;
#43 = MANIFOLD_SOLID_BREP ( 'Cut-Revolve4', #276 ) ;
#44 = EDGE_CURVE ( 'NONE', #275, #151, #329, .T. ) ;
#45 = DIRECTION ( 'NONE',  ( 1.000000000000000000, 0.0000000000000000000, 0.0000000000000000000 ) ) ;
#46 = ORIENTED_EDGE ( 'NONE', *, *, #85, .T. ) ;
#47 = DIRECTION ( 'NONE',  ( -0.0000000000000000000, -0.0000000000000000000, -1.000000000000000000 ) ) ;
#48 = ORIENTED_EDGE ( 'NONE', *, *, #326, .T. ) ;
#49 = DIRECTION ( 'NONE',  ( 0.7071067811865474617, 8.659560562354932858E-17, -0.7071067811865474617 ) ) ;
#50 = SURFACE_SIDE_STYLE ('',( #76 ) ) ;
#51 = LINE ( 'NONE', #226, #286 ) ;
#52 = CIRCLE ( 'NONE', #274, 0.2362204999999999999 ) ;
#53 = ADVANCED_FACE ( 'NONE', ( #272 ), #86, .T. ) ;
#54 = ADVANCED_FACE ( 'NONE', ( #1 ), #163, .T. ) ;
#55 = DIRECTION ( 'NONE',  ( 0.0000000000000000000, 0.0000000000000000000, -1.000000000000000000 ) ) ;
#56 = CYLINDRICAL_SURFACE ( 'NONE', #223, 0.2362204999999999999 ) ;
#57 = EDGE_CURVE ( 'NONE', #317, #161, #302, .T. ) ;
#58 = CARTESIAN_POINT ( 'NONE',  ( 0.0000000000000000000, 0.0000000000000000000, 1.707404996040164512E-17 ) ) ;
#59 = FACE_OUTER_BOUND ( 'NONE', #60, .T. ) ;
#60 = EDGE_LOOP ( 'NONE', ( #190, #48, #212, #102 ) ) ;
#61 = APPLICATION_PROTOCOL_DEFINITION ( 'draft international standard', 'automotive_design', 1998, #106 ) ;
#62 = ADVANCED_FACE ( 'NONE', ( #165 ), #153, .T. ) ;
#63 = VECTOR ( 'NONE', #64, 39.37007874015748143 ) ;
#64 = DIRECTION ( 'NONE',  ( -0.0000000000000000000, -0.0000000000000000000, -1.000000000000000000 ) ) ;
#65 =( NAMED_UNIT ( * ) SI_UNIT ( $, .STERADIAN. ) SOLID_ANGLE_UNIT ( ) );
#66 = ADVANCED_FACE ( 'NONE', ( #208 ), #56, .T. ) ;
#67 = LINE ( 'NONE', #96, #6 ) ;
#68 = ORIENTED_EDGE ( 'NONE', *, *, #308, .T. ) ;
#69 = DIRECTION ( 'NONE',  ( -1.000000000000000000, 0.0000000000000000000, 0.0000000000000000000 ) ) ;
#70 = AXIS2_PLACEMENT_3D ( 'NONE', #216, #184, #183 ) ;
#71 = DIRECTION ( 'NONE',  ( -0.0000000000000000000, -0.0000000000000000000, -1.000000000000000000 ) ) ;
#72 = SURFACE_SIDE_STYLE ('',( #296 ) ) ;
#73 = CARTESIAN_POINT ( 'NONE',  ( 0.0000000000000000000, 0.0000000000000000000, 3.267717000000000649 ) ) ;
#74 = EDGE_LOOP ( 'NONE', ( #38, #321 ) ) ;
#75 = DIRECTION ( 'NONE',  ( -1.000000000000000000, 0.0000000000000000000, 0.0000000000000000000 ) ) ;
#76 = SURFACE_STYLE_FILL_AREA ( #200 ) ;
#77 = AXIS2_PLACEMENT_3D ( 'NONE', #193, #147, #268 ) ;
#78 = FILL_AREA_STYLE_COLOUR ( '', #305 ) ;
#79 = ORIENTED_EDGE ( 'NONE', *, *, #177, .T. ) ;
#80 = EDGE_CURVE ( 'NONE', #168, #128, #13, .T. ) ;
#81 = AXIS2_PLACEMENT_3D ( 'NONE', #10, #191, #69 ) ;
#82 = CARTESIAN_POINT ( 'NONE',  ( 0.0000000000000000000, 0.0000000000000000000, 3.267717000000000649 ) ) ;
#83 = DIRECTION ( 'NONE',  ( -0.0000000000000000000, -0.0000000000000000000, -1.000000000000000000 ) ) ;
#84 =( CONVERSION_BASED_UNIT ( 'INCH', #288 ) LENGTH_UNIT ( ) NAMED_UNIT ( #289 ) );
#85 = EDGE_CURVE ( 'NONE', #291, #317, #241, .T. ) ;
#86 = CONICAL_SURFACE ( 'NONE', #307, 0.007499999999999999722, 0.7853981633974502774 ) ;
#87 = CARTESIAN_POINT ( 'NONE',  ( 0.0000000000000000000, 0.0000000000000000000, 0.0000000000000000000 ) ) ;
#88 = VECTOR ( 'NONE', #32, 39.37007874015748143 ) ;
#89 = DIRECTION ( 'NONE',  ( 1.000000000000000000, 0.0000000000000000000, -0.0000000000000000000 ) ) ;
#90 = FACE_BOUND ( 'NONE', #217, .T. ) ;
#91 = ORIENTED_EDGE ( 'NONE', *, *, #251, .F. ) ;
#92 = ORIENTED_EDGE ( 'NONE', *, *, #108, .T. ) ;
#93 = CIRCLE ( 'NONE', #244, 0.007499999999999999722 ) ;
#94 = FACE_OUTER_BOUND ( 'NONE', #148, .T. ) ;
#95 = ORIENTED_EDGE ( 'NONE', *, *, #246, .F. ) ;
#96 = CARTESIAN_POINT ( 'NONE',  ( 0.2362204999999999999, 2.892866792179872647E-17, 3.267717000000000649 ) ) ;
#97 = CARTESIAN_POINT ( 'NONE',  ( -0.2362204999999999999, 0.0000000000000000000, 3.252717000000002301 ) ) ;
#98 = ORIENTED_EDGE ( 'NONE', *, *, #135, .F. ) ;
#99 = AXIS2_PLACEMENT_3D ( 'NONE', #39, #315, #218 ) ;
#100 = AXIS2_PLACEMENT_3D ( 'NONE', #119, #260, #258 ) ;
#101 = DIRECTION ( 'NONE',  ( -1.000000000000000000, 0.0000000000000000000, 0.0000000000000000000 ) ) ;
#102 = ORIENTED_EDGE ( 'NONE', *, *, #306, .F. ) ;
#103 = CARTESIAN_POINT ( 'NONE',  ( 0.0000000000000000000, 0.0000000000000000000, 3.252717000000002301 ) ) ;
#104 = EDGE_LOOP ( 'NONE', ( #121, #91, #79, #95 ) ) ;
#105 = PRESENTATION_STYLE_ASSIGNMENT (( #166 ) ) ;
#106 = APPLICATION_CONTEXT ( 'automotive_design' ) ;
#107 = PRESENTATION_LAYER_ASSIGNMENT (  '', '', ( #314 ) ) ;
#108 = EDGE_CURVE ( 'NONE', #295, #325, #67, .T. ) ;
#109 = PRODUCT_DEFINITION_CONTEXT ( 'detailed design', #106, 'design' ) ;
#110 = DIRECTION ( 'NONE',  ( 1.000000000000000000, 0.0000000000000000000, 0.0000000000000000000 ) ) ;
#111 = EDGE_CURVE ( 'NONE', #254, #42, #112, .T. ) ;
#112 = CIRCLE ( 'NONE', #81, 0.2361705000000001164 ) ;
#113 = PRODUCT_DEFINITION_FORMATION_WITH_SPECIFIED_SOURCE ( 'ANY', '', #320, .NOT_KNOWN. ) ;
#114 = CARTESIAN_POINT ( 'NONE',  ( 0.2361705000000000887, 2.892254468780301005E-17, 0.0000000000000000000 ) ) ;
#115 = AXIS2_PLACEMENT_3D ( 'NONE', #5, #220, #318 ) ;
#116 = DIRECTION ( 'NONE',  ( -0.0000000000000000000, -0.0000000000000000000, -1.000000000000000000 ) ) ;
#117 = EDGE_CURVE ( 'NONE', #293, #291, #187, .T. ) ;
#118 = SHAPE_DEFINITION_REPRESENTATION ( #169, #232 ) ;
#119 = CARTESIAN_POINT ( 'NONE',  ( 0.0000000000000000000, 0.0000000000000000000, 0.0000000000000000000 ) ) ;
#120 = DIRECTION ( 'NONE',  ( -0.0000000000000000000, -0.0000000000000000000, -1.000000000000000000 ) ) ;
#121 = ORIENTED_EDGE ( 'NONE', *, *, #27, .F. ) ;
#122 = AXIS2_PLACEMENT_3D ( 'NONE', #41, #20, #297 ) ;
#123 = CARTESIAN_POINT ( 'NONE',  ( 0.0000000000000000000, 0.0000000000000000000, 3.252717000000002301 ) ) ;
#124 = ORIENTED_EDGE ( 'NONE', *, *, #316, .T. ) ;
#125 = DIRECTION ( 'NONE',  ( 1.000000000000000000, 0.0000000000000000000, 0.0000000000000000000 ) ) ;
#126 = DIRECTION ( 'NONE',  ( -1.000000000000000000, 0.0000000000000000000, 0.0000000000000000000 ) ) ;
#127 = EDGE_LOOP ( 'NONE', ( #312, #197 ) ) ;
#128 = VERTEX_POINT ( 'NONE', #265 ) ;
#129 = ADVANCED_FACE ( 'NONE', ( #90, #9 ), #290, .T. ) ;
#130 =( CONVERSION_BASED_UNIT ( 'INCH', #24 ) LENGTH_UNIT ( ) NAMED_UNIT ( #279 ) );
#131 = SURFACE_STYLE_USAGE ( .BOTH. , #50 ) ;
#132 = DIRECTION ( 'NONE',  ( 0.0000000000000000000, 0.0000000000000000000, 1.000000000000000000 ) ) ;
#133 = CARTESIAN_POINT ( 'NONE',  ( -0.2362204999999999999, 0.0000000000000000000, 3.267717000000000649 ) ) ;
#134 = AXIS2_PLACEMENT_3D ( 'NONE', #123, #16, #125 ) ;
#135 = EDGE_CURVE ( 'NONE', #42, #254, #159, .T. ) ;
#136 = DIRECTION ( 'NONE',  ( -0.0000000000000000000, -0.0000000000000000000, -1.000000000000000000 ) ) ;
#137 = CARTESIAN_POINT ( 'NONE',  ( 0.0000000000000000000, 0.0000000000000000000, 3.267717000000000649 ) ) ;
#138 = PLANE ( 'NONE',  #21 ) ;
#139 =( CONVERSION_BASED_UNIT ( 'INCH', #8 ) LENGTH_UNIT ( ) NAMED_UNIT ( #285 ) );
#140 = CYLINDRICAL_SURFACE ( 'NONE', #100, 0.2361705000000000887 ) ;
#141 = FACE_OUTER_BOUND ( 'NONE', #127, .T. ) ;
#142 = VECTOR ( 'NONE', #266, 39.37007874015748854 ) ;
#143 = ORIENTED_EDGE ( 'NONE', *, *, #306, .T. ) ;
#144 = DIRECTION ( 'NONE',  ( 0.0000000000000000000, 0.0000000000000000000, -1.000000000000000000 ) ) ;
#145 = EDGE_LOOP ( 'NONE', ( #192, #46, #23, #225 ) ) ;
#146 = ADVANCED_FACE ( 'NONE', ( #94 ), #157, .T. ) ;
#147 = DIRECTION ( 'NONE',  ( 0.0000000000000000000, 0.0000000000000000000, 1.000000000000000000 ) ) ;
#148 = EDGE_LOOP ( 'NONE', ( #215, #162, #143, #283 ) ) ;
#149 = DIRECTION ( 'NONE',  ( -1.000000000000000000, 0.0000000000000000000, 0.0000000000000000000 ) ) ;
#150 = FILL_AREA_STYLE ('',( #194 ) ) ;
#151 = VERTEX_POINT ( 'NONE', #15 ) ;
#152 = EDGE_CURVE ( 'NONE', #275, #295, #255, .T. ) ;
#153 = CONICAL_SURFACE ( 'NONE', #210, 0.2212205000000019295, 0.7853981633974482790 ) ;
#154 = PRODUCT_CONTEXT ( 'NONE', #29, 'mechanical' ) ;
#155 = CARTESIAN_POINT ( 'NONE',  ( 0.0000000000000000000, 0.0000000000000000000, 1.707404996040164512E-17 ) ) ;
#156 = DIRECTION ( 'NONE',  ( 0.0000000000000000000, 0.0000000000000000000, -1.000000000000000000 ) ) ;
#157 = CYLINDRICAL_SURFACE ( 'NONE', #273, 0.2361705000000000887 ) ;
#158 = DIRECTION ( 'NONE',  ( 0.0000000000000000000, 0.0000000000000000000, 1.000000000000000000 ) ) ;
#159 = CIRCLE ( 'NONE', #99, 0.2361705000000001164 ) ;
#160 = MECHANICAL_DESIGN_GEOMETRIC_PRESENTATION_REPRESENTATION (  '', ( #314 ), #211 ) ;
#161 = VERTEX_POINT ( 'NONE', #280 ) ;
#162 = ORIENTED_EDGE ( 'NONE', *, *, #111, .T. ) ;
#163 = CONICAL_SURFACE ( 'NONE', #180, 0.2212205000000019295, 0.7853981633974482790 ) ;
#164 =( GEOMETRIC_REPRESENTATION_CONTEXT ( 3 ) GLOBAL_UNCERTAINTY_ASSIGNED_CONTEXT ( ( #287 ) ) GLOBAL_UNIT_ASSIGNED_CONTEXT ( ( #139, #242, #65 ) ) REPRESENTATION_CONTEXT ( 'NONE', 'WORKASPACE' ) );
#165 = FACE_OUTER_BOUND ( 'NONE', #253, .T. ) ;
#166 = SURFACE_STYLE_USAGE ( .BOTH. , #72 ) ;
#167 = DIRECTION ( 'NONE',  ( 0.0000000000000000000, 0.0000000000000000000, 1.000000000000000000 ) ) ;
#168 = VERTEX_POINT ( 'NONE', #259 ) ;
#169 = PRODUCT_DEFINITION_SHAPE ( 'NONE', 'NONE',  #25 ) ;
#170 = FACE_OUTER_BOUND ( 'NONE', #74, .T. ) ;
#171 = ORIENTED_EDGE ( 'NONE', *, *, #177, .F. ) ;
#172 = AXIS2_PLACEMENT_3D ( 'NONE', #224, #324, #126 ) ;
#173 = ORIENTED_EDGE ( 'NONE', *, *, #261, .T. ) ;
#174 =( NAMED_UNIT ( * ) SI_UNIT ( $, .STERADIAN. ) SOLID_ANGLE_UNIT ( ) );
#175 = EDGE_CURVE ( 'NONE', #161, #317, #313, .T. ) ;
#176 =( GEOMETRIC_REPRESENTATION_CONTEXT ( 3 ) GLOBAL_UNCERTAINTY_ASSIGNED_CONTEXT ( ( #203 ) ) GLOBAL_UNIT_ASSIGNED_CONTEXT ( ( #130, #19, #174 ) ) REPRESENTATION_CONTEXT ( 'NONE', 'WORKASPACE' ) );
#177 = EDGE_CURVE ( 'NONE', #128, #275, #222, .T. ) ;
#178 = DIRECTION ( 'NONE',  ( -1.000000000000000000, 0.0000000000000000000, 0.0000000000000000000 ) ) ;
#179 = DIRECTION ( 'NONE',  ( 0.0000000000000000000, 0.0000000000000000000, 1.000000000000000000 ) ) ;
#180 = AXIS2_PLACEMENT_3D ( 'NONE', #82, #55, #234 ) ;
#181 = AXIS2_PLACEMENT_3D ( 'NONE', #87, #284, #309 ) ;
#182 = LINE ( 'NONE', #282, #88 ) ;
#183 = DIRECTION ( 'NONE',  ( -1.000000000000000000, 0.0000000000000000000, 0.0000000000000000000 ) ) ;
#184 = DIRECTION ( 'NONE',  ( -0.0000000000000000000, 0.0000000000000000000, -1.000000000000000000 ) ) ;
#185 = EDGE_LOOP ( 'NONE', ( #252, #26, #68, #17 ) ) ;
#186 = DIRECTION ( 'NONE',  ( 1.000000000000000000, 0.0000000000000000000, 0.0000000000000000000 ) ) ;
#187 = CIRCLE ( 'NONE', #304, 0.007499999999999999722 ) ;
#188 = ADVANCED_FACE ( 'NONE', ( #249 ), #256, .T. ) ;
#189 = LINE ( 'NONE', #114, #31 ) ;
#190 = ORIENTED_EDGE ( 'NONE', *, *, #135, .T. ) ;
#191 = DIRECTION ( 'NONE',  ( -0.0000000000000000000, -0.0000000000000000000, -1.000000000000000000 ) ) ;
#192 = ORIENTED_EDGE ( 'NONE', *, *, #37, .F. ) ;
#193 = CARTESIAN_POINT ( 'NONE',  ( 0.0000000000000000000, 0.0000000000000000000, 3.267717000000000649 ) ) ;
#194 = FILL_AREA_STYLE_COLOUR ( '', #264 ) ;
#195 = AXIS2_PLACEMENT_3D ( 'NONE', #278, #36, #214 ) ;
#196 = PLANE ( 'NONE',  #77 ) ;
#197 = ORIENTED_EDGE ( 'NONE', *, *, #37, .T. ) ;
#198 = CARTESIAN_POINT ( 'NONE',  ( 0.2361705000000001720, 2.892254468780301621E-17, 1.181102000000000096 ) ) ;
#199 = ORIENTED_EDGE ( 'NONE', *, *, #152, .F. ) ;
#200 = FILL_AREA_STYLE ('',( #78 ) ) ;
#201 = EDGE_LOOP ( 'NONE', ( #173, #124 ) ) ;
#202 = CIRCLE ( 'NONE', #7, 0.2362204999999999999 ) ;
#203 = UNCERTAINTY_MEASURE_WITH_UNIT (LENGTH_MEASURE( 1.000000000000000082E-05 ), #130, 'distance_accuracy_value', 'NONE');
#204 = ORIENTED_EDGE ( 'NONE', *, *, #152, .T. ) ;
#205 = ADVANCED_FACE ( 'NONE', ( #170 ), #196, .T. ) ;
#206 = AXIS2_PLACEMENT_3D ( 'NONE', #209, #179, #186 ) ;
#207 = AXIS2_PLACEMENT_3D ( 'NONE', #73, #167, #45 ) ;
#208 = FACE_OUTER_BOUND ( 'NONE', #238, .T. ) ;
#209 = CARTESIAN_POINT ( 'NONE',  ( 0.0000000000000000000, 0.0000000000000000000, 3.267717000000000649 ) ) ;
#210 = AXIS2_PLACEMENT_3D ( 'NONE', #28, #156, #233 ) ;
#211 =( GEOMETRIC_REPRESENTATION_CONTEXT ( 3 ) GLOBAL_UNCERTAINTY_ASSIGNED_CONTEXT ( ( #230 ) ) GLOBAL_UNIT_ASSIGNED_CONTEXT ( ( #84, #277, #3 ) ) REPRESENTATION_CONTEXT ( 'NONE', 'WORKASPACE' ) );
#212 = ORIENTED_EDGE ( 'NONE', *, *, #57, .F. ) ;
#213 =( LENGTH_UNIT ( ) NAMED_UNIT ( * ) SI_UNIT ( $, .METRE. ) );
#214 = DIRECTION ( 'NONE',  ( -1.000000000000000000, 0.0000000000000000000, 0.0000000000000000000 ) ) ;
#215 = ORIENTED_EDGE ( 'NONE', *, *, #326, .F. ) ;
#216 = CARTESIAN_POINT ( 'NONE',  ( 0.2361705000000001164, 0.0000000000000000000, 1.181102000000000096 ) ) ;
#217 = EDGE_LOOP ( 'NONE', ( #98, #22 ) ) ;
#218 = DIRECTION ( 'NONE',  ( -1.000000000000000000, 0.0000000000000000000, 0.0000000000000000000 ) ) ;
#219 = ADVANCED_FACE ( 'NONE', ( #299 ), #247, .T. ) ;
#220 = DIRECTION ( 'NONE',  ( -0.0000000000000000000, -0.0000000000000000000, -1.000000000000000000 ) ) ;
#221 = ORIENTED_EDGE ( 'NONE', *, *, #108, .F. ) ;
#222 = LINE ( 'NONE', #323, #142 ) ;
#223 = AXIS2_PLACEMENT_3D ( 'NONE', #137, #83, #178 ) ;
#224 = CARTESIAN_POINT ( 'NONE',  ( 0.0000000000000000000, 0.0000000000000000000, 3.267717000000000649 ) ) ;
#225 = ORIENTED_EDGE ( 'NONE', *, *, #308, .F. ) ;
#226 = CARTESIAN_POINT ( 'NONE',  ( 0.2212205000000019295, 2.709169772307794108E-17, 3.267717000000000649 ) ) ;
#227 = CARTESIAN_POINT ( 'NONE',  ( -0.2361705000000001164, 0.0000000000000000000, 1.181102000000000096 ) ) ;
#228 = MECHANICAL_DESIGN_GEOMETRIC_PRESENTATION_REPRESENTATION (  '', ( #328 ), #176 ) ;
#229 = VECTOR ( 'NONE', #239, 39.37007874015748143 ) ;
#230 = UNCERTAINTY_MEASURE_WITH_UNIT (LENGTH_MEASURE( 1.000000000000000082E-05 ), #84, 'distance_accuracy_value', 'NONE');
#231 = DIRECTION ( 'NONE',  ( -0.0000000000000000000, -0.0000000000000000000, -1.000000000000000000 ) ) ;
#232 = ADVANCED_BREP_SHAPE_REPRESENTATION ( 'Micro_DMM-120-290X', ( #43, #181 ), #164 ) ;
#233 = DIRECTION ( 'NONE',  ( -1.000000000000000000, 0.0000000000000000000, 0.0000000000000000000 ) ) ;
#234 = DIRECTION ( 'NONE',  ( -1.000000000000000000, 0.0000000000000000000, 0.0000000000000000000 ) ) ;
#235 =( LENGTH_UNIT ( ) NAMED_UNIT ( * ) SI_UNIT ( $, .METRE. ) );
#236 = VECTOR ( 'NONE', #231, 39.37007874015748143 ) ;
#237 = CARTESIAN_POINT ( 'NONE',  ( -0.2361705000000000887, 0.0000000000000000000, 0.0000000000000000000 ) ) ;
#238 = EDGE_LOOP ( 'NONE', ( #204, #92, #300, #269 ) ) ;
#239 = DIRECTION ( 'NONE',  ( -0.7071067811865489050, 8.659560562354950115E-17, 0.7071067811865461294 ) ) ;
#240 = CARTESIAN_POINT ( 'NONE',  ( 0.2362204999999999999, 2.892866792179872647E-17, 3.252717000000002301 ) ) ;
#241 = LINE ( 'NONE', #35, #229 ) ;
#242 =( NAMED_UNIT ( * ) PLANE_ANGLE_UNIT ( ) SI_UNIT ( $, .RADIAN. ) );
#243 = DIRECTION ( 'NONE',  ( -0.0000000000000000000, -0.0000000000000000000, -1.000000000000000000 ) ) ;
#244 = AXIS2_PLACEMENT_3D ( 'NONE', #327, #301, #75 ) ;
#245 = CARTESIAN_POINT ( 'NONE',  ( 0.0000000000000000000, 0.0000000000000000000, 0.0000000000000000000 ) ) ;
#246 = EDGE_CURVE ( 'NONE', #295, #275, #202, .T. ) ;
#247 = CYLINDRICAL_SURFACE ( 'NONE', #172, 0.2362204999999999999 ) ;
#248 =( LENGTH_UNIT ( ) NAMED_UNIT ( * ) SI_UNIT ( $, .METRE. ) );
#249 = FACE_OUTER_BOUND ( 'NONE', #145, .T. ) ;
#250 = ORIENTED_EDGE ( 'NONE', *, *, #316, .F. ) ;
#251 = EDGE_CURVE ( 'NONE', #128, #168, #33, .T. ) ;
#252 = ORIENTED_EDGE ( 'NONE', *, *, #85, .F. ) ;
#253 = EDGE_LOOP ( 'NONE', ( #267, #12, #199, #171 ) ) ;
#254 = VERTEX_POINT ( 'NONE', #198 ) ;
#255 = CIRCLE ( 'NONE', #134, 0.2362204999999999999 ) ;
#256 = CONICAL_SURFACE ( 'NONE', #122, 0.007499999999999999722, 0.7853981633974502774 ) ;
#257 = LINE ( 'NONE', #237, #63 ) ;
#258 = DIRECTION ( 'NONE',  ( -1.000000000000000000, 0.0000000000000000000, 0.0000000000000000000 ) ) ;
#259 = CARTESIAN_POINT ( 'NONE',  ( 0.2212205000000019295, 2.801018282243833685E-17, 3.267717000000000649 ) ) ;
#260 = DIRECTION ( 'NONE',  ( -0.0000000000000000000, -0.0000000000000000000, -1.000000000000000000 ) ) ;
#261 = EDGE_CURVE ( 'NONE', #151, #325, #52, .T. ) ;
#262 = EDGE_LOOP ( 'NONE', ( #221, #310, #298, #250 ) ) ;
#263 = CARTESIAN_POINT ( 'NONE',  ( 0.0000000000000000000, 0.0000000000000000000, 0.0000000000000000000 ) ) ;
#264 = COLOUR_RGB ( '',0.7921568627450980005, 0.8196078431372548767, 0.9333333333333333481 ) ;
#265 = CARTESIAN_POINT ( 'NONE',  ( -0.2212205000000019295, 0.0000000000000000000, 3.267717000000000649 ) ) ;
#266 = DIRECTION ( 'NONE',  ( -0.7071067811865474617, 0.0000000000000000000, -0.7071067811865474617 ) ) ;
#267 = ORIENTED_EDGE ( 'NONE', *, *, #80, .F. ) ;
#268 = DIRECTION ( 'NONE',  ( 1.000000000000000000, 0.0000000000000000000, -0.0000000000000000000 ) ) ;
#269 = ORIENTED_EDGE ( 'NONE', *, *, #44, .F. ) ;
#270 = CARTESIAN_POINT ( 'NONE',  ( -0.007499999999999999722, 1.492051489358176146E-17, 1.707404996040164512E-17 ) ) ;
#271 = CARTESIAN_POINT ( 'NONE',  ( 0.0000000000000000000, 0.0000000000000000000, 1.181102000000000096 ) ) ;
#272 = FACE_OUTER_BOUND ( 'NONE', #185, .T. ) ;
#273 = AXIS2_PLACEMENT_3D ( 'NONE', #245, #243, #319 ) ;
#274 = AXIS2_PLACEMENT_3D ( 'NONE', #271, #47, #149 ) ;
#275 = VERTEX_POINT ( 'NONE', #97 ) ;
#276 = CLOSED_SHELL ( 'NONE', ( #322, #188, #62, #66, #219, #205, #54, #129, #53, #146, #292 ) ) ;
#277 =( NAMED_UNIT ( * ) PLANE_ANGLE_UNIT ( ) SI_UNIT ( $, .RADIAN. ) );
#278 = CARTESIAN_POINT ( 'NONE',  ( 0.0000000000000000000, 0.0000000000000000000, 1.181102000000000096 ) ) ;
#279 = DIMENSIONAL_EXPONENTS ( 1.000000000000000000, 0.0000000000000000000, 0.0000000000000000000, 0.0000000000000000000, 0.0000000000000000000, 0.0000000000000000000, 0.0000000000000000000 ) ;
#280 = CARTESIAN_POINT ( 'NONE',  ( 0.2361705000000000609, 0.0000000000000000000, 0.2286704999999991939 ) ) ;
#281 = APPLICATION_PROTOCOL_DEFINITION ( 'draft international standard', 'automotive_design', 1998, #29 ) ;
#282 = CARTESIAN_POINT ( 'NONE',  ( 0.007499999999999999722, 0.0000000000000000000, 1.707404996040164512E-17 ) ) ;
#283 = ORIENTED_EDGE ( 'NONE', *, *, #175, .F. ) ;
#284 = DIRECTION ( 'NONE',  ( 0.0000000000000000000, 0.0000000000000000000, 1.000000000000000000 ) ) ;
#285 = DIMENSIONAL_EXPONENTS ( 1.000000000000000000, 0.0000000000000000000, 0.0000000000000000000, 0.0000000000000000000, 0.0000000000000000000, 0.0000000000000000000, 0.0000000000000000000 ) ;
#286 = VECTOR ( 'NONE', #49, 39.37007874015748854 ) ;
#287 = UNCERTAINTY_MEASURE_WITH_UNIT (LENGTH_MEASURE( 1.000000000000000082E-05 ), #139, 'distance_accuracy_value', 'NONE');
#288 = LENGTH_MEASURE_WITH_UNIT ( LENGTH_MEASURE( 0.02539999999999999897 ), #213 );
#289 = DIMENSIONAL_EXPONENTS ( 1.000000000000000000, 0.0000000000000000000, 0.0000000000000000000, 0.0000000000000000000, 0.0000000000000000000, 0.0000000000000000000, 0.0000000000000000000 ) ;
#290 = PLANE ( 'NONE',  #70 ) ;
#291 = VERTEX_POINT ( 'NONE', #270 ) ;
#292 = ADVANCED_FACE ( 'NONE', ( #141 ), #138, .F. ) ;
#293 = VERTEX_POINT ( 'NONE', #14 ) ;
#294 = CARTESIAN_POINT ( 'NONE',  ( 0.0000000000000000000, 0.0000000000000000000, 0.2286704999999991939 ) ) ;
#295 = VERTEX_POINT ( 'NONE', #240 ) ;
#296 = SURFACE_STYLE_FILL_AREA ( #150 ) ;
#297 = DIRECTION ( 'NONE',  ( 1.000000000000000000, 0.0000000000000000000, 0.0000000000000000000 ) ) ;
#298 = ORIENTED_EDGE ( 'NONE', *, *, #44, .T. ) ;
#299 = FACE_OUTER_BOUND ( 'NONE', #262, .T. ) ;
#300 = ORIENTED_EDGE ( 'NONE', *, *, #261, .F. ) ;
#301 = DIRECTION ( 'NONE',  ( -0.0000000000000000000, -0.0000000000000000000, -1.000000000000000000 ) ) ;
#302 = CIRCLE ( 'NONE', #115, 0.2361705000000000609 ) ;
#303 = PRESENTATION_STYLE_ASSIGNMENT (( #131 ) ) ;
#304 = AXIS2_PLACEMENT_3D ( 'NONE', #58, #116, #311 ) ;
#305 = COLOUR_RGB ( '',0.7921568627450980005, 0.8196078431372548767, 0.9333333333333333481 ) ;
#306 = EDGE_CURVE ( 'NONE', #42, #317, #257, .T. ) ;
#307 = AXIS2_PLACEMENT_3D ( 'NONE', #155, #132, #110 ) ;
#308 = EDGE_CURVE ( 'NONE', #293, #161, #182, .T. ) ;
#309 = DIRECTION ( 'NONE',  ( 1.000000000000000000, 0.0000000000000000000, 0.0000000000000000000 ) ) ;
#310 = ORIENTED_EDGE ( 'NONE', *, *, #246, .T. ) ;
#311 = DIRECTION ( 'NONE',  ( -1.000000000000000000, 0.0000000000000000000, 0.0000000000000000000 ) ) ;
#312 = ORIENTED_EDGE ( 'NONE', *, *, #117, .T. ) ;
#313 = CIRCLE ( 'NONE', #30, 0.2361705000000000609 ) ;
#314 = STYLED_ITEM ( 'NONE', ( #303 ), #232 ) ;
#315 = DIRECTION ( 'NONE',  ( -0.0000000000000000000, -0.0000000000000000000, -1.000000000000000000 ) ) ;
#316 = EDGE_CURVE ( 'NONE', #325, #151, #40, .T. ) ;
#317 = VERTEX_POINT ( 'NONE', #11 ) ;
#318 = DIRECTION ( 'NONE',  ( -1.000000000000000000, 0.0000000000000000000, 0.0000000000000000000 ) ) ;
#319 = DIRECTION ( 'NONE',  ( -1.000000000000000000, 0.0000000000000000000, 0.0000000000000000000 ) ) ;
#320 = PRODUCT ( 'Micro_DMM-120-290X', 'Micro_DMM-120-290X', '', ( #154 ) ) ;
#321 = ORIENTED_EDGE ( 'NONE', *, *, #80, .T. ) ;
#322 = ADVANCED_FACE ( 'NONE', ( #59 ), #140, .T. ) ;
#323 = CARTESIAN_POINT ( 'NONE',  ( -0.2212205000000019295, 0.0000000000000000000, 3.267717000000000649 ) ) ;
#324 = DIRECTION ( 'NONE',  ( -0.0000000000000000000, -0.0000000000000000000, -1.000000000000000000 ) ) ;
#325 = VERTEX_POINT ( 'NONE', #34 ) ;
#326 = EDGE_CURVE ( 'NONE', #254, #161, #189, .T. ) ;
#327 = CARTESIAN_POINT ( 'NONE',  ( 0.0000000000000000000, 0.0000000000000000000, 1.707404996040164512E-17 ) ) ;
#328 = STYLED_ITEM ( 'NONE', ( #105 ), #43 ) ;
#329 = LINE ( 'NONE', #133, #236 ) ;
ENDSEC;
END-ISO-10303-21;
