ISO-10303-21;
HEADER;
FILE_DESCRIPTION (( 'STEP AP214' ),
    '1' );
FILE_NAME ('59835.STEP',
    '2023-06-22T22:58:27',
    ( '' ),
    ( '' ),
    'SwSTEP 2.0',
    'SolidWorks 2023',
    '' );
FILE_SCHEMA (( 'AUTOMOTIVE_DESIGN' ));
ENDSEC;

DATA;
#1 = ADVANCED_FACE ( 'NONE', ( #196 ), #41, .T. ) ;
#2 = DIRECTION ( 'NONE',  ( 0.000000000000000000, 1.000000000000000000, 0.000000000000000000 ) ) ;
#3 = EDGE_CURVE ( 'NONE', #305, #232, #222, .T. ) ;
#4 = COLOUR_RGB ( '',1.000000000000000000, 0.000000000000000000, 0.000000000000000000 ) ;
#5 = PRESENTATION_LAYER_ASSIGNMENT (  '', '', ( #34 ) ) ;
#6 =( LENGTH_UNIT ( ) NAMED_UNIT ( * ) SI_UNIT ( $, .METRE. ) );
#7 = DIRECTION ( 'NONE',  ( 0.000000000000000000, 0.000000000000000000, -1.000000000000000000 ) ) ;
#8 = DIRECTION ( 'NONE',  ( 0.000000000000000000, 0.000000000000000000, 1.000000000000000000 ) ) ;
#9 = ORIENTED_EDGE ( 'NONE', *, *, #178, .T. ) ;
#10 = UNCERTAINTY_MEASURE_WITH_UNIT (LENGTH_MEASURE( 1.000000000000000082E-05 ), #95, 'distance_accuracy_value', 'NONE');
#11 = CARTESIAN_POINT ( 'NONE',  ( -0.09375000000000013878, 2.500000000000000000, 0.000000000000000000 ) ) ;
#12 = ADVANCED_FACE ( 'NONE', ( #72 ), #241, .F. ) ;
#13 = DIRECTION ( 'NONE',  ( -3.160378836509298460E-17, 1.000000000000000000, -0.000000000000000000 ) ) ;
#14 =( LENGTH_UNIT ( ) NAMED_UNIT ( * ) SI_UNIT ( $, .METRE. ) );
#15 = PRESENTATION_STYLE_ASSIGNMENT (( #59 ) ) ;
#16 = CARTESIAN_POINT ( 'NONE',  ( -6.123233995736766036E-17, 2.500000000000000000, 0.000000000000000000 ) ) ;
#17 = FILL_AREA_STYLE_COLOUR ( '', #291 ) ;
#18 = PRODUCT_CONTEXT ( 'NONE', #80, 'mechanical' ) ;
#19 = ORIENTED_EDGE ( 'NONE', *, *, #146, .F. ) ;
#20 = ORIENTED_EDGE ( 'NONE', *, *, #178, .F. ) ;
#21 = CIRCLE ( 'NONE', #101, 0.09375000000000001388 ) ;
#22 = ORIENTED_EDGE ( 'NONE', *, *, #23, .F. ) ;
#23 = EDGE_CURVE ( 'NONE', #166, #147, #28, .T. ) ;
#24 = SURFACE_SIDE_STYLE ('',( #194 ) ) ;
#25 =( GEOMETRIC_REPRESENTATION_CONTEXT ( 3 ) GLOBAL_UNCERTAINTY_ASSIGNED_CONTEXT ( ( #207 ) ) GLOBAL_UNIT_ASSIGNED_CONTEXT ( ( #299, #88, #30 ) ) REPRESENTATION_CONTEXT ( 'NONE', 'WORKASPACE' ) );
#26 =( CONVERSION_BASED_UNIT ( 'INCH', #203 ) LENGTH_UNIT ( ) NAMED_UNIT ( #214 ) );
#27 = ADVANCED_FACE ( 'NONE', ( #69 ), #239, .F. ) ;
#28 = CIRCLE ( 'NONE', #269, 0.09375000000000001388 ) ;
#29 = LENGTH_MEASURE_WITH_UNIT ( LENGTH_MEASURE( 0.02539999999999999897 ), #155 );
#30 =( NAMED_UNIT ( * ) SI_UNIT ( $, .STERADIAN. ) SOLID_ANGLE_UNIT ( ) );
#31 = FACE_OUTER_BOUND ( 'NONE', #255, .T. ) ;
#32 =( GEOMETRIC_REPRESENTATION_CONTEXT ( 3 ) GLOBAL_UNCERTAINTY_ASSIGNED_CONTEXT ( ( #258 ) ) GLOBAL_UNIT_ASSIGNED_CONTEXT ( ( #26, #128, #286 ) ) REPRESENTATION_CONTEXT ( 'NONE', 'WORKASPACE' ) );
#33 = ORIENTED_EDGE ( 'NONE', *, *, #280, .F. ) ;
#34 = STYLED_ITEM ( 'NONE', ( #35 ), #193 ) ;
#35 = PRESENTATION_STYLE_ASSIGNMENT (( #209 ) ) ;
#36 = APPLICATION_PROTOCOL_DEFINITION ( 'draft international standard', 'automotive_design', 1998, #80 ) ;
#37 = ORIENTED_EDGE ( 'NONE', *, *, #146, .T. ) ;
#38 = CARTESIAN_POINT ( 'NONE',  ( 0.09375000000000001388, 2.500000000000000000, 0.000000000000000000 ) ) ;
#39 = LENGTH_MEASURE_WITH_UNIT ( LENGTH_MEASURE( 0.02539999999999999897 ), #121 );
#40 = ORIENTED_EDGE ( 'NONE', *, *, #83, .F. ) ;
#41 = CYLINDRICAL_SURFACE ( 'NONE', #110, 0.09375000000000001388 ) ;
#42 = EDGE_CURVE ( 'NONE', #143, #147, #173, .T. ) ;
#43 = LENGTH_MEASURE_WITH_UNIT ( LENGTH_MEASURE( 0.02539999999999999897 ), #6 );
#44 = ORIENTED_EDGE ( 'NONE', *, *, #103, .F. ) ;
#45 = PRESENTATION_STYLE_ASSIGNMENT (( #97 ) ) ;
#46 = FILL_AREA_STYLE ('',( #68 ) ) ;
#47 =( GEOMETRIC_REPRESENTATION_CONTEXT ( 3 ) GLOBAL_UNCERTAINTY_ASSIGNED_CONTEXT ( ( #284 ) ) GLOBAL_UNIT_ASSIGNED_CONTEXT ( ( #161, #112, #61 ) ) REPRESENTATION_CONTEXT ( 'NONE', 'WORKASPACE' ) );
#48 = DIRECTION ( 'NONE',  ( -0.000000000000000000, -1.000000000000000000, -0.000000000000000000 ) ) ;
#49 = STYLED_ITEM ( 'NONE', ( #78 ), #114 ) ;
#50 = PRESENTATION_STYLE_ASSIGNMENT (( #98 ) ) ;
#51 = DIMENSIONAL_EXPONENTS ( 1.000000000000000000, 0.000000000000000000, 0.000000000000000000, 0.000000000000000000, 0.000000000000000000, 0.000000000000000000, 0.000000000000000000 ) ;
#52 = APPLICATION_CONTEXT ( 'automotive_design' ) ;
#53 = SHAPE_DEFINITION_REPRESENTATION ( #260, #240 ) ;
#54 = ORIENTED_EDGE ( 'NONE', *, *, #55, .F. ) ;
#55 = EDGE_CURVE ( 'NONE', #265, #166, #117, .T. ) ;
#56 = PRODUCT_DEFINITION_FORMATION_WITH_SPECIFIED_SOURCE ( 'ANY', '', #308, .NOT_KNOWN. ) ;
#57 = AXIS2_PLACEMENT_3D ( 'NONE', #197, #285, #150 ) ;
#58 = LINE ( 'NONE', #236, #118 ) ;
#59 = SURFACE_STYLE_USAGE ( .BOTH. , #234 ) ;
#60 = CARTESIAN_POINT ( 'NONE',  ( -6.123233995736766036E-17, 2.500000000000000000, 0.000000000000000000 ) ) ;
#61 =( NAMED_UNIT ( * ) SI_UNIT ( $, .STERADIAN. ) SOLID_ANGLE_UNIT ( ) );
#62 = EDGE_LOOP ( 'NONE', ( #40, #94 ) ) ;
#63 = CARTESIAN_POINT ( 'NONE',  ( 0.000000000000000000, 0.5625000000000000000, 0.000000000000000000 ) ) ;
#64 = SURFACE_STYLE_FILL_AREA ( #229 ) ;
#65 = VECTOR ( 'NONE', #243, 39.37007874015748143 ) ;
#66 = AXIS2_PLACEMENT_3D ( 'NONE', #63, #2, #81 ) ;
#67 = DIRECTION ( 'NONE',  ( -1.000000000000000000, 0.000000000000000000, 0.000000000000000000 ) ) ;
#68 = FILL_AREA_STYLE_COLOUR ( '', #176 ) ;
#69 = FACE_OUTER_BOUND ( 'NONE', #210, .T. ) ;
#70 = UNCERTAINTY_MEASURE_WITH_UNIT (LENGTH_MEASURE( 1.000000000000000082E-05 ), #201, 'distance_accuracy_value', 'NONE');
#71 = CLOSED_SHELL ( 'NONE', ( #140, #27, #120, #12 ) ) ;
#72 = FACE_OUTER_BOUND ( 'NONE', #249, .T. ) ;
#73 = CARTESIAN_POINT ( 'NONE',  ( 0.000000000000000000, 0.5625000000000001110, 0.000000000000000000 ) ) ;
#74 = AXIS2_PLACEMENT_3D ( 'NONE', #297, #141, #7 ) ;
#75 =( GEOMETRIC_REPRESENTATION_CONTEXT ( 3 ) GLOBAL_UNCERTAINTY_ASSIGNED_CONTEXT ( ( #70 ) ) GLOBAL_UNIT_ASSIGNED_CONTEXT ( ( #201, #154, #225 ) ) REPRESENTATION_CONTEXT ( 'NONE', 'WORKASPACE' ) );
#76 = ORIENTED_EDGE ( 'NONE', *, *, #280, .T. ) ;
#77 = ADVANCED_FACE ( 'NONE', ( #123 ), #303, .T. ) ;
#78 = PRESENTATION_STYLE_ASSIGNMENT (( #158 ) ) ;
#79 = PRESENTATION_STYLE_ASSIGNMENT (( #99 ) ) ;
#80 = APPLICATION_CONTEXT ( 'automotive_design' ) ;
#81 = DIRECTION ( 'NONE',  ( 0.000000000000000000, -0.000000000000000000, 1.000000000000000000 ) ) ;
#82 = CARTESIAN_POINT ( 'NONE',  ( 0.000000000000000000, 0.000000000000000000, 0.000000000000000000 ) ) ;
#83 = EDGE_CURVE ( 'NONE', #143, #265, #152, .T. ) ;
#84 = DIRECTION ( 'NONE',  ( -1.000000000000000000, 0.000000000000000000, 0.000000000000000000 ) ) ;
#85 = MECHANICAL_DESIGN_GEOMETRIC_PRESENTATION_REPRESENTATION (  '', ( #127 ), #47 ) ;
#86 = VECTOR ( 'NONE', #149, 39.37007874015748143 ) ;
#87 = ORIENTED_EDGE ( 'NONE', *, *, #83, .T. ) ;
#88 =( NAMED_UNIT ( * ) PLANE_ANGLE_UNIT ( ) SI_UNIT ( $, .RADIAN. ) );
#89 =( NAMED_UNIT ( * ) PLANE_ANGLE_UNIT ( ) SI_UNIT ( $, .RADIAN. ) );
#90 = COLOUR_RGB ( '',1.000000000000000000, 0.000000000000000000, 0.000000000000000000 ) ;
#91 = AXIS2_PLACEMENT_3D ( 'NONE', #215, #8, #300 ) ;
#92 = FILL_AREA_STYLE ('',( #218 ) ) ;
#93 = DIRECTION ( 'NONE',  ( 1.000000000000000000, 3.160378836509298460E-17, 0.000000000000000000 ) ) ;
#94 = ORIENTED_EDGE ( 'NONE', *, *, #233, .F. ) ;
#95 =( CONVERSION_BASED_UNIT ( 'INCH', #39 ) LENGTH_UNIT ( ) NAMED_UNIT ( #279 ) );
#96 = AXIS2_PLACEMENT_3D ( 'NONE', #200, #48, #246 ) ;
#97 = SURFACE_STYLE_USAGE ( .BOTH. , #220 ) ;
#98 = SURFACE_STYLE_USAGE ( .BOTH. , #24 ) ;
#99 = SURFACE_STYLE_USAGE ( .BOTH. , #248 ) ;
#100 = FACE_OUTER_BOUND ( 'NONE', #264, .T. ) ;
#101 = AXIS2_PLACEMENT_3D ( 'NONE', #247, #130, #289 ) ;
#102 = CIRCLE ( 'NONE', #302, 0.09375000000000001388 ) ;
#103 = EDGE_CURVE ( 'NONE', #147, #166, #21, .T. ) ;
#104 = LENGTH_MEASURE_WITH_UNIT ( LENGTH_MEASURE( 0.02539999999999999897 ), #213 );
#105 = DIRECTION ( 'NONE',  ( -3.160378836509298460E-17, 1.000000000000000000, -0.000000000000000000 ) ) ;
#106 = EDGE_LOOP ( 'NONE', ( #54, #219, #298, #22 ) ) ;
#107 = LINE ( 'NONE', #208, #231 ) ;
#108 = LENGTH_MEASURE_WITH_UNIT ( LENGTH_MEASURE( 0.02539999999999999897 ), #14 );
#109 = SURFACE_STYLE_FILL_AREA ( #46 ) ;
#110 = AXIS2_PLACEMENT_3D ( 'NONE', #151, #192, #124 ) ;
#111 = CARTESIAN_POINT ( 'NONE',  ( 0.000000000000000000, 0.000000000000000000, -0.09375000000000001388 ) ) ;
#112 =( NAMED_UNIT ( * ) PLANE_ANGLE_UNIT ( ) SI_UNIT ( $, .RADIAN. ) );
#113 = ORIENTED_EDGE ( 'NONE', *, *, #3, .T. ) ;
#114 = ADVANCED_FACE ( 'NONE', ( #100 ), #153, .T. ) ;
#115 = SURFACE_SIDE_STYLE ('',( #64 ) ) ;
#116 = ORIENTED_EDGE ( 'NONE', *, *, #103, .T. ) ;
#117 = LINE ( 'NONE', #217, #65 ) ;
#118 = VECTOR ( 'NONE', #163, 39.37007874015748143 ) ;
#119 = DIRECTION ( 'NONE',  ( -3.160378836509298460E-17, 1.000000000000000000, -0.000000000000000000 ) ) ;
#120 = ADVANCED_FACE ( 'NONE', ( #31 ), #187, .T. ) ;
#121 =( LENGTH_UNIT ( ) NAMED_UNIT ( * ) SI_UNIT ( $, .METRE. ) );
#122 = EDGE_LOOP ( 'NONE', ( #113, #76, #20, #19 ) ) ;
#123 = FACE_OUTER_BOUND ( 'NONE', #148, .T. ) ;
#124 = DIRECTION ( 'NONE',  ( 0.000000000000000000, 0.000000000000000000, -1.000000000000000000 ) ) ;
#125 = COLOUR_RGB ( '',1.000000000000000000, 0.000000000000000000, 0.000000000000000000 ) ;
#126 = DIRECTION ( 'NONE',  ( -0.000000000000000000, -1.000000000000000000, -0.000000000000000000 ) ) ;
#127 = STYLED_ITEM ( 'NONE', ( #79 ), #288 ) ;
#128 =( NAMED_UNIT ( * ) PLANE_ANGLE_UNIT ( ) SI_UNIT ( $, .RADIAN. ) );
#129 = MECHANICAL_DESIGN_GEOMETRIC_PRESENTATION_REPRESENTATION (  '', ( #34 ), #293 ) ;
#130 = DIRECTION ( 'NONE',  ( -0.000000000000000000, -1.000000000000000000, -0.000000000000000000 ) ) ;
#131 =( LENGTH_UNIT ( ) NAMED_UNIT ( * ) SI_UNIT ( $, .METRE. ) );
#132 = CARTESIAN_POINT ( 'NONE',  ( 0.09375000000000001388, 0.5625000000000001110, 1.148106374200644325E-17 ) ) ;
#133 = CARTESIAN_POINT ( 'NONE',  ( 1.148106374200643863E-17, 0.000000000000000000, 0.09375000000000001388 ) ) ;
#134 = PRODUCT_DEFINITION ( 'UNKNOWN', '', #56, #145 ) ;
#135 = AXIS2_PLACEMENT_3D ( 'NONE', #60, #13, #238 ) ;
#136 = VERTEX_POINT ( 'NONE', #206 ) ;
#137 = DIRECTION ( 'NONE',  ( -0.000000000000000000, -1.000000000000000000, -0.000000000000000000 ) ) ;
#138 = DIRECTION ( 'NONE',  ( -1.000000000000000000, 0.000000000000000000, 0.000000000000000000 ) ) ;
#139 = FACE_OUTER_BOUND ( 'NONE', #62, .T. ) ;
#140 = ADVANCED_FACE ( 'NONE', ( #184 ), #160, .T. ) ;
#141 = DIRECTION ( 'NONE',  ( -0.000000000000000000, -1.000000000000000000, -0.000000000000000000 ) ) ;
#142 = DIRECTION ( 'NONE',  ( -3.160378836509298460E-17, 1.000000000000000000, -0.000000000000000000 ) ) ;
#143 = VERTEX_POINT ( 'NONE', #273 ) ;
#144 = CARTESIAN_POINT ( 'NONE',  ( 0.000000000000000000, 0.000000000000000000, -0.09375000000000001388 ) ) ;
#145 = PRODUCT_DEFINITION_CONTEXT ( 'detailed design', #52, 'design' ) ;
#146 = EDGE_CURVE ( 'NONE', #305, #272, #58, .T. ) ;
#147 = VERTEX_POINT ( 'NONE', #111 ) ;
#148 = EDGE_LOOP ( 'NONE', ( #116, #189 ) ) ;
#149 = DIRECTION ( 'NONE',  ( -0.000000000000000000, -1.000000000000000000, -0.000000000000000000 ) ) ;
#150 = DIRECTION ( 'NONE',  ( -1.000000000000000000, -3.160378836509298460E-17, 0.000000000000000000 ) ) ;
#151 = CARTESIAN_POINT ( 'NONE',  ( 0.000000000000000000, 0.000000000000000000, 0.000000000000000000 ) ) ;
#152 = CIRCLE ( 'NONE', #96, 0.09375000000000001388 ) ;
#153 = CYLINDRICAL_SURFACE ( 'NONE', #74, 0.09375000000000001388 ) ;
#154 =( NAMED_UNIT ( * ) PLANE_ANGLE_UNIT ( ) SI_UNIT ( $, .RADIAN. ) );
#155 =( LENGTH_UNIT ( ) NAMED_UNIT ( * ) SI_UNIT ( $, .METRE. ) );
#156 =( NAMED_UNIT ( * ) PLANE_ANGLE_UNIT ( ) SI_UNIT ( $, .RADIAN. ) );
#157 = AXIS2_PLACEMENT_3D ( 'NONE', #38, #172, #93 ) ;
#158 = SURFACE_STYLE_USAGE ( .BOTH. , #180 ) ;
#159 = DIRECTION ( 'NONE',  ( 0.000000000000000000, 0.000000000000000000, -1.000000000000000000 ) ) ;
#160 = CYLINDRICAL_SURFACE ( 'NONE', #169, 0.09375000000000004163 ) ;
#161 =( CONVERSION_BASED_UNIT ( 'INCH', #104 ) LENGTH_UNIT ( ) NAMED_UNIT ( #164 ) );
#162 = AXIS2_PLACEMENT_3D ( 'NONE', #82, #179, #268 ) ;
#163 = DIRECTION ( 'NONE',  ( -3.160378836509298460E-17, 1.000000000000000000, -0.000000000000000000 ) ) ;
#164 = DIMENSIONAL_EXPONENTS ( 1.000000000000000000, 0.000000000000000000, 0.000000000000000000, 0.000000000000000000, 0.000000000000000000, 0.000000000000000000, 0.000000000000000000 ) ;
#165 = FILL_AREA_STYLE_COLOUR ( '', #90 ) ;
#166 = VERTEX_POINT ( 'NONE', #133 ) ;
#167 =( CONVERSION_BASED_UNIT ( 'INCH', #108 ) LENGTH_UNIT ( ) NAMED_UNIT ( #190 ) );
#168 = ORIENTED_EDGE ( 'NONE', *, *, #227, .F. ) ;
#169 = AXIS2_PLACEMENT_3D ( 'NONE', #274, #142, #251 ) ;
#170 = AXIS2_PLACEMENT_3D ( 'NONE', #73, #282, #67 ) ;
#171 = PRESENTATION_LAYER_ASSIGNMENT (  '', '', ( #127 ) ) ;
#172 = DIRECTION ( 'NONE',  ( 3.160378836509298460E-17, -1.000000000000000000, 0.000000000000000000 ) ) ;
#173 = LINE ( 'NONE', #144, #86 ) ;
#174 =( NAMED_UNIT ( * ) SI_UNIT ( $, .STERADIAN. ) SOLID_ANGLE_UNIT ( ) );
#175 = EDGE_CURVE ( 'NONE', #136, #272, #256, .T. ) ;
#176 = COLOUR_RGB ( '',0.7921568627450980005, 0.8196078431372548767, 0.9333333333333333481 ) ;
#177 = CIRCLE ( 'NONE', #135, 0.09375000000000006939 ) ;
#178 = EDGE_CURVE ( 'NONE', #272, #136, #177, .T. ) ;
#179 = DIRECTION ( 'NONE',  ( 0.000000000000000000, -1.000000000000000000, -0.000000000000000000 ) ) ;
#180 = SURFACE_SIDE_STYLE ('',( #290 ) ) ;
#181 = STYLED_ITEM ( 'NONE', ( #50 ), #77 ) ;
#182 =( LENGTH_UNIT ( ) NAMED_UNIT ( * ) SI_UNIT ( $, .METRE. ) );
#183 = CARTESIAN_POINT ( 'NONE',  ( 0.000000000000000000, 0.5625000000000001110, 0.000000000000000000 ) ) ;
#184 = FACE_OUTER_BOUND ( 'NONE', #122, .T. ) ;
#185 = MECHANICAL_DESIGN_GEOMETRIC_PRESENTATION_REPRESENTATION (  '', ( #267 ), #25 ) ;
#186 = PRESENTATION_LAYER_ASSIGNMENT (  '', '', ( #266 ) ) ;
#187 = CYLINDRICAL_SURFACE ( 'NONE', #253, 0.09375000000000004163 ) ;
#188 = PRODUCT_RELATED_PRODUCT_CATEGORY ( 'part', '', ( #308 ) ) ;
#189 = ORIENTED_EDGE ( 'NONE', *, *, #23, .T. ) ;
#190 = DIMENSIONAL_EXPONENTS ( 1.000000000000000000, 0.000000000000000000, 0.000000000000000000, 0.000000000000000000, 0.000000000000000000, 0.000000000000000000, 0.000000000000000000 ) ;
#191 = FILL_AREA_STYLE_COLOUR ( '', #125 ) ;
#192 = DIRECTION ( 'NONE',  ( -0.000000000000000000, -1.000000000000000000, -0.000000000000000000 ) ) ;
#193 = MANIFOLD_SOLID_BREP ( 'Revolve - Cutting Edge', #292 ) ;
#194 = SURFACE_STYLE_FILL_AREA ( #92 ) ;
#195 = ADVANCED_FACE ( 'NONE', ( #139 ), #275, .T. ) ;
#196 = FACE_OUTER_BOUND ( 'NONE', #106, .T. ) ;
#197 = CARTESIAN_POINT ( 'NONE',  ( 4.681872370432437776E-35, 0.5625000000000000000, 0.000000000000000000 ) ) ;
#198 =( GEOMETRIC_REPRESENTATION_CONTEXT ( 3 ) GLOBAL_UNCERTAINTY_ASSIGNED_CONTEXT ( ( #242 ) ) GLOBAL_UNIT_ASSIGNED_CONTEXT ( ( #167, #89, #271 ) ) REPRESENTATION_CONTEXT ( 'NONE', 'WORKASPACE' ) );
#199 = MECHANICAL_DESIGN_GEOMETRIC_PRESENTATION_REPRESENTATION (  '', ( #49 ), #32 ) ;
#200 = CARTESIAN_POINT ( 'NONE',  ( 0.000000000000000000, 0.5625000000000000000, 0.000000000000000000 ) ) ;
#201 =( CONVERSION_BASED_UNIT ( 'INCH', #29 ) LENGTH_UNIT ( ) NAMED_UNIT ( #307 ) );
#202 = AXIS2_PLACEMENT_3D ( 'NONE', #296, #137, #159 ) ;
#203 = LENGTH_MEASURE_WITH_UNIT ( LENGTH_MEASURE( 0.02539999999999999897 ), #131 );
#204 =( GEOMETRIC_REPRESENTATION_CONTEXT ( 3 ) GLOBAL_UNCERTAINTY_ASSIGNED_CONTEXT ( ( #10 ) ) GLOBAL_UNIT_ASSIGNED_CONTEXT ( ( #95, #304, #174 ) ) REPRESENTATION_CONTEXT ( 'NONE', 'WORKASPACE' ) );
#205 = SURFACE_STYLE_FILL_AREA ( #237 ) ;
#206 = CARTESIAN_POINT ( 'NONE',  ( 0.09375000000000001388, 2.500000000000000000, 1.148106374200644325E-17 ) ) ;
#207 = UNCERTAINTY_MEASURE_WITH_UNIT (LENGTH_MEASURE( 1.000000000000000082E-05 ), #299, 'distance_accuracy_value', 'NONE');
#208 = CARTESIAN_POINT ( 'NONE',  ( 0.09374999999999997224, 2.500000000000000000, 1.148106374200644171E-17 ) ) ;
#209 = SURFACE_STYLE_USAGE ( .BOTH. , #115 ) ;
#210 = EDGE_LOOP ( 'NONE', ( #261, #168 ) ) ;
#211 = MECHANICAL_DESIGN_GEOMETRIC_PRESENTATION_REPRESENTATION (  '', ( #266 ), #204 ) ;
#212 = CARTESIAN_POINT ( 'NONE',  ( -6.123233995736766036E-17, 2.500000000000000000, 0.000000000000000000 ) ) ;
#213 =( LENGTH_UNIT ( ) NAMED_UNIT ( * ) SI_UNIT ( $, .METRE. ) );
#214 = DIMENSIONAL_EXPONENTS ( 1.000000000000000000, 0.000000000000000000, 0.000000000000000000, 0.000000000000000000, 0.000000000000000000, 0.000000000000000000, 0.000000000000000000 ) ;
#215 = CARTESIAN_POINT ( 'NONE',  ( 0.000000000000000000, 0.000000000000000000, 0.000000000000000000 ) ) ;
#216 = ORIENTED_EDGE ( 'NONE', *, *, #175, .T. ) ;
#217 = CARTESIAN_POINT ( 'NONE',  ( 1.148106374200643863E-17, 0.000000000000000000, 0.09375000000000001388 ) ) ;
#218 = FILL_AREA_STYLE_COLOUR ( '', #245 ) ;
#219 = ORIENTED_EDGE ( 'NONE', *, *, #233, .T. ) ;
#220 = SURFACE_SIDE_STYLE ('',( #306 ) ) ;
#221 = PRESENTATION_LAYER_ASSIGNMENT (  '', '', ( #267 ) ) ;
#222 = CIRCLE ( 'NONE', #170, 0.09375000000000001388 ) ;
#223 = DIRECTION ( 'NONE',  ( 0.000000000000000000, 0.000000000000000000, -1.000000000000000000 ) ) ;
#224 = AXIS2_PLACEMENT_3D ( 'NONE', #212, #276, #138 ) ;
#225 =( NAMED_UNIT ( * ) SI_UNIT ( $, .STERADIAN. ) SOLID_ANGLE_UNIT ( ) );
#226 = FILL_AREA_STYLE_COLOUR ( '', #4 ) ;
#227 = EDGE_CURVE ( 'NONE', #232, #305, #102, .T. ) ;
#228 =( NAMED_UNIT ( * ) SI_UNIT ( $, .STERADIAN. ) SOLID_ANGLE_UNIT ( ) );
#229 = FILL_AREA_STYLE ('',( #17 ) ) ;
#230 = PRESENTATION_LAYER_ASSIGNMENT (  '', '', ( #49 ) ) ;
#231 = VECTOR ( 'NONE', #119, 39.37007874015748143 ) ;
#232 = VERTEX_POINT ( 'NONE', #132 ) ;
#233 = EDGE_CURVE ( 'NONE', #265, #143, #262, .T. ) ;
#234 = SURFACE_SIDE_STYLE ('',( #205 ) ) ;
#235 = ORIENTED_EDGE ( 'NONE', *, *, #175, .F. ) ;
#236 = CARTESIAN_POINT ( 'NONE',  ( -0.09375000000000011102, 2.500000000000000000, 0.000000000000000000 ) ) ;
#237 = FILL_AREA_STYLE ('',( #165 ) ) ;
#238 = DIRECTION ( 'NONE',  ( -1.000000000000000000, 0.000000000000000000, 0.000000000000000000 ) ) ;
#239 = PLANE ( 'NONE',  #57 ) ;
#240 = ADVANCED_BREP_SHAPE_REPRESENTATION ( '59835', ( #193, #288, #91 ), #198 ) ;
#241 = PLANE ( 'NONE',  #157 ) ;
#242 = UNCERTAINTY_MEASURE_WITH_UNIT (LENGTH_MEASURE( 1.000000000000000082E-05 ), #167, 'distance_accuracy_value', 'NONE');
#243 = DIRECTION ( 'NONE',  ( -0.000000000000000000, -1.000000000000000000, -0.000000000000000000 ) ) ;
#244 = FILL_AREA_STYLE ('',( #191 ) ) ;
#245 = COLOUR_RGB ( '',1.000000000000000000, 0.000000000000000000, 0.000000000000000000 ) ;
#246 = DIRECTION ( 'NONE',  ( 0.000000000000000000, 0.000000000000000000, -1.000000000000000000 ) ) ;
#247 = CARTESIAN_POINT ( 'NONE',  ( 0.000000000000000000, 0.000000000000000000, 0.000000000000000000 ) ) ;
#248 = SURFACE_SIDE_STYLE ('',( #109 ) ) ;
#249 = EDGE_LOOP ( 'NONE', ( #9, #216 ) ) ;
#250 = CARTESIAN_POINT ( 'NONE',  ( 1.148106374200643863E-17, 0.5625000000000000000, 0.09375000000000001388 ) ) ;
#251 = DIRECTION ( 'NONE',  ( -1.000000000000000000, 0.000000000000000000, 0.000000000000000000 ) ) ;
#252 = DIRECTION ( 'NONE',  ( -1.000000000000000000, 0.000000000000000000, 0.000000000000000000 ) ) ;
#253 = AXIS2_PLACEMENT_3D ( 'NONE', #16, #105, #84 ) ;
#254 = ORIENTED_EDGE ( 'NONE', *, *, #55, .T. ) ;
#255 = EDGE_LOOP ( 'NONE', ( #33, #283, #37, #235 ) ) ;
#256 = CIRCLE ( 'NONE', #224, 0.09375000000000006939 ) ;
#257 =( CONVERSION_BASED_UNIT ( 'INCH', #43 ) LENGTH_UNIT ( ) NAMED_UNIT ( #278 ) );
#258 = UNCERTAINTY_MEASURE_WITH_UNIT (LENGTH_MEASURE( 1.000000000000000082E-05 ), #26, 'distance_accuracy_value', 'NONE');
#259 = CARTESIAN_POINT ( 'NONE',  ( 0.000000000000000000, 0.000000000000000000, 0.000000000000000000 ) ) ;
#260 = PRODUCT_DEFINITION_SHAPE ( 'NONE', 'NONE',  #134 ) ;
#261 = ORIENTED_EDGE ( 'NONE', *, *, #3, .F. ) ;
#262 = CIRCLE ( 'NONE', #202, 0.09375000000000001388 ) ;
#263 = MECHANICAL_DESIGN_GEOMETRIC_PRESENTATION_REPRESENTATION (  '', ( #181 ), #75 ) ;
#264 = EDGE_LOOP ( 'NONE', ( #87, #254, #44, #281 ) ) ;
#265 = VERTEX_POINT ( 'NONE', #250 ) ;
#266 = STYLED_ITEM ( 'NONE', ( #45 ), #1 ) ;
#267 = STYLED_ITEM ( 'NONE', ( #15 ), #195 ) ;
#268 = DIRECTION ( 'NONE',  ( 0.000000000000000000, 0.000000000000000000, -1.000000000000000000 ) ) ;
#269 = AXIS2_PLACEMENT_3D ( 'NONE', #259, #126, #223 ) ;
#270 = DIRECTION ( 'NONE',  ( -3.160378836509298460E-17, 1.000000000000000000, -0.000000000000000000 ) ) ;
#271 =( NAMED_UNIT ( * ) SI_UNIT ( $, .STERADIAN. ) SOLID_ANGLE_UNIT ( ) );
#272 = VERTEX_POINT ( 'NONE', #11 ) ;
#273 = CARTESIAN_POINT ( 'NONE',  ( 0.000000000000000000, 0.5625000000000000000, -0.09375000000000001388 ) ) ;
#274 = CARTESIAN_POINT ( 'NONE',  ( -6.123233995736766036E-17, 2.500000000000000000, 0.000000000000000000 ) ) ;
#275 = PLANE ( 'NONE',  #66 ) ;
#276 = DIRECTION ( 'NONE',  ( -3.160378836509298460E-17, 1.000000000000000000, -0.000000000000000000 ) ) ;
#277 = CARTESIAN_POINT ( 'NONE',  ( -0.09375000000000001388, 0.5625000000000001110, 0.000000000000000000 ) ) ;
#278 = DIMENSIONAL_EXPONENTS ( 1.000000000000000000, 0.000000000000000000, 0.000000000000000000, 0.000000000000000000, 0.000000000000000000, 0.000000000000000000, 0.000000000000000000 ) ;
#279 = DIMENSIONAL_EXPONENTS ( 1.000000000000000000, 0.000000000000000000, 0.000000000000000000, 0.000000000000000000, 0.000000000000000000, 0.000000000000000000, 0.000000000000000000 ) ;
#280 = EDGE_CURVE ( 'NONE', #232, #136, #107, .T. ) ;
#281 = ORIENTED_EDGE ( 'NONE', *, *, #42, .F. ) ;
#282 = DIRECTION ( 'NONE',  ( -3.160378836509298460E-17, 1.000000000000000000, -0.000000000000000000 ) ) ;
#283 = ORIENTED_EDGE ( 'NONE', *, *, #227, .T. ) ;
#284 = UNCERTAINTY_MEASURE_WITH_UNIT (LENGTH_MEASURE( 1.000000000000000082E-05 ), #161, 'distance_accuracy_value', 'NONE');
#285 = DIRECTION ( 'NONE',  ( -3.160378836509298460E-17, 1.000000000000000000, 0.000000000000000000 ) ) ;
#286 =( NAMED_UNIT ( * ) SI_UNIT ( $, .STERADIAN. ) SOLID_ANGLE_UNIT ( ) );
#287 = PRESENTATION_LAYER_ASSIGNMENT (  '', '', ( #181 ) ) ;
#288 = MANIFOLD_SOLID_BREP ( 'Revolve - Tool Body (Straight Shanked)', #71 ) ;
#289 = DIRECTION ( 'NONE',  ( 0.000000000000000000, 0.000000000000000000, -1.000000000000000000 ) ) ;
#290 = SURFACE_STYLE_FILL_AREA ( #309 ) ;
#291 = COLOUR_RGB ( '',0.7921568627450980005, 0.8196078431372548767, 0.9333333333333333481 ) ;
#292 = CLOSED_SHELL ( 'NONE', ( #114, #195, #1, #77 ) ) ;
#293 =( GEOMETRIC_REPRESENTATION_CONTEXT ( 3 ) GLOBAL_UNCERTAINTY_ASSIGNED_CONTEXT ( ( #301 ) ) GLOBAL_UNIT_ASSIGNED_CONTEXT ( ( #257, #156, #228 ) ) REPRESENTATION_CONTEXT ( 'NONE', 'WORKASPACE' ) );
#294 = LENGTH_MEASURE_WITH_UNIT ( LENGTH_MEASURE( 0.02539999999999999897 ), #182 );
#295 = APPLICATION_PROTOCOL_DEFINITION ( 'draft international standard', 'automotive_design', 1998, #52 ) ;
#296 = CARTESIAN_POINT ( 'NONE',  ( 0.000000000000000000, 0.5625000000000000000, 0.000000000000000000 ) ) ;
#297 = CARTESIAN_POINT ( 'NONE',  ( 0.000000000000000000, 0.000000000000000000, 0.000000000000000000 ) ) ;
#298 = ORIENTED_EDGE ( 'NONE', *, *, #42, .T. ) ;
#299 =( CONVERSION_BASED_UNIT ( 'INCH', #294 ) LENGTH_UNIT ( ) NAMED_UNIT ( #51 ) );
#300 = DIRECTION ( 'NONE',  ( 1.000000000000000000, 0.000000000000000000, 0.000000000000000000 ) ) ;
#301 = UNCERTAINTY_MEASURE_WITH_UNIT (LENGTH_MEASURE( 1.000000000000000082E-05 ), #257, 'distance_accuracy_value', 'NONE');
#302 = AXIS2_PLACEMENT_3D ( 'NONE', #183, #270, #252 ) ;
#303 = PLANE ( 'NONE',  #162 ) ;
#304 =( NAMED_UNIT ( * ) PLANE_ANGLE_UNIT ( ) SI_UNIT ( $, .RADIAN. ) );
#305 = VERTEX_POINT ( 'NONE', #277 ) ;
#306 = SURFACE_STYLE_FILL_AREA ( #244 ) ;
#307 = DIMENSIONAL_EXPONENTS ( 1.000000000000000000, 0.000000000000000000, 0.000000000000000000, 0.000000000000000000, 0.000000000000000000, 0.000000000000000000, 0.000000000000000000 ) ;
#308 = PRODUCT ( '59835', '59835', '', ( #18 ) ) ;
#309 = FILL_AREA_STYLE ('',( #226 ) ) ;
ENDSEC;
END-ISO-10303-21;
