ISO-10303-21;
HEADER;
FILE_DESCRIPTION (( 'STEP AP214' ),
    '1' );
FILE_NAME ('Micro_AMRM-018-2X.STEP',
    '2021-09-01T17:16:29',
    ( '' ),
    ( '' ),
    'SwSTEP 2.0',
    'SolidWorks 2020',
    '' );
FILE_SCHEMA (( 'AUTOMOTIVE_DESIGN' ));
ENDSEC;

DATA;
#1 = AXIS2_PLACEMENT_3D ( 'NONE', #81, #61, #152 ) ;
#2 = DIRECTION ( 'NONE',  ( -1.000000000000000000, 0.0000000000000000000, 0.0000000000000000000 ) ) ;
#3 = ORIENTED_EDGE ( 'NONE', *, *, #147, .F. ) ;
#4 = EDGE_CURVE ( 'NONE', #193, #260, #233, .T. ) ;
#5 = PRODUCT_DEFINITION_CONTEXT ( 'detailed design', #165, 'design' ) ;
#6 = PRESENTATION_LAYER_ASSIGNMENT (  '', '', ( #25 ) ) ;
#7 = ORIENTED_EDGE ( 'NONE', *, *, #97, .T. ) ;
#8 = SHAPE_DEFINITION_REPRESENTATION ( #235, #208 ) ;
#9 = PRODUCT_DEFINITION ( 'UNKNOWN', '', #281, #5 ) ;
#10 = ORIENTED_EDGE ( 'NONE', *, *, #4, .F. ) ;
#11 = ORIENTED_EDGE ( 'NONE', *, *, #117, .F. ) ;
#12 = AXIS2_PLACEMENT_3D ( 'NONE', #205, #43, #2 ) ;
#13 = FILL_AREA_STYLE ('',( #284 ) ) ;
#14 = ORIENTED_EDGE ( 'NONE', *, *, #86, .F. ) ;
#15 = EDGE_CURVE ( 'NONE', #260, #190, #217, .T. ) ;
#16 = SURFACE_STYLE_FILL_AREA ( #237 ) ;
#17 = DIRECTION ( 'NONE',  ( 0.0000000000000000000, 0.0000000000000000000, 1.000000000000000000 ) ) ;
#18 = LINE ( 'NONE', #38, #194 ) ;
#19 = CARTESIAN_POINT ( 'NONE',  ( -0.07874000000000001831, 0.0000000000000000000, 1.968503999999999809 ) ) ;
#20 = AXIS2_PLACEMENT_3D ( 'NONE', #137, #253, #45 ) ;
#21 = CARTESIAN_POINT ( 'NONE',  ( 0.0000000000000000000, 0.0000000000000000000, 1.968503999999999809 ) ) ;
#22 = FACE_OUTER_BOUND ( 'NONE', #103, .T. ) ;
#23 = ORIENTED_EDGE ( 'NONE', *, *, #97, .F. ) ;
#24 = DIMENSIONAL_EXPONENTS ( 1.000000000000000000, 0.0000000000000000000, 0.0000000000000000000, 0.0000000000000000000, 0.0000000000000000000, 0.0000000000000000000, 0.0000000000000000000 ) ;
#25 = STYLED_ITEM ( 'NONE', ( #127 ), #32 ) ;
#26 = CARTESIAN_POINT ( 'NONE',  ( -0.03539756699999997008, 4.334951712415396735E-18, 0.2086610000000000131 ) ) ;
#27 = SURFACE_STYLE_USAGE ( .BOTH. , #240 ) ;
#28 = VERTEX_POINT ( 'NONE', #213 ) ;
#29 = ORIENTED_EDGE ( 'NONE', *, *, #147, .T. ) ;
#30 = ORIENTED_EDGE ( 'NONE', *, *, #181, .F. ) ;
#31 = ORIENTED_EDGE ( 'NONE', *, *, #283, .T. ) ;
#32 = MANIFOLD_SOLID_BREP ( 'Cut-Revolve1', #179 ) ;
#33 = ORIENTED_EDGE ( 'NONE', *, *, #117, .T. ) ;
#34 = CARTESIAN_POINT ( 'NONE',  ( 0.0000000000000000000, 0.0000000000000000000, 1.968503999999999809 ) ) ;
#35 = DIRECTION ( 'NONE',  ( -1.000000000000000000, 0.0000000000000000000, 0.0000000000000000000 ) ) ;
#36 = DIRECTION ( 'NONE',  ( 1.000000000000000000, 0.0000000000000000000, 0.0000000000000000000 ) ) ;
#37 = CYLINDRICAL_SURFACE ( 'NONE', #118, 0.03539756699999999784 ) ;
#38 = CARTESIAN_POINT ( 'NONE',  ( -0.03539756699999999784, 0.0000000000000000000, 4.334951712415397505E-18 ) ) ;
#39 = AXIS2_PLACEMENT_3D ( 'NONE', #207, #186, #141 ) ;
#40 = CARTESIAN_POINT ( 'NONE',  ( 0.07874000000000001831, 9.642868896486260050E-18, 1.953504000000000129 ) ) ;
#41 = DIRECTION ( 'NONE',  ( -0.7071067811865507924, 0.0000000000000000000, -0.7071067811865443531 ) ) ;
#42 = VERTEX_POINT ( 'NONE', #108 ) ;
#43 = DIRECTION ( 'NONE',  ( 0.0000000000000000000, 0.0000000000000000000, -1.000000000000000000 ) ) ;
#44 = VECTOR ( 'NONE', #84, 39.37007874015748143 ) ;
#45 = DIRECTION ( 'NONE',  ( 1.000000000000000000, 0.0000000000000000000, -0.0000000000000000000 ) ) ;
#46 = CARTESIAN_POINT ( 'NONE',  ( 0.0000000000000000000, 0.0000000000000000000, 1.953504000000000129 ) ) ;
#47 = APPLICATION_PROTOCOL_DEFINITION ( 'draft international standard', 'automotive_design', 1998, #165 ) ;
#48 =( CONVERSION_BASED_UNIT ( 'INCH', #256 ) LENGTH_UNIT ( ) NAMED_UNIT ( #272 ) );
#49 = ADVANCED_FACE ( 'NONE', ( #266 ), #215, .T. ) ;
#50 = ORIENTED_EDGE ( 'NONE', *, *, #52, .F. ) ;
#51 = DIRECTION ( 'NONE',  ( 1.000000000000000000, 0.0000000000000000000, 0.0000000000000000000 ) ) ;
#52 = EDGE_CURVE ( 'NONE', #191, #218, #104, .T. ) ;
#53 = ORIENTED_EDGE ( 'NONE', *, *, #15, .F. ) ;
#54 = AXIS2_PLACEMENT_3D ( 'NONE', #254, #68, #156 ) ;
#55 = MECHANICAL_DESIGN_GEOMETRIC_PRESENTATION_REPRESENTATION (  '', ( #167 ), #135 ) ;
#56 =( GEOMETRIC_REPRESENTATION_CONTEXT ( 3 ) GLOBAL_UNCERTAINTY_ASSIGNED_CONTEXT ( ( #92 ) ) GLOBAL_UNIT_ASSIGNED_CONTEXT ( ( #114, #224, #66 ) ) REPRESENTATION_CONTEXT ( 'NONE', 'WORKASPACE' ) );
#57 = LINE ( 'NONE', #113, #231 ) ;
#58 = DIRECTION ( 'NONE',  ( 0.0000000000000000000, 0.0000000000000000000, 1.000000000000000000 ) ) ;
#59 = EDGE_CURVE ( 'NONE', #218, #260, #174, .T. ) ;
#60 = CARTESIAN_POINT ( 'NONE',  ( 0.0000000000000000000, 0.0000000000000000000, 0.0000000000000000000 ) ) ;
#61 = DIRECTION ( 'NONE',  ( -1.224646799147353207E-16, -0.0000000000000000000, -1.000000000000000000 ) ) ;
#62 = ADVANCED_FACE ( 'NONE', ( #111 ), #37, .T. ) ;
#63 = CARTESIAN_POINT ( 'NONE',  ( 0.07874000000000001831, 9.642868896486260050E-18, 1.968503999999999809 ) ) ;
#64 = LENGTH_MEASURE_WITH_UNIT ( LENGTH_MEASURE( 0.02539999999999999897 ), #142 );
#65 = CONICAL_SURFACE ( 'NONE', #124, 0.03539756699999999784, 0.1745329251994338915 ) ;
#66 =( NAMED_UNIT ( * ) SI_UNIT ( $, .STERADIAN. ) SOLID_ANGLE_UNIT ( ) );
#67 = ADVANCED_FACE ( 'NONE', ( #243 ), #65, .T. ) ;
#68 = DIRECTION ( 'NONE',  ( 0.0000000000000000000, 0.0000000000000000000, -1.000000000000000000 ) ) ;
#69 =( GEOMETRIC_REPRESENTATION_CONTEXT ( 3 ) GLOBAL_UNCERTAINTY_ASSIGNED_CONTEXT ( ( #204 ) ) GLOBAL_UNIT_ASSIGNED_CONTEXT ( ( #48, #214, #267 ) ) REPRESENTATION_CONTEXT ( 'NONE', 'WORKASPACE' ) );
#70 = DIRECTION ( 'NONE',  ( 0.0000000000000000000, 0.0000000000000000000, 1.000000000000000000 ) ) ;
#71 = ORIENTED_EDGE ( 'NONE', *, *, #150, .F. ) ;
#72 = ORIENTED_EDGE ( 'NONE', *, *, #283, .F. ) ;
#73 = EDGE_LOOP ( 'NONE', ( #299, #277, #7, #53 ) ) ;
#74 = CONICAL_SURFACE ( 'NONE', #12, 0.06374000000000018540, 0.7853981633974528309 ) ;
#75 = CARTESIAN_POINT ( 'NONE',  ( 0.03539756700000001866, 0.0000000000000000000, 0.2086610000000000131 ) ) ;
#76 = ORIENTED_EDGE ( 'NONE', *, *, #15, .T. ) ;
#77 = ADVANCED_FACE ( 'NONE', ( #199 ), #286, .T. ) ;
#78 =( NAMED_UNIT ( * ) PLANE_ANGLE_UNIT ( ) SI_UNIT ( $, .RADIAN. ) );
#79 = SURFACE_SIDE_STYLE ('',( #16 ) ) ;
#80 = MECHANICAL_DESIGN_GEOMETRIC_PRESENTATION_REPRESENTATION (  '', ( #25 ), #69 ) ;
#81 = CARTESIAN_POINT ( 'NONE',  ( 2.555360257568858967E-17, 0.0000000000000000000, 0.2086610000000000131 ) ) ;
#82 = DIRECTION ( 'NONE',  ( 1.224646799147353207E-16, 0.0000000000000000000, 1.000000000000000000 ) ) ;
#83 = DIRECTION ( 'NONE',  ( -1.000000000000000000, 0.0000000000000000000, 0.0000000000000000000 ) ) ;
#84 = DIRECTION ( 'NONE',  ( -0.0000000000000000000, -0.0000000000000000000, -1.000000000000000000 ) ) ;
#85 = VECTOR ( 'NONE', #41, 39.37007874015748143 ) ;
#86 = EDGE_CURVE ( 'NONE', #28, #193, #183, .T. ) ;
#87 = CARTESIAN_POINT ( 'NONE',  ( 0.0000000000000000000, 0.0000000000000000000, 1.968503999999999809 ) ) ;
#88 = CARTESIAN_POINT ( 'NONE',  ( 5.565629680174593491E-17, 0.0000000000000000000, 0.4544681522908974314 ) ) ;
#89 = CARTESIAN_POINT ( 'NONE',  ( -0.07874000000000001831, 0.0000000000000000000, 1.953504000000000129 ) ) ;
#90 = ORIENTED_EDGE ( 'NONE', *, *, #4, .T. ) ;
#91 = AXIS2_PLACEMENT_3D ( 'NONE', #180, #220, #35 ) ;
#92 = UNCERTAINTY_MEASURE_WITH_UNIT (LENGTH_MEASURE( 1.000000000000000082E-05 ), #114, 'distance_accuracy_value', 'NONE');
#93 = DIRECTION ( 'NONE',  ( 1.000000000000000000, 0.0000000000000000000, 0.0000000000000000000 ) ) ;
#94 = CARTESIAN_POINT ( 'NONE',  ( 2.555360257568858967E-17, 0.0000000000000000000, 0.2086610000000000131 ) ) ;
#95 = EDGE_CURVE ( 'NONE', #193, #28, #261, .T. ) ;
#96 = DIMENSIONAL_EXPONENTS ( 1.000000000000000000, 0.0000000000000000000, 0.0000000000000000000, 0.0000000000000000000, 0.0000000000000000000, 0.0000000000000000000, 0.0000000000000000000 ) ;
#97 = EDGE_CURVE ( 'NONE', #191, #190, #154, .T. ) ;
#98 = DIRECTION ( 'NONE',  ( -1.224646799147353207E-16, -0.0000000000000000000, -1.000000000000000000 ) ) ;
#99 =( LENGTH_UNIT ( ) NAMED_UNIT ( * ) SI_UNIT ( $, .METRE. ) );
#100 = ADVANCED_FACE ( 'NONE', ( #221 ), #246, .T. ) ;
#101 = ORIENTED_EDGE ( 'NONE', *, *, #95, .T. ) ;
#102 = EDGE_LOOP ( 'NONE', ( #3, #71, #31, #184 ) ) ;
#103 = EDGE_LOOP ( 'NONE', ( #11, #29, #50, #72 ) ) ;
#104 = CIRCLE ( 'NONE', #227, 0.07874000000000001831 ) ;
#105 = EDGE_LOOP ( 'NONE', ( #234, #119, #252, #23 ) ) ;
#106 = PRODUCT_CONTEXT ( 'NONE', #257, 'mechanical' ) ;
#107 = VERTEX_POINT ( 'NONE', #295 ) ;
#108 = CARTESIAN_POINT ( 'NONE',  ( 0.06374000000000018540, 8.724383797125754882E-18, 1.968503999999999809 ) ) ;
#109 = DIRECTION ( 'NONE',  ( -1.224646799147353207E-16, -0.0000000000000000000, -1.000000000000000000 ) ) ;
#110 = DIRECTION ( 'NONE',  ( -1.000000000000000000, 0.0000000000000000000, 1.224646799147353207E-16 ) ) ;
#111 = FACE_OUTER_BOUND ( 'NONE', #259, .T. ) ;
#112 = VECTOR ( 'NONE', #201, 39.37007874015747433 ) ;
#113 = CARTESIAN_POINT ( 'NONE',  ( 0.06374000000000018540, 7.805898697765251255E-18, 1.968503999999999809 ) ) ;
#114 =( CONVERSION_BASED_UNIT ( 'INCH', #64 ) LENGTH_UNIT ( ) NAMED_UNIT ( #96 ) );
#115 = ORIENTED_EDGE ( 'NONE', *, *, #189, .T. ) ;
#116 = PLANE ( 'NONE',  #20 ) ;
#117 = EDGE_CURVE ( 'NONE', #42, #145, #206, .T. ) ;
#118 = AXIS2_PLACEMENT_3D ( 'NONE', #60, #245, #264 ) ;
#119 = ORIENTED_EDGE ( 'NONE', *, *, #59, .T. ) ;
#120 = CARTESIAN_POINT ( 'NONE',  ( 5.565629680174593491E-17, 0.0000000000000000000, 0.4544681522908974314 ) ) ;
#121 = EDGE_CURVE ( 'NONE', #28, #107, #18, .T. ) ;
#122 = SURFACE_STYLE_FILL_AREA ( #13 ) ;
#123 = ORIENTED_EDGE ( 'NONE', *, *, #150, .T. ) ;
#124 = AXIS2_PLACEMENT_3D ( 'NONE', #132, #82, #36 ) ;
#125 = ORIENTED_EDGE ( 'NONE', *, *, #86, .T. ) ;
#126 = ADVANCED_FACE ( 'NONE', ( #134 ), #196, .T. ) ;
#127 = PRESENTATION_STYLE_ASSIGNMENT (( #258 ) ) ;
#128 = DIRECTION ( 'NONE',  ( 0.0000000000000000000, 0.0000000000000000000, -1.000000000000000000 ) ) ;
#129 = VECTOR ( 'NONE', #98, 39.37007874015748143 ) ;
#130 = CARTESIAN_POINT ( 'NONE',  ( 0.0000000000000000000, 0.0000000000000000000, 0.0000000000000000000 ) ) ;
#131 = DIRECTION ( 'NONE',  ( 1.000000000000000000, 0.0000000000000000000, -0.0000000000000000000 ) ) ;
#132 = CARTESIAN_POINT ( 'NONE',  ( 2.555360257568858967E-17, 0.0000000000000000000, 0.2086610000000000131 ) ) ;
#133 = EDGE_CURVE ( 'NONE', #107, #255, #171, .T. ) ;
#134 = FACE_OUTER_BOUND ( 'NONE', #105, .T. ) ;
#135 =( GEOMETRIC_REPRESENTATION_CONTEXT ( 3 ) GLOBAL_UNCERTAINTY_ASSIGNED_CONTEXT ( ( #225 ) ) GLOBAL_UNIT_ASSIGNED_CONTEXT ( ( #236, #78, #279 ) ) REPRESENTATION_CONTEXT ( 'NONE', 'WORKASPACE' ) );
#136 = CARTESIAN_POINT ( 'NONE',  ( 0.07874000000000007382, 9.642868896486266213E-18, 0.4544681522908974314 ) ) ;
#137 = CARTESIAN_POINT ( 'NONE',  ( 0.0000000000000000000, 0.0000000000000000000, 0.0000000000000000000 ) ) ;
#138 = CARTESIAN_POINT ( 'NONE',  ( 0.03539756699999999784, 4.334951712415397505E-18, -4.334951712415397505E-18 ) ) ;
#139 = CIRCLE ( 'NONE', #239, 0.06374000000000018540 ) ;
#140 = PRESENTATION_LAYER_ASSIGNMENT (  '', '', ( #167 ) ) ;
#141 = DIRECTION ( 'NONE',  ( -1.000000000000000000, 0.0000000000000000000, 1.224646799147353207E-16 ) ) ;
#142 =( LENGTH_UNIT ( ) NAMED_UNIT ( * ) SI_UNIT ( $, .METRE. ) );
#143 = DIRECTION ( 'NONE',  ( 0.1736481776669313859, 0.0000000000000000000, 0.9848077530122077983 ) ) ;
#144 = LENGTH_MEASURE_WITH_UNIT ( LENGTH_MEASURE( 0.02539999999999999897 ), #99 );
#145 = VERTEX_POINT ( 'NONE', #290 ) ;
#146 = FILL_AREA_STYLE_COLOUR ( '', #170 ) ;
#147 = EDGE_CURVE ( 'NONE', #42, #218, #57, .T. ) ;
#148 = DIRECTION ( 'NONE',  ( 1.000000000000000000, 0.0000000000000000000, 0.0000000000000000000 ) ) ;
#149 = ORIENTED_EDGE ( 'NONE', *, *, #161, .F. ) ;
#150 = EDGE_CURVE ( 'NONE', #145, #42, #139, .T. ) ;
#151 = DIRECTION ( 'NONE',  ( 0.7071067811865507924, 8.659560562354973534E-17, -0.7071067811865443531 ) ) ;
#152 = DIRECTION ( 'NONE',  ( -1.000000000000000000, 0.0000000000000000000, 0.0000000000000000000 ) ) ;
#153 = DIRECTION ( 'NONE',  ( 1.000000000000000000, 0.0000000000000000000, 0.0000000000000000000 ) ) ;
#154 = LINE ( 'NONE', #19, #44 ) ;
#155 = DIRECTION ( 'NONE',  ( -0.0000000000000000000, -0.0000000000000000000, -1.000000000000000000 ) ) ;
#156 = DIRECTION ( 'NONE',  ( -1.000000000000000000, 0.0000000000000000000, 0.0000000000000000000 ) ) ;
#157 = ADVANCED_FACE ( 'NONE', ( #275 ), #74, .T. ) ;
#158 = CARTESIAN_POINT ( 'NONE',  ( -0.06374000000000018540, 0.0000000000000000000, 1.968503999999999809 ) ) ;
#159 = CARTESIAN_POINT ( 'NONE',  ( -0.07873999999999996280, 0.0000000000000000000, 0.4544681522908974314 ) ) ;
#160 = AXIS2_PLACEMENT_3D ( 'NONE', #87, #17, #172 ) ;
#161 = EDGE_CURVE ( 'NONE', #28, #190, #249, .T. ) ;
#162 = DIRECTION ( 'NONE',  ( 1.224646799147353207E-16, 0.0000000000000000000, 1.000000000000000000 ) ) ;
#163 = ORIENTED_EDGE ( 'NONE', *, *, #133, .T. ) ;
#164 = ORIENTED_EDGE ( 'NONE', *, *, #133, .F. ) ;
#165 = APPLICATION_CONTEXT ( 'automotive_design' ) ;
#166 = ORIENTED_EDGE ( 'NONE', *, *, #121, .F. ) ;
#167 = STYLED_ITEM ( 'NONE', ( #229 ), #208 ) ;
#168 = ORIENTED_EDGE ( 'NONE', *, *, #181, .T. ) ;
#169 = ORIENTED_EDGE ( 'NONE', *, *, #296, .F. ) ;
#170 = COLOUR_RGB ( '',0.7921568627450980005, 0.8196078431372548767, 0.9333333333333333481 ) ;
#171 = CIRCLE ( 'NONE', #198, 0.03539756699999999784 ) ;
#172 = DIRECTION ( 'NONE',  ( 1.000000000000000000, 0.0000000000000000000, 0.0000000000000000000 ) ) ;
#173 = PRODUCT ( 'Micro_AMRM-018-2X', 'Micro_AMRM-018-2X', '', ( #106 ) ) ;
#174 = LINE ( 'NONE', #63, #248 ) ;
#175 = DIRECTION ( 'NONE',  ( -1.000000000000000000, 0.0000000000000000000, 1.224646799147353207E-16 ) ) ;
#176 = ADVANCED_FACE ( 'NONE', ( #202 ), #276, .T. ) ;
#177 = CIRCLE ( 'NONE', #269, 0.07874000000000001831 ) ;
#178 = DIRECTION ( 'NONE',  ( -1.000000000000000000, 0.0000000000000000000, 0.0000000000000000000 ) ) ;
#179 = CLOSED_SHELL ( 'NONE', ( #49, #67, #238, #126, #100, #77, #157, #176, #62, #293 ) ) ;
#180 = CARTESIAN_POINT ( 'NONE',  ( 2.555360257568858967E-17, 0.0000000000000000000, 0.2086610000000000131 ) ) ;
#181 = EDGE_CURVE ( 'NONE', #193, #255, #185, .T. ) ;
#182 = FACE_OUTER_BOUND ( 'NONE', #230, .T. ) ;
#183 = CIRCLE ( 'NONE', #1, 0.03539756699999999784 ) ;
#184 = ORIENTED_EDGE ( 'NONE', *, *, #268, .F. ) ;
#185 = LINE ( 'NONE', #138, #129 ) ;
#186 = DIRECTION ( 'NONE',  ( -1.224646799147353207E-16, -0.0000000000000000000, -1.000000000000000000 ) ) ;
#187 = CIRCLE ( 'NONE', #39, 0.03539756699999999784 ) ;
#188 = EDGE_LOOP ( 'NONE', ( #125, #168, #164, #166 ) ) ;
#189 = EDGE_CURVE ( 'NONE', #190, #260, #177, .T. ) ;
#190 = VERTEX_POINT ( 'NONE', #159 ) ;
#191 = VERTEX_POINT ( 'NONE', #89 ) ;
#192 = DIRECTION ( 'NONE',  ( -1.224646799147353207E-16, -0.0000000000000000000, -1.000000000000000000 ) ) ;
#193 = VERTEX_POINT ( 'NONE', #297 ) ;
#194 = VECTOR ( 'NONE', #109, 39.37007874015748143 ) ;
#195 = CARTESIAN_POINT ( 'NONE',  ( 0.0000000000000000000, 0.0000000000000000000, 1.953504000000000129 ) ) ;
#196 = CYLINDRICAL_SURFACE ( 'NONE', #265, 0.07874000000000001831 ) ;
#197 = DIRECTION ( 'NONE',  ( -1.224646799147353207E-16, -0.0000000000000000000, -1.000000000000000000 ) ) ;
#198 = AXIS2_PLACEMENT_3D ( 'NONE', #262, #197, #175 ) ;
#199 = FACE_OUTER_BOUND ( 'NONE', #241, .T. ) ;
#200 = VECTOR ( 'NONE', #143, 39.37007874015748143 ) ;
#201 = DIRECTION ( 'NONE',  ( -0.1736481776669311916, 2.126576849575783316E-17, 0.9848077530122080203 ) ) ;
#202 = FACE_OUTER_BOUND ( 'NONE', #271, .T. ) ;
#203 = EDGE_LOOP ( 'NONE', ( #14, #278, #115, #10 ) ) ;
#204 = UNCERTAINTY_MEASURE_WITH_UNIT (LENGTH_MEASURE( 1.000000000000000082E-05 ), #48, 'distance_accuracy_value', 'NONE');
#205 = CARTESIAN_POINT ( 'NONE',  ( 0.0000000000000000000, 0.0000000000000000000, 1.968503999999999809 ) ) ;
#206 = CIRCLE ( 'NONE', #160, 0.06374000000000018540 ) ;
#207 = CARTESIAN_POINT ( 'NONE',  ( 5.308784739067854796E-34, 0.0000000000000000000, 4.334951712415397505E-18 ) ) ;
#208 = ADVANCED_BREP_SHAPE_REPRESENTATION ( 'Micro_AMRM-018-2X', ( #32, #223 ), #56 ) ;
#209 = APPLICATION_PROTOCOL_DEFINITION ( 'draft international standard', 'automotive_design', 1998, #257 ) ;
#210 = ORIENTED_EDGE ( 'NONE', *, *, #121, .T. ) ;
#211 = AXIS2_PLACEMENT_3D ( 'NONE', #94, #162, #250 ) ;
#212 = CARTESIAN_POINT ( 'NONE',  ( 0.0000000000000000000, 0.0000000000000000000, 0.0000000000000000000 ) ) ;
#213 = CARTESIAN_POINT ( 'NONE',  ( -0.03539756699999997008, 6.988910304450828007E-18, 0.2086610000000000131 ) ) ;
#214 =( NAMED_UNIT ( * ) PLANE_ANGLE_UNIT ( ) SI_UNIT ( $, .RADIAN. ) );
#215 = CYLINDRICAL_SURFACE ( 'NONE', #222, 0.03539756699999999784 ) ;
#216 = AXIS2_PLACEMENT_3D ( 'NONE', #46, #270, #298 ) ;
#217 = CIRCLE ( 'NONE', #274, 0.07874000000000001831 ) ;
#218 = VERTEX_POINT ( 'NONE', #40 ) ;
#219 =( LENGTH_UNIT ( ) NAMED_UNIT ( * ) SI_UNIT ( $, .METRE. ) );
#220 = DIRECTION ( 'NONE',  ( -1.224646799147353207E-16, -0.0000000000000000000, -1.000000000000000000 ) ) ;
#221 = FACE_OUTER_BOUND ( 'NONE', #73, .T. ) ;
#222 = AXIS2_PLACEMENT_3D ( 'NONE', #130, #288, #110 ) ;
#223 = AXIS2_PLACEMENT_3D ( 'NONE', #212, #232, #148 ) ;
#224 =( NAMED_UNIT ( * ) PLANE_ANGLE_UNIT ( ) SI_UNIT ( $, .RADIAN. ) );
#225 = UNCERTAINTY_MEASURE_WITH_UNIT (LENGTH_MEASURE( 1.000000000000000082E-05 ), #236, 'distance_accuracy_value', 'NONE');
#226 = CARTESIAN_POINT ( 'NONE',  ( 0.03539756699999999784, 4.334951712415397505E-18, 0.0000000000000000000 ) ) ;
#227 = AXIS2_PLACEMENT_3D ( 'NONE', #195, #128, #153 ) ;
#228 = DIRECTION ( 'NONE',  ( 1.000000000000000000, 0.0000000000000000000, 0.0000000000000000000 ) ) ;
#229 = PRESENTATION_STYLE_ASSIGNMENT (( #27 ) ) ;
#230 = EDGE_LOOP ( 'NONE', ( #163, #282 ) ) ;
#231 = VECTOR ( 'NONE', #151, 39.37007874015748143 ) ;
#232 = DIRECTION ( 'NONE',  ( 0.0000000000000000000, 0.0000000000000000000, 1.000000000000000000 ) ) ;
#233 = LINE ( 'NONE', #75, #200 ) ;
#234 = ORIENTED_EDGE ( 'NONE', *, *, #52, .T. ) ;
#235 = PRODUCT_DEFINITION_SHAPE ( 'NONE', 'NONE',  #9 ) ;
#236 =( CONVERSION_BASED_UNIT ( 'INCH', #144 ) LENGTH_UNIT ( ) NAMED_UNIT ( #24 ) );
#237 = FILL_AREA_STYLE ('',( #146 ) ) ;
#238 = ADVANCED_FACE ( 'NONE', ( #22 ), #244, .T. ) ;
#239 = AXIS2_PLACEMENT_3D ( 'NONE', #34, #70, #93 ) ;
#240 = SURFACE_SIDE_STYLE ('',( #122 ) ) ;
#241 = EDGE_LOOP ( 'NONE', ( #123, #33 ) ) ;
#242 = DIRECTION ( 'NONE',  ( -0.0000000000000000000, -0.0000000000000000000, -1.000000000000000000 ) ) ;
#243 = FACE_OUTER_BOUND ( 'NONE', #203, .T. ) ;
#244 = CONICAL_SURFACE ( 'NONE', #54, 0.06374000000000018540, 0.7853981633974528309 ) ;
#245 = DIRECTION ( 'NONE',  ( -1.224646799147353207E-16, -0.0000000000000000000, -1.000000000000000000 ) ) ;
#246 = CYLINDRICAL_SURFACE ( 'NONE', #287, 0.07874000000000001831 ) ;
#247 = CARTESIAN_POINT ( 'NONE',  ( 0.0000000000000000000, 0.0000000000000000000, 1.968503999999999809 ) ) ;
#248 = VECTOR ( 'NONE', #155, 39.37007874015748143 ) ;
#249 = LINE ( 'NONE', #26, #112 ) ;
#250 = DIRECTION ( 'NONE',  ( 1.000000000000000000, 0.0000000000000000000, 0.0000000000000000000 ) ) ;
#251 = LINE ( 'NONE', #158, #85 ) ;
#252 = ORIENTED_EDGE ( 'NONE', *, *, #189, .F. ) ;
#253 = DIRECTION ( 'NONE',  ( 0.0000000000000000000, 0.0000000000000000000, 1.000000000000000000 ) ) ;
#254 = CARTESIAN_POINT ( 'NONE',  ( 0.0000000000000000000, 0.0000000000000000000, 1.968503999999999809 ) ) ;
#255 = VERTEX_POINT ( 'NONE', #226 ) ;
#256 = LENGTH_MEASURE_WITH_UNIT ( LENGTH_MEASURE( 0.02539999999999999897 ), #219 );
#257 = APPLICATION_CONTEXT ( 'automotive_design' ) ;
#258 = SURFACE_STYLE_USAGE ( .BOTH. , #79 ) ;
#259 = EDGE_LOOP ( 'NONE', ( #30, #101, #210, #169 ) ) ;
#260 = VERTEX_POINT ( 'NONE', #136 ) ;
#261 = CIRCLE ( 'NONE', #91, 0.03539756699999999784 ) ;
#262 = CARTESIAN_POINT ( 'NONE',  ( 5.308784739067854796E-34, 0.0000000000000000000, 4.334951712415397505E-18 ) ) ;
#263 = CARTESIAN_POINT ( 'NONE',  ( 0.0000000000000000000, 0.0000000000000000000, 1.968503999999999809 ) ) ;
#264 = DIRECTION ( 'NONE',  ( -1.000000000000000000, 0.0000000000000000000, 1.224646799147353207E-16 ) ) ;
#265 = AXIS2_PLACEMENT_3D ( 'NONE', #21, #289, #83 ) ;
#266 = FACE_OUTER_BOUND ( 'NONE', #188, .T. ) ;
#267 =( NAMED_UNIT ( * ) SI_UNIT ( $, .STERADIAN. ) SOLID_ANGLE_UNIT ( ) );
#268 = EDGE_CURVE ( 'NONE', #218, #191, #292, .T. ) ;
#269 = AXIS2_PLACEMENT_3D ( 'NONE', #88, #273, #228 ) ;
#270 = DIRECTION ( 'NONE',  ( 0.0000000000000000000, 0.0000000000000000000, -1.000000000000000000 ) ) ;
#271 = EDGE_LOOP ( 'NONE', ( #149, #285, #90, #76 ) ) ;
#272 = DIMENSIONAL_EXPONENTS ( 1.000000000000000000, 0.0000000000000000000, 0.0000000000000000000, 0.0000000000000000000, 0.0000000000000000000, 0.0000000000000000000, 0.0000000000000000000 ) ;
#273 = DIRECTION ( 'NONE',  ( -1.224646799147353207E-16, -0.0000000000000000000, -1.000000000000000000 ) ) ;
#274 = AXIS2_PLACEMENT_3D ( 'NONE', #120, #192, #51 ) ;
#275 = FACE_OUTER_BOUND ( 'NONE', #102, .T. ) ;
#276 = CONICAL_SURFACE ( 'NONE', #211, 0.03539756699999999784, 0.1745329251994338915 ) ;
#277 = ORIENTED_EDGE ( 'NONE', *, *, #268, .T. ) ;
#278 = ORIENTED_EDGE ( 'NONE', *, *, #161, .T. ) ;
#279 =( NAMED_UNIT ( * ) SI_UNIT ( $, .STERADIAN. ) SOLID_ANGLE_UNIT ( ) );
#280 = AXIS2_PLACEMENT_3D ( 'NONE', #263, #58, #131 ) ;
#281 = PRODUCT_DEFINITION_FORMATION_WITH_SPECIFIED_SOURCE ( 'ANY', '', #173, .NOT_KNOWN. ) ;
#282 = ORIENTED_EDGE ( 'NONE', *, *, #296, .T. ) ;
#283 = EDGE_CURVE ( 'NONE', #145, #191, #251, .T. ) ;
#284 = FILL_AREA_STYLE_COLOUR ( '', #294 ) ;
#285 = ORIENTED_EDGE ( 'NONE', *, *, #95, .F. ) ;
#286 = PLANE ( 'NONE',  #280 ) ;
#287 = AXIS2_PLACEMENT_3D ( 'NONE', #247, #242, #178 ) ;
#288 = DIRECTION ( 'NONE',  ( -1.224646799147353207E-16, -0.0000000000000000000, -1.000000000000000000 ) ) ;
#289 = DIRECTION ( 'NONE',  ( -0.0000000000000000000, -0.0000000000000000000, -1.000000000000000000 ) ) ;
#290 = CARTESIAN_POINT ( 'NONE',  ( -0.06374000000000018540, 0.0000000000000000000, 1.968503999999999809 ) ) ;
#291 = PRODUCT_RELATED_PRODUCT_CATEGORY ( 'part', '', ( #173 ) ) ;
#292 = CIRCLE ( 'NONE', #216, 0.07874000000000001831 ) ;
#293 = ADVANCED_FACE ( 'NONE', ( #182 ), #116, .F. ) ;
#294 = COLOUR_RGB ( '',0.7921568627450980005, 0.8196078431372548767, 0.9333333333333333481 ) ;
#295 = CARTESIAN_POINT ( 'NONE',  ( -0.03539756699999999784, 0.0000000000000000000, 8.669903424830795010E-18 ) ) ;
#296 = EDGE_CURVE ( 'NONE', #255, #107, #187, .T. ) ;
#297 = CARTESIAN_POINT ( 'NONE',  ( 0.03539756700000001866, 0.0000000000000000000, 0.2086610000000000131 ) ) ;
#298 = DIRECTION ( 'NONE',  ( 1.000000000000000000, 0.0000000000000000000, 0.0000000000000000000 ) ) ;
#299 = ORIENTED_EDGE ( 'NONE', *, *, #59, .F. ) ;
ENDSEC;
END-ISO-10303-21;
