ISO-10303-21;
HEADER;
FILE_DESCRIPTION (( 'STEP AP214' ),
    '1' );
FILE_NAME ('44032.STEP',
    '2023-06-22T19:13:55',
    ( '' ),
    ( '' ),
    'SwSTEP 2.0',
    'SolidWorks 2023',
    '' );
FILE_SCHEMA (( 'AUTOMOTIVE_DESIGN' ));
ENDSEC;

DATA;
#1 = LENGTH_MEASURE_WITH_UNIT ( LENGTH_MEASURE( 0.02539999999999999897 ), #20 );
#2 = EDGE_CURVE ( 'NONE', #268, #290, #227, .T. ) ;
#3 = PRODUCT_CONTEXT ( 'NONE', #231, 'mechanical' ) ;
#4 = AXIS2_PLACEMENT_3D ( 'NONE', #144, #145, #49 ) ;
#5 = EDGE_LOOP ( 'NONE', ( #153, #272, #286, #36 ) ) ;
#6 = SURFACE_STYLE_USAGE ( .BOTH. , #171 ) ;
#7 = EDGE_LOOP ( 'NONE', ( #292, #100, #29, #224 ) ) ;
#8 = MECHANICAL_DESIGN_GEOMETRIC_PRESENTATION_REPRESENTATION (  '', ( #135 ), #48 ) ;
#9 = ORIENTED_EDGE ( 'NONE', *, *, #2, .F. ) ;
#10 = CARTESIAN_POINT ( 'NONE',  ( 0.000000000000000000, 0.5000000000000000000, 0.000000000000000000 ) ) ;
#11 = DIRECTION ( 'NONE',  ( 0.000000000000000000, 0.000000000000000000, -1.000000000000000000 ) ) ;
#12 = LENGTH_MEASURE_WITH_UNIT ( LENGTH_MEASURE( 0.02539999999999999897 ), #21 );
#13 = EDGE_CURVE ( 'NONE', #102, #195, #304, .T. ) ;
#14 = UNCERTAINTY_MEASURE_WITH_UNIT (LENGTH_MEASURE( 1.000000000000000082E-05 ), #69, 'distance_accuracy_value', 'NONE');
#15 = CYLINDRICAL_SURFACE ( 'NONE', #19, 0.06250000000000005551 ) ;
#16 = DIMENSIONAL_EXPONENTS ( 1.000000000000000000, 0.000000000000000000, 0.000000000000000000, 0.000000000000000000, 0.000000000000000000, 0.000000000000000000, 0.000000000000000000 ) ;
#17 = SURFACE_STYLE_FILL_AREA ( #78 ) ;
#18 = LINE ( 'NONE', #107, #25 ) ;
#19 = AXIS2_PLACEMENT_3D ( 'NONE', #139, #209, #90 ) ;
#20 =( LENGTH_UNIT ( ) NAMED_UNIT ( * ) SI_UNIT ( $, .METRE. ) );
#21 =( LENGTH_UNIT ( ) NAMED_UNIT ( * ) SI_UNIT ( $, .METRE. ) );
#22 = APPLICATION_PROTOCOL_DEFINITION ( 'draft international standard', 'automotive_design', 1998, #46 ) ;
#23 = CARTESIAN_POINT ( 'NONE',  ( 0.000000000000000000, 0.5000000000000000000, 0.000000000000000000 ) ) ;
#24 = FILL_AREA_STYLE ('',( #214 ) ) ;
#25 = VECTOR ( 'NONE', #60, 39.37007874015748143 ) ;
#26 = APPLICATION_PROTOCOL_DEFINITION ( 'draft international standard', 'automotive_design', 1998, #231 ) ;
#27 =( NAMED_UNIT ( * ) SI_UNIT ( $, .STERADIAN. ) SOLID_ANGLE_UNIT ( ) );
#28 = EDGE_CURVE ( 'NONE', #268, #195, #18, .T. ) ;
#29 = ORIENTED_EDGE ( 'NONE', *, *, #13, .F. ) ;
#30 = FILL_AREA_STYLE_COLOUR ( '', #205 ) ;
#31 = FACE_OUTER_BOUND ( 'NONE', #77, .T. ) ;
#32 = ORIENTED_EDGE ( 'NONE', *, *, #167, .F. ) ;
#33 =( NAMED_UNIT ( * ) PLANE_ANGLE_UNIT ( ) SI_UNIT ( $, .RADIAN. ) );
#34 = STYLED_ITEM ( 'NONE', ( #229 ), #182 ) ;
#35 = PRODUCT_DEFINITION ( 'UNKNOWN', '', #63, #281 ) ;
#36 = ORIENTED_EDGE ( 'NONE', *, *, #243, .F. ) ;
#37 = FILL_AREA_STYLE ('',( #30 ) ) ;
#38 = DIRECTION ( 'NONE',  ( 0.000000000000000000, -1.000000000000000000, -0.000000000000000000 ) ) ;
#39 = CARTESIAN_POINT ( 'NONE',  ( -0.06250000000000023592, 2.500000000000000000, 0.000000000000000000 ) ) ;
#40 = DIRECTION ( 'NONE',  ( -6.123233995736766036E-17, 1.000000000000000000, -0.000000000000000000 ) ) ;
#41 =( GEOMETRIC_REPRESENTATION_CONTEXT ( 3 ) GLOBAL_UNCERTAINTY_ASSIGNED_CONTEXT ( ( #122 ) ) GLOBAL_UNIT_ASSIGNED_CONTEXT ( ( #116, #277, #160 ) ) REPRESENTATION_CONTEXT ( 'NONE', 'WORKASPACE' ) );
#42 = SURFACE_SIDE_STYLE ('',( #112 ) ) ;
#43 = FACE_OUTER_BOUND ( 'NONE', #240, .T. ) ;
#44 = FACE_OUTER_BOUND ( 'NONE', #7, .T. ) ;
#45 = PRESENTATION_STYLE_ASSIGNMENT (( #187 ) ) ;
#46 = APPLICATION_CONTEXT ( 'automotive_design' ) ;
#47 = CYLINDRICAL_SURFACE ( 'NONE', #121, 0.06250000000000001388 ) ;
#48 =( GEOMETRIC_REPRESENTATION_CONTEXT ( 3 ) GLOBAL_UNCERTAINTY_ASSIGNED_CONTEXT ( ( #266 ) ) GLOBAL_UNIT_ASSIGNED_CONTEXT ( ( #138, #130, #57 ) ) REPRESENTATION_CONTEXT ( 'NONE', 'WORKASPACE' ) );
#49 = DIRECTION ( 'NONE',  ( 1.000000000000000000, 6.123233995736766036E-17, 0.000000000000000000 ) ) ;
#50 = VERTEX_POINT ( 'NONE', #105 ) ;
#51 = SURFACE_SIDE_STYLE ('',( #225 ) ) ;
#52 = STYLED_ITEM ( 'NONE', ( #124 ), #221 ) ;
#53 = SURFACE_STYLE_USAGE ( .BOTH. , #51 ) ;
#54 = CIRCLE ( 'NONE', #273, 0.06250000000000000000 ) ;
#55 = ORIENTED_EDGE ( 'NONE', *, *, #92, .F. ) ;
#56 = SURFACE_STYLE_FILL_AREA ( #274 ) ;
#57 =( NAMED_UNIT ( * ) SI_UNIT ( $, .STERADIAN. ) SOLID_ANGLE_UNIT ( ) );
#58 = UNCERTAINTY_MEASURE_WITH_UNIT (LENGTH_MEASURE( 1.000000000000000082E-05 ), #289, 'distance_accuracy_value', 'NONE');
#59 = CARTESIAN_POINT ( 'NONE',  ( 0.000000000000000000, 0.5000000000000001110, 0.000000000000000000 ) ) ;
#60 = DIRECTION ( 'NONE',  ( -0.000000000000000000, -1.000000000000000000, -0.000000000000000000 ) ) ;
#61 = AXIS2_PLACEMENT_3D ( 'NONE', #66, #158, #84 ) ;
#62 = FACE_OUTER_BOUND ( 'NONE', #5, .T. ) ;
#63 = PRODUCT_DEFINITION_FORMATION_WITH_SPECIFIED_SOURCE ( 'ANY', '', #85, .NOT_KNOWN. ) ;
#64 = DIRECTION ( 'NONE',  ( 0.000000000000000000, 0.000000000000000000, -1.000000000000000000 ) ) ;
#65 = FILL_AREA_STYLE ('',( #296 ) ) ;
#66 = CARTESIAN_POINT ( 'NONE',  ( 0.000000000000000000, 0.5000000000000001110, 0.000000000000000000 ) ) ;
#67 = COLOUR_RGB ( '',1.000000000000000000, 0.000000000000000000, 0.000000000000000000 ) ;
#68 = DIMENSIONAL_EXPONENTS ( 1.000000000000000000, 0.000000000000000000, 0.000000000000000000, 0.000000000000000000, 0.000000000000000000, 0.000000000000000000, 0.000000000000000000 ) ;
#69 =( CONVERSION_BASED_UNIT ( 'INCH', #1 ) LENGTH_UNIT ( ) NAMED_UNIT ( #133 ) );
#70 = LENGTH_MEASURE_WITH_UNIT ( LENGTH_MEASURE( 0.02539999999999999897 ), #163 );
#71 =( LENGTH_UNIT ( ) NAMED_UNIT ( * ) SI_UNIT ( $, .METRE. ) );
#72 = VECTOR ( 'NONE', #183, 39.37007874015748143 ) ;
#73 = AXIS2_PLACEMENT_3D ( 'NONE', #164, #235, #261 ) ;
#74 = ORIENTED_EDGE ( 'NONE', *, *, #28, .F. ) ;
#75 =( LENGTH_UNIT ( ) NAMED_UNIT ( * ) SI_UNIT ( $, .METRE. ) );
#76 =( GEOMETRIC_REPRESENTATION_CONTEXT ( 3 ) GLOBAL_UNCERTAINTY_ASSIGNED_CONTEXT ( ( #194 ) ) GLOBAL_UNIT_ASSIGNED_CONTEXT ( ( #222, #309, #169 ) ) REPRESENTATION_CONTEXT ( 'NONE', 'WORKASPACE' ) );
#77 = EDGE_LOOP ( 'NONE', ( #74, #242, #174, #55 ) ) ;
#78 = FILL_AREA_STYLE ('',( #196 ) ) ;
#79 = EDGE_CURVE ( 'NONE', #260, #104, #197, .T. ) ;
#80 = CARTESIAN_POINT ( 'NONE',  ( 1.171687330204576256E-34, 0.5000000000000000000, 0.000000000000000000 ) ) ;
#81 = VECTOR ( 'NONE', #254, 39.37007874015748143 ) ;
#82 = DIMENSIONAL_EXPONENTS ( 1.000000000000000000, 0.000000000000000000, 0.000000000000000000, 0.000000000000000000, 0.000000000000000000, 0.000000000000000000, 0.000000000000000000 ) ;
#83 = CARTESIAN_POINT ( 'NONE',  ( 0.06249999999999993755, 2.500000000000000000, 7.654042494670965249E-18 ) ) ;
#84 = DIRECTION ( 'NONE',  ( -1.000000000000000000, 0.000000000000000000, 0.000000000000000000 ) ) ;
#85 = PRODUCT ( '44032', '44032', '', ( #3 ) ) ;
#86 = CARTESIAN_POINT ( 'NONE',  ( 0.000000000000000000, 0.000000000000000000, -0.06250000000000001388 ) ) ;
#87 = DIRECTION ( 'NONE',  ( 0.000000000000000000, 0.000000000000000000, -1.000000000000000000 ) ) ;
#88 = PLANE ( 'NONE',  #89 ) ;
#89 = AXIS2_PLACEMENT_3D ( 'NONE', #250, #38, #226 ) ;
#90 = DIRECTION ( 'NONE',  ( -1.000000000000000000, 0.000000000000000000, 0.000000000000000000 ) ) ;
#91 = FACE_OUTER_BOUND ( 'NONE', #201, .T. ) ;
#92 = EDGE_CURVE ( 'NONE', #195, #102, #236, .T. ) ;
#93 = DIMENSIONAL_EXPONENTS ( 1.000000000000000000, 0.000000000000000000, 0.000000000000000000, 0.000000000000000000, 0.000000000000000000, 0.000000000000000000, 0.000000000000000000 ) ;
#94 = FACE_OUTER_BOUND ( 'NONE', #219, .T. ) ;
#95 = SHAPE_DEFINITION_REPRESENTATION ( #246, #208 ) ;
#96 = PRESENTATION_LAYER_ASSIGNMENT (  '', '', ( #115 ) ) ;
#97 = ADVANCED_FACE ( 'NONE', ( #91 ), #88, .T. ) ;
#98 =( GEOMETRIC_REPRESENTATION_CONTEXT ( 3 ) GLOBAL_UNCERTAINTY_ASSIGNED_CONTEXT ( ( #14 ) ) GLOBAL_UNIT_ASSIGNED_CONTEXT ( ( #69, #188, #143 ) ) REPRESENTATION_CONTEXT ( 'NONE', 'WORKASPACE' ) );
#99 = ORIENTED_EDGE ( 'NONE', *, *, #79, .F. ) ;
#100 = ORIENTED_EDGE ( 'NONE', *, *, #28, .T. ) ;
#101 = EDGE_CURVE ( 'NONE', #295, #260, #253, .T. ) ;
#102 = VERTEX_POINT ( 'NONE', #86 ) ;
#103 = DIRECTION ( 'NONE',  ( -1.000000000000000000, -6.123233995736766036E-17, 0.000000000000000000 ) ) ;
#104 = VERTEX_POINT ( 'NONE', #207 ) ;
#105 = CARTESIAN_POINT ( 'NONE',  ( 0.06249999999999999306, 0.5000000000000001110, 7.654042494670968330E-18 ) ) ;
#106 = CARTESIAN_POINT ( 'NONE',  ( -1.224646799147353207E-16, 2.500000000000000000, 0.000000000000000000 ) ) ;
#107 = CARTESIAN_POINT ( 'NONE',  ( 7.654042494670959086E-18, 0.000000000000000000, 0.06250000000000001388 ) ) ;
#108 = COLOUR_RGB ( '',0.7921568627450980005, 0.8196078431372548767, 0.9333333333333333481 ) ;
#109 = ORIENTED_EDGE ( 'NONE', *, *, #92, .T. ) ;
#110 = CARTESIAN_POINT ( 'NONE',  ( 0.000000000000000000, 0.000000000000000000, 0.000000000000000000 ) ) ;
#111 = EDGE_CURVE ( 'NONE', #50, #104, #299, .T. ) ;
#112 = SURFACE_STYLE_FILL_AREA ( #65 ) ;
#113 = DIRECTION ( 'NONE',  ( -0.000000000000000000, -1.000000000000000000, -0.000000000000000000 ) ) ;
#114 = CLOSED_SHELL ( 'NONE', ( #283, #182, #221, #97 ) ) ;
#115 = STYLED_ITEM ( 'NONE', ( #237 ), #212 ) ;
#116 =( CONVERSION_BASED_UNIT ( 'INCH', #12 ) LENGTH_UNIT ( ) NAMED_UNIT ( #278 ) );
#117 = DIRECTION ( 'NONE',  ( 0.000000000000000000, -0.000000000000000000, 1.000000000000000000 ) ) ;
#118 = SURFACE_STYLE_FILL_AREA ( #24 ) ;
#119 = MECHANICAL_DESIGN_GEOMETRIC_PRESENTATION_REPRESENTATION (  '', ( #115 ), #200 ) ;
#120 = UNCERTAINTY_MEASURE_WITH_UNIT (LENGTH_MEASURE( 1.000000000000000082E-05 ), #198, 'distance_accuracy_value', 'NONE');
#121 = AXIS2_PLACEMENT_3D ( 'NONE', #173, #152, #11 ) ;
#122 = UNCERTAINTY_MEASURE_WITH_UNIT (LENGTH_MEASURE( 1.000000000000000082E-05 ), #116, 'distance_accuracy_value', 'NONE');
#123 = PRESENTATION_STYLE_ASSIGNMENT (( #53 ) ) ;
#124 = PRESENTATION_STYLE_ASSIGNMENT (( #6 ) ) ;
#125 = DIRECTION ( 'NONE',  ( -1.000000000000000000, 0.000000000000000000, 0.000000000000000000 ) ) ;
#126 = AXIS2_PLACEMENT_3D ( 'NONE', #59, #302, #134 ) ;
#127 = STYLED_ITEM ( 'NONE', ( #123 ), #306 ) ;
#128 = EDGE_LOOP ( 'NONE', ( #149, #147 ) ) ;
#129 = LINE ( 'NONE', #223, #81 ) ;
#130 =( NAMED_UNIT ( * ) PLANE_ANGLE_UNIT ( ) SI_UNIT ( $, .RADIAN. ) );
#131 =( NAMED_UNIT ( * ) SI_UNIT ( $, .STERADIAN. ) SOLID_ANGLE_UNIT ( ) );
#132 = CARTESIAN_POINT ( 'NONE',  ( -0.06250000000000018041, 2.500000000000000000, 0.000000000000000000 ) ) ;
#133 = DIMENSIONAL_EXPONENTS ( 1.000000000000000000, 0.000000000000000000, 0.000000000000000000, 0.000000000000000000, 0.000000000000000000, 0.000000000000000000, 0.000000000000000000 ) ;
#134 = DIRECTION ( 'NONE',  ( -1.000000000000000000, 0.000000000000000000, 0.000000000000000000 ) ) ;
#135 = STYLED_ITEM ( 'NONE', ( #140 ), #97 ) ;
#136 =( GEOMETRIC_REPRESENTATION_CONTEXT ( 3 ) GLOBAL_UNCERTAINTY_ASSIGNED_CONTEXT ( ( #120 ) ) GLOBAL_UNIT_ASSIGNED_CONTEXT ( ( #198, #241, #131 ) ) REPRESENTATION_CONTEXT ( 'NONE', 'WORKASPACE' ) );
#137 = CYLINDRICAL_SURFACE ( 'NONE', #285, 0.06250000000000001388 ) ;
#138 =( CONVERSION_BASED_UNIT ( 'INCH', #206 ) LENGTH_UNIT ( ) NAMED_UNIT ( #82 ) );
#139 = CARTESIAN_POINT ( 'NONE',  ( -1.224646799147353207E-16, 2.500000000000000000, 0.000000000000000000 ) ) ;
#140 = PRESENTATION_STYLE_ASSIGNMENT (( #186 ) ) ;
#141 = DIRECTION ( 'NONE',  ( -0.000000000000000000, -1.000000000000000000, -0.000000000000000000 ) ) ;
#142 = AXIS2_PLACEMENT_3D ( 'NONE', #23, #166, #117 ) ;
#143 =( NAMED_UNIT ( * ) SI_UNIT ( $, .STERADIAN. ) SOLID_ANGLE_UNIT ( ) );
#144 = CARTESIAN_POINT ( 'NONE',  ( 0.06250000000000000000, 2.500000000000000000, 0.000000000000000000 ) ) ;
#145 = DIRECTION ( 'NONE',  ( 6.123233995736766036E-17, -1.000000000000000000, 0.000000000000000000 ) ) ;
#146 = COLOUR_RGB ( '',1.000000000000000000, 0.000000000000000000, 0.000000000000000000 ) ;
#147 = ORIENTED_EDGE ( 'NONE', *, *, #243, .T. ) ;
#148 = SURFACE_STYLE_USAGE ( .BOTH. , #170 ) ;
#149 = ORIENTED_EDGE ( 'NONE', *, *, #79, .T. ) ;
#150 =( CONVERSION_BASED_UNIT ( 'INCH', #179 ) LENGTH_UNIT ( ) NAMED_UNIT ( #233 ) );
#151 = ORIENTED_EDGE ( 'NONE', *, *, #111, .T. ) ;
#152 = DIRECTION ( 'NONE',  ( -0.000000000000000000, -1.000000000000000000, -0.000000000000000000 ) ) ;
#153 = ORIENTED_EDGE ( 'NONE', *, *, #111, .F. ) ;
#154 = ORIENTED_EDGE ( 'NONE', *, *, #267, .F. ) ;
#155 = ORIENTED_EDGE ( 'NONE', *, *, #165, .F. ) ;
#156 = UNCERTAINTY_MEASURE_WITH_UNIT (LENGTH_MEASURE( 1.000000000000000082E-05 ), #150, 'distance_accuracy_value', 'NONE');
#157 = DIRECTION ( 'NONE',  ( 0.000000000000000000, 0.000000000000000000, -1.000000000000000000 ) ) ;
#158 = DIRECTION ( 'NONE',  ( -6.123233995736766036E-17, 1.000000000000000000, -0.000000000000000000 ) ) ;
#159 = AXIS2_PLACEMENT_3D ( 'NONE', #192, #265, #216 ) ;
#160 =( NAMED_UNIT ( * ) SI_UNIT ( $, .STERADIAN. ) SOLID_ANGLE_UNIT ( ) );
#161 = CARTESIAN_POINT ( 'NONE',  ( -1.224646799147353207E-16, 2.500000000000000000, 0.000000000000000000 ) ) ;
#162 = CARTESIAN_POINT ( 'NONE',  ( 7.654042494670959086E-18, 0.5000000000000000000, 0.06250000000000000000 ) ) ;
#163 =( LENGTH_UNIT ( ) NAMED_UNIT ( * ) SI_UNIT ( $, .METRE. ) );
#164 = CARTESIAN_POINT ( 'NONE',  ( -1.224646799147353207E-16, 2.500000000000000000, 0.000000000000000000 ) ) ;
#165 = EDGE_CURVE ( 'NONE', #290, #268, #54, .T. ) ;
#166 = DIRECTION ( 'NONE',  ( 0.000000000000000000, 1.000000000000000000, 0.000000000000000000 ) ) ;
#167 = EDGE_CURVE ( 'NONE', #295, #50, #204, .T. ) ;
#168 = AXIS2_PLACEMENT_3D ( 'NONE', #10, #280, #228 ) ;
#169 =( NAMED_UNIT ( * ) SI_UNIT ( $, .STERADIAN. ) SOLID_ANGLE_UNIT ( ) );
#170 = SURFACE_SIDE_STYLE ('',( #17 ) ) ;
#171 = SURFACE_SIDE_STYLE ('',( #56 ) ) ;
#172 = ORIENTED_EDGE ( 'NONE', *, *, #167, .T. ) ;
#173 = CARTESIAN_POINT ( 'NONE',  ( 0.000000000000000000, 0.000000000000000000, 0.000000000000000000 ) ) ;
#174 = ORIENTED_EDGE ( 'NONE', *, *, #259, .T. ) ;
#175 = LENGTH_MEASURE_WITH_UNIT ( LENGTH_MEASURE( 0.02539999999999999897 ), #75 );
#176 = PRODUCT_RELATED_PRODUCT_CATEGORY ( 'part', '', ( #85 ) ) ;
#177 = FILL_AREA_STYLE_COLOUR ( '', #190 ) ;
#178 = MECHANICAL_DESIGN_GEOMETRIC_PRESENTATION_REPRESENTATION (  '', ( #52 ), #136 ) ;
#179 = LENGTH_MEASURE_WITH_UNIT ( LENGTH_MEASURE( 0.02539999999999999897 ), #203 );
#180 = CARTESIAN_POINT ( 'NONE',  ( 0.000000000000000000, 0.5000000000000000000, 0.000000000000000000 ) ) ;
#181 = FILL_AREA_STYLE ('',( #303 ) ) ;
#182 = ADVANCED_FACE ( 'NONE', ( #43 ), #257, .T. ) ;
#183 = DIRECTION ( 'NONE',  ( -6.123233995736766036E-17, 1.000000000000000000, -0.000000000000000000 ) ) ;
#184 = CIRCLE ( 'NONE', #238, 0.06250000000000012490 ) ;
#185 = CARTESIAN_POINT ( 'NONE',  ( 0.000000000000000000, 0.5000000000000000000, -0.06250000000000000000 ) ) ;
#186 = SURFACE_STYLE_USAGE ( .BOTH. , #42 ) ;
#187 = SURFACE_STYLE_USAGE ( .BOTH. , #279 ) ;
#188 =( NAMED_UNIT ( * ) PLANE_ANGLE_UNIT ( ) SI_UNIT ( $, .RADIAN. ) );
#189 = PRESENTATION_LAYER_ASSIGNMENT (  '', '', ( #135 ) ) ;
#190 = COLOUR_RGB ( '',1.000000000000000000, 0.000000000000000000, 0.000000000000000000 ) ;
#191 = ADVANCED_FACE ( 'NONE', ( #213 ), #264, .F. ) ;
#192 = CARTESIAN_POINT ( 'NONE',  ( 0.000000000000000000, 0.000000000000000000, 0.000000000000000000 ) ) ;
#193 = AXIS2_PLACEMENT_3D ( 'NONE', #80, #298, #103 ) ;
#194 = UNCERTAINTY_MEASURE_WITH_UNIT (LENGTH_MEASURE( 1.000000000000000082E-05 ), #222, 'distance_accuracy_value', 'NONE');
#195 = VERTEX_POINT ( 'NONE', #307 ) ;
#196 = FILL_AREA_STYLE_COLOUR ( '', #67 ) ;
#197 = CIRCLE ( 'NONE', #269, 0.06250000000000012490 ) ;
#198 =( CONVERSION_BASED_UNIT ( 'INCH', #175 ) LENGTH_UNIT ( ) NAMED_UNIT ( #93 ) );
#199 = AXIS2_PLACEMENT_3D ( 'NONE', #305, #113, #157 ) ;
#200 =( GEOMETRIC_REPRESENTATION_CONTEXT ( 3 ) GLOBAL_UNCERTAINTY_ASSIGNED_CONTEXT ( ( #156 ) ) GLOBAL_UNIT_ASSIGNED_CONTEXT ( ( #150, #33, #294 ) ) REPRESENTATION_CONTEXT ( 'NONE', 'WORKASPACE' ) );
#201 = EDGE_LOOP ( 'NONE', ( #220, #109 ) ) ;
#202 = EDGE_LOOP ( 'NONE', ( #32, #154 ) ) ;
#203 =( LENGTH_UNIT ( ) NAMED_UNIT ( * ) SI_UNIT ( $, .METRE. ) );
#204 = CIRCLE ( 'NONE', #126, 0.06250000000000000000 ) ;
#205 = COLOUR_RGB ( '',0.7921568627450980005, 0.8196078431372548767, 0.9333333333333333481 ) ;
#206 = LENGTH_MEASURE_WITH_UNIT ( LENGTH_MEASURE( 0.02539999999999999897 ), #249 );
#207 = CARTESIAN_POINT ( 'NONE',  ( 0.06249999999999999306, 2.500000000000000000, 7.654042494670968330E-18 ) ) ;
#208 = ADVANCED_BREP_SHAPE_REPRESENTATION ( '44032', ( #212, #306, #159 ), #252 ) ;
#209 = DIRECTION ( 'NONE',  ( -6.123233995736766036E-17, 1.000000000000000000, -0.000000000000000000 ) ) ;
#210 = ADVANCED_FACE ( 'NONE', ( #94 ), #287, .T. ) ;
#211 = STYLED_ITEM ( 'NONE', ( #45 ), #283 ) ;
#212 = MANIFOLD_SOLID_BREP ( 'Revolve - Cutting Edge', #114 ) ;
#213 = FACE_OUTER_BOUND ( 'NONE', #128, .T. ) ;
#214 = FILL_AREA_STYLE_COLOUR ( '', #108 ) ;
#215 = PRESENTATION_LAYER_ASSIGNMENT (  '', '', ( #127 ) ) ;
#216 = DIRECTION ( 'NONE',  ( 1.000000000000000000, 0.000000000000000000, 0.000000000000000000 ) ) ;
#217 = PRESENTATION_LAYER_ASSIGNMENT (  '', '', ( #34 ) ) ;
#218 = CIRCLE ( 'NONE', #61, 0.06250000000000000000 ) ;
#219 = EDGE_LOOP ( 'NONE', ( #172, #151, #99, #245 ) ) ;
#220 = ORIENTED_EDGE ( 'NONE', *, *, #13, .T. ) ;
#221 = ADVANCED_FACE ( 'NONE', ( #31 ), #47, .T. ) ;
#222 =( CONVERSION_BASED_UNIT ( 'INCH', #291 ) LENGTH_UNIT ( ) NAMED_UNIT ( #68 ) );
#223 = CARTESIAN_POINT ( 'NONE',  ( 0.000000000000000000, 0.000000000000000000, -0.06250000000000001388 ) ) ;
#224 = ORIENTED_EDGE ( 'NONE', *, *, #259, .F. ) ;
#225 = SURFACE_STYLE_FILL_AREA ( #37 ) ;
#226 = DIRECTION ( 'NONE',  ( 0.000000000000000000, 0.000000000000000000, -1.000000000000000000 ) ) ;
#227 = CIRCLE ( 'NONE', #168, 0.06250000000000000000 ) ;
#228 = DIRECTION ( 'NONE',  ( 0.000000000000000000, 0.000000000000000000, -1.000000000000000000 ) ) ;
#229 = PRESENTATION_STYLE_ASSIGNMENT (( #148 ) ) ;
#230 = DIRECTION ( 'NONE',  ( 0.000000000000000000, 0.000000000000000000, -1.000000000000000000 ) ) ;
#231 = APPLICATION_CONTEXT ( 'automotive_design' ) ;
#232 = CARTESIAN_POINT ( 'NONE',  ( -0.06250000000000000000, 0.5000000000000001110, 0.000000000000000000 ) ) ;
#233 = DIMENSIONAL_EXPONENTS ( 1.000000000000000000, 0.000000000000000000, 0.000000000000000000, 0.000000000000000000, 0.000000000000000000, 0.000000000000000000, 0.000000000000000000 ) ;
#234 =( NAMED_UNIT ( * ) PLANE_ANGLE_UNIT ( ) SI_UNIT ( $, .RADIAN. ) );
#235 = DIRECTION ( 'NONE',  ( -6.123233995736766036E-17, 1.000000000000000000, -0.000000000000000000 ) ) ;
#236 = CIRCLE ( 'NONE', #256, 0.06250000000000001388 ) ;
#237 = PRESENTATION_STYLE_ASSIGNMENT (( #262 ) ) ;
#238 = AXIS2_PLACEMENT_3D ( 'NONE', #106, #244, #125 ) ;
#239 = FACE_OUTER_BOUND ( 'NONE', #202, .T. ) ;
#240 = EDGE_LOOP ( 'NONE', ( #155, #9 ) ) ;
#241 =( NAMED_UNIT ( * ) PLANE_ANGLE_UNIT ( ) SI_UNIT ( $, .RADIAN. ) );
#242 = ORIENTED_EDGE ( 'NONE', *, *, #2, .T. ) ;
#243 = EDGE_CURVE ( 'NONE', #104, #260, #184, .T. ) ;
#244 = DIRECTION ( 'NONE',  ( -6.123233995736766036E-17, 1.000000000000000000, -0.000000000000000000 ) ) ;
#245 = ORIENTED_EDGE ( 'NONE', *, *, #101, .F. ) ;
#246 = PRODUCT_DEFINITION_SHAPE ( 'NONE', 'NONE',  #35 ) ;
#247 = CLOSED_SHELL ( 'NONE', ( #210, #300, #284, #191 ) ) ;
#248 = MECHANICAL_DESIGN_GEOMETRIC_PRESENTATION_REPRESENTATION (  '', ( #211 ), #41 ) ;
#249 =( LENGTH_UNIT ( ) NAMED_UNIT ( * ) SI_UNIT ( $, .METRE. ) );
#250 = CARTESIAN_POINT ( 'NONE',  ( 0.000000000000000000, 0.000000000000000000, 0.000000000000000000 ) ) ;
#251 = DIRECTION ( 'NONE',  ( -0.000000000000000000, -1.000000000000000000, -0.000000000000000000 ) ) ;
#252 =( GEOMETRIC_REPRESENTATION_CONTEXT ( 3 ) GLOBAL_UNCERTAINTY_ASSIGNED_CONTEXT ( ( #58 ) ) GLOBAL_UNIT_ASSIGNED_CONTEXT ( ( #289, #234, #27 ) ) REPRESENTATION_CONTEXT ( 'NONE', 'WORKASPACE' ) );
#253 = LINE ( 'NONE', #132, #263 ) ;
#254 = DIRECTION ( 'NONE',  ( -0.000000000000000000, -1.000000000000000000, -0.000000000000000000 ) ) ;
#255 = SURFACE_STYLE_FILL_AREA ( #181 ) ;
#256 = AXIS2_PLACEMENT_3D ( 'NONE', #275, #276, #64 ) ;
#257 = PLANE ( 'NONE',  #142 ) ;
#258 = MECHANICAL_DESIGN_GEOMETRIC_PRESENTATION_REPRESENTATION (  '', ( #127 ), #76 ) ;
#259 = EDGE_CURVE ( 'NONE', #290, #102, #129, .T. ) ;
#260 = VERTEX_POINT ( 'NONE', #39 ) ;
#261 = DIRECTION ( 'NONE',  ( -1.000000000000000000, 0.000000000000000000, 0.000000000000000000 ) ) ;
#262 = SURFACE_STYLE_USAGE ( .BOTH. , #308 ) ;
#263 = VECTOR ( 'NONE', #301, 39.37007874015748143 ) ;
#264 = PLANE ( 'NONE',  #4 ) ;
#265 = DIRECTION ( 'NONE',  ( 0.000000000000000000, 0.000000000000000000, 1.000000000000000000 ) ) ;
#266 = UNCERTAINTY_MEASURE_WITH_UNIT (LENGTH_MEASURE( 1.000000000000000082E-05 ), #138, 'distance_accuracy_value', 'NONE');
#267 = EDGE_CURVE ( 'NONE', #50, #295, #218, .T. ) ;
#268 = VERTEX_POINT ( 'NONE', #162 ) ;
#269 = AXIS2_PLACEMENT_3D ( 'NONE', #161, #40, #282 ) ;
#270 = PRESENTATION_LAYER_ASSIGNMENT (  '', '', ( #52 ) ) ;
#271 = PLANE ( 'NONE',  #193 ) ;
#272 = ORIENTED_EDGE ( 'NONE', *, *, #267, .T. ) ;
#273 = AXIS2_PLACEMENT_3D ( 'NONE', #180, #251, #230 ) ;
#274 = FILL_AREA_STYLE ('',( #177 ) ) ;
#275 = CARTESIAN_POINT ( 'NONE',  ( 0.000000000000000000, 0.000000000000000000, 0.000000000000000000 ) ) ;
#276 = DIRECTION ( 'NONE',  ( -0.000000000000000000, -1.000000000000000000, -0.000000000000000000 ) ) ;
#277 =( NAMED_UNIT ( * ) PLANE_ANGLE_UNIT ( ) SI_UNIT ( $, .RADIAN. ) );
#278 = DIMENSIONAL_EXPONENTS ( 1.000000000000000000, 0.000000000000000000, 0.000000000000000000, 0.000000000000000000, 0.000000000000000000, 0.000000000000000000, 0.000000000000000000 ) ;
#279 = SURFACE_SIDE_STYLE ('',( #255 ) ) ;
#280 = DIRECTION ( 'NONE',  ( -0.000000000000000000, -1.000000000000000000, -0.000000000000000000 ) ) ;
#281 = PRODUCT_DEFINITION_CONTEXT ( 'detailed design', #46, 'design' ) ;
#282 = DIRECTION ( 'NONE',  ( -1.000000000000000000, 0.000000000000000000, 0.000000000000000000 ) ) ;
#283 = ADVANCED_FACE ( 'NONE', ( #44 ), #137, .T. ) ;
#284 = ADVANCED_FACE ( 'NONE', ( #62 ), #15, .T. ) ;
#285 = AXIS2_PLACEMENT_3D ( 'NONE', #110, #141, #87 ) ;
#286 = ORIENTED_EDGE ( 'NONE', *, *, #101, .T. ) ;
#287 = CYLINDRICAL_SURFACE ( 'NONE', #73, 0.06250000000000005551 ) ;
#288 = MECHANICAL_DESIGN_GEOMETRIC_PRESENTATION_REPRESENTATION (  '', ( #34 ), #98 ) ;
#289 =( CONVERSION_BASED_UNIT ( 'INCH', #70 ) LENGTH_UNIT ( ) NAMED_UNIT ( #16 ) );
#290 = VERTEX_POINT ( 'NONE', #185 ) ;
#291 = LENGTH_MEASURE_WITH_UNIT ( LENGTH_MEASURE( 0.02539999999999999897 ), #71 );
#292 = ORIENTED_EDGE ( 'NONE', *, *, #165, .T. ) ;
#293 = COLOUR_RGB ( '',1.000000000000000000, 0.000000000000000000, 0.000000000000000000 ) ;
#294 =( NAMED_UNIT ( * ) SI_UNIT ( $, .STERADIAN. ) SOLID_ANGLE_UNIT ( ) );
#295 = VERTEX_POINT ( 'NONE', #232 ) ;
#296 = FILL_AREA_STYLE_COLOUR ( '', #146 ) ;
#297 = PRESENTATION_LAYER_ASSIGNMENT (  '', '', ( #211 ) ) ;
#298 = DIRECTION ( 'NONE',  ( -6.123233995736766036E-17, 1.000000000000000000, 0.000000000000000000 ) ) ;
#299 = LINE ( 'NONE', #83, #72 ) ;
#300 = ADVANCED_FACE ( 'NONE', ( #239 ), #271, .F. ) ;
#301 = DIRECTION ( 'NONE',  ( -6.123233995736766036E-17, 1.000000000000000000, -0.000000000000000000 ) ) ;
#302 = DIRECTION ( 'NONE',  ( -6.123233995736766036E-17, 1.000000000000000000, -0.000000000000000000 ) ) ;
#303 = FILL_AREA_STYLE_COLOUR ( '', #293 ) ;
#304 = CIRCLE ( 'NONE', #199, 0.06250000000000001388 ) ;
#305 = CARTESIAN_POINT ( 'NONE',  ( 0.000000000000000000, 0.000000000000000000, 0.000000000000000000 ) ) ;
#306 = MANIFOLD_SOLID_BREP ( 'Revolve - Tool Body (Straight Shanked)', #247 ) ;
#307 = CARTESIAN_POINT ( 'NONE',  ( 7.654042494670960626E-18, 0.000000000000000000, 0.06250000000000002776 ) ) ;
#308 = SURFACE_SIDE_STYLE ('',( #118 ) ) ;
#309 =( NAMED_UNIT ( * ) PLANE_ANGLE_UNIT ( ) SI_UNIT ( $, .RADIAN. ) );
ENDSEC;
END-ISO-10303-21;
