ISO-10303-21;
HEADER;
FILE_DESCRIPTION (( 'STEP AP214' ),
    '1' );
FILE_NAME ('81930.STEP',
    '2023-06-30T22:34:46',
    ( '' ),
    ( '' ),
    'SwSTEP 2.0',
    'SolidWorks 2023',
    '' );
FILE_SCHEMA (( 'AUTOMOTIVE_DESIGN' ));
ENDSEC;

DATA;
#1 =( NAMED_UNIT ( * ) SI_UNIT ( $, .STERADIAN. ) SOLID_ANGLE_UNIT ( ) );
#2 = CARTESIAN_POINT ( 'NONE',  ( -1.224646799147353700E-16, 3.000000000000000444, 0.000000000000000000 ) ) ;
#3 = SURFACE_STYLE_FILL_AREA ( #226 ) ;
#4 = DIRECTION ( 'NONE',  ( -0.000000000000000000, -1.000000000000000000, -0.000000000000000000 ) ) ;
#5 = ORIENTED_EDGE ( 'NONE', *, *, #231, .F. ) ;
#6 = AXIS2_PLACEMENT_3D ( 'NONE', #278, #132, #104 ) ;
#7 = CIRCLE ( 'NONE', #26, 0.1875000000000000555 ) ;
#8 = CARTESIAN_POINT ( 'NONE',  ( -0.1874999999999994449, 1.250000000000000000, 0.000000000000000000 ) ) ;
#9 = EDGE_LOOP ( 'NONE', ( #347, #21, #237, #341 ) ) ;
#10 = CARTESIAN_POINT ( 'NONE',  ( -1.224646799147353700E-16, 3.000000000000000444, 0.000000000000000000 ) ) ;
#11 = ORIENTED_EDGE ( 'NONE', *, *, #86, .T. ) ;
#12 = FILL_AREA_STYLE_COLOUR ( '', #333 ) ;
#13 = DIRECTION ( 'NONE',  ( -0.000000000000000000, -1.000000000000000000, -0.000000000000000000 ) ) ;
#14 = AXIS2_PLACEMENT_3D ( 'NONE', #371, #232, #264 ) ;
#15 = ORIENTED_EDGE ( 'NONE', *, *, #131, .T. ) ;
#16 = PRODUCT_RELATED_PRODUCT_CATEGORY ( 'part', '', ( #319 ) ) ;
#17 = COLOUR_RGB ( '',0.7921568627450980005, 0.8196078431372548767, 0.9333333333333333481 ) ;
#18 = AXIS2_PLACEMENT_3D ( 'NONE', #40, #154, #125 ) ;
#19 = PRESENTATION_STYLE_ASSIGNMENT (( #303 ) ) ;
#20 = FILL_AREA_STYLE_COLOUR ( '', #211 ) ;
#21 = ORIENTED_EDGE ( 'NONE', *, *, #366, .T. ) ;
#22 = EDGE_CURVE ( 'NONE', #353, #111, #307, .T. ) ;
#23 =( NAMED_UNIT ( * ) SI_UNIT ( $, .STERADIAN. ) SOLID_ANGLE_UNIT ( ) );
#24 =( NAMED_UNIT ( * ) SI_UNIT ( $, .STERADIAN. ) SOLID_ANGLE_UNIT ( ) );
#25 = VERTEX_POINT ( 'NONE', #91 ) ;
#26 = AXIS2_PLACEMENT_3D ( 'NONE', #315, #180, #94 ) ;
#27 = DIRECTION ( 'NONE',  ( 0.000000000000000000, 0.000000000000000000, 1.000000000000000000 ) ) ;
#28 =( NAMED_UNIT ( * ) PLANE_ANGLE_UNIT ( ) SI_UNIT ( $, .RADIAN. ) );
#29 = DIRECTION ( 'NONE',  ( -1.000000000000000000, 0.000000000000000000, 0.000000000000000000 ) ) ;
#30 = DIRECTION ( 'NONE',  ( -1.924444970088698003E-16, 1.000000000000000000, -0.000000000000000000 ) ) ;
#31 = VERTEX_POINT ( 'NONE', #312 ) ;
#32 = FILL_AREA_STYLE_COLOUR ( '', #283 ) ;
#33 = CARTESIAN_POINT ( 'NONE',  ( -2.296212748401288034E-17, 0.1875000000000000555, 0.000000000000000000 ) ) ;
#34 =( GEOMETRIC_REPRESENTATION_CONTEXT ( 3 ) GLOBAL_UNCERTAINTY_ASSIGNED_CONTEXT ( ( #187 ) ) GLOBAL_UNIT_ASSIGNED_CONTEXT ( ( #327, #126, #122 ) ) REPRESENTATION_CONTEXT ( 'NONE', 'WORKASPACE' ) );
#35 = DIMENSIONAL_EXPONENTS ( 1.000000000000000000, 0.000000000000000000, 0.000000000000000000, 0.000000000000000000, 0.000000000000000000, 0.000000000000000000, 0.000000000000000000 ) ;
#36 = FACE_OUTER_BOUND ( 'NONE', #84, .T. ) ;
#37 = ORIENTED_EDGE ( 'NONE', *, *, #366, .F. ) ;
#38 = DIRECTION ( 'NONE',  ( 0.000000000000000000, 0.000000000000000000, 1.000000000000000000 ) ) ;
#39 = EDGE_CURVE ( 'NONE', #261, #111, #107, .T. ) ;
#40 = CARTESIAN_POINT ( 'NONE',  ( 0.000000000000000000, 0.1875000000000000555, 0.000000000000000000 ) ) ;
#41 = APPLICATION_PROTOCOL_DEFINITION ( 'draft international standard', 'automotive_design', 1998, #313 ) ;
#42 = DIRECTION ( 'NONE',  ( -1.924444970088698003E-16, 1.000000000000000000, -0.000000000000000000 ) ) ;
#43 = ADVANCED_FACE ( 'NONE', ( #143 ), #255, .T. ) ;
#44 = AXIS2_PLACEMENT_3D ( 'NONE', #33, #120, #29 ) ;
#45 = AXIS2_PLACEMENT_3D ( 'NONE', #68, #207, #177 ) ;
#46 = STYLED_ITEM ( 'NONE', ( #63 ), #345 ) ;
#47 =( CONVERSION_BASED_UNIT ( 'INCH', #71 ) LENGTH_UNIT ( ) NAMED_UNIT ( #361 ) );
#48 =( GEOMETRIC_REPRESENTATION_CONTEXT ( 3 ) GLOBAL_UNCERTAINTY_ASSIGNED_CONTEXT ( ( #244 ) ) GLOBAL_UNIT_ASSIGNED_CONTEXT ( ( #213, #330, #157 ) ) REPRESENTATION_CONTEXT ( 'NONE', 'WORKASPACE' ) );
#49 = AXIS2_PLACEMENT_3D ( 'NONE', #235, #90, #119 ) ;
#50 = SURFACE_SIDE_STYLE ('',( #186 ) ) ;
#51 =( NAMED_UNIT ( * ) PLANE_ANGLE_UNIT ( ) SI_UNIT ( $, .RADIAN. ) );
#52 = DIRECTION ( 'NONE',  ( -0.000000000000000000, -1.000000000000000000, -0.000000000000000000 ) ) ;
#53 = DIRECTION ( 'NONE',  ( -1.000000000000000000, 0.000000000000000000, 0.000000000000000000 ) ) ;
#54 = CARTESIAN_POINT ( 'NONE',  ( -0.1875000000000000555, 0.1875000000000000555, 2.296212748401287726E-17 ) ) ;
#55 = DIRECTION ( 'NONE',  ( 1.224646799147353207E-16, -0.000000000000000000, 1.000000000000000000 ) ) ;
#56 = CLOSED_SHELL ( 'NONE', ( #337, #258, #43, #61 ) ) ;
#57 =( GEOMETRIC_REPRESENTATION_CONTEXT ( 3 ) GLOBAL_UNCERTAINTY_ASSIGNED_CONTEXT ( ( #218 ) ) GLOBAL_UNIT_ASSIGNED_CONTEXT ( ( #47, #133, #243 ) ) REPRESENTATION_CONTEXT ( 'NONE', 'WORKASPACE' ) );
#58 = AXIS2_PLACEMENT_3D ( 'NONE', #181, #38, #95 ) ;
#59 = FILL_AREA_STYLE ('',( #116 ) ) ;
#60 =( CONVERSION_BASED_UNIT ( 'INCH', #166 ) LENGTH_UNIT ( ) NAMED_UNIT ( #198 ) );
#61 = ADVANCED_FACE ( 'NONE', ( #114 ), #233, .F. ) ;
#62 = EDGE_LOOP ( 'NONE', ( #11, #265, #65, #316 ) ) ;
#63 = PRESENTATION_STYLE_ASSIGNMENT (( #105 ) ) ;
#64 = CARTESIAN_POINT ( 'NONE',  ( 2.143131898507867804E-16, 1.250000000000000000, 0.000000000000000000 ) ) ;
#65 = ORIENTED_EDGE ( 'NONE', *, *, #39, .F. ) ;
#66 = PRESENTATION_LAYER_ASSIGNMENT (  '', '', ( #268 ) ) ;
#67 = LENGTH_MEASURE_WITH_UNIT ( LENGTH_MEASURE( 0.02539999999999999897 ), #175 );
#68 = CARTESIAN_POINT ( 'NONE',  ( 0.000000000000000000, 0.1875000000000000555, 0.000000000000000000 ) ) ;
#69 = DIRECTION ( 'NONE',  ( 0.000000000000000000, 0.000000000000000000, -1.000000000000000000 ) ) ;
#70 = SHAPE_DEFINITION_REPRESENTATION ( #137, #234 ) ;
#71 = LENGTH_MEASURE_WITH_UNIT ( LENGTH_MEASURE( 0.02539999999999999897 ), #367 );
#72 = PRODUCT_DEFINITION_CONTEXT ( 'detailed design', #305, 'design' ) ;
#73 = AXIS2_PLACEMENT_3D ( 'NONE', #193, #163, #192 ) ;
#74 = CYLINDRICAL_SURFACE ( 'NONE', #174, 0.1874999999999999445 ) ;
#75 = AXIS2_PLACEMENT_3D ( 'NONE', #115, #349, #252 ) ;
#76 = FACE_OUTER_BOUND ( 'NONE', #277, .T. ) ;
#77 =( LENGTH_UNIT ( ) NAMED_UNIT ( * ) SI_UNIT ( $, .METRE. ) );
#78 = PRESENTATION_STYLE_ASSIGNMENT (( #245 ) ) ;
#79 = UNCERTAINTY_MEASURE_WITH_UNIT (LENGTH_MEASURE( 1.000000000000000082E-05 ), #195, 'distance_accuracy_value', 'NONE');
#80 = LINE ( 'NONE', #190, #124 ) ;
#81 = SURFACE_SIDE_STYLE ('',( #343 ) ) ;
#82 = EDGE_LOOP ( 'NONE', ( #351, #168 ) ) ;
#83 = MANIFOLD_SOLID_BREP ( 'Revolve - Cutting Edge', #301 ) ;
#84 = EDGE_LOOP ( 'NONE', ( #5, #368 ) ) ;
#85 = VECTOR ( 'NONE', #42, 39.37007874015748143 ) ;
#86 = EDGE_CURVE ( 'NONE', #140, #353, #7, .T. ) ;
#87 = PRESENTATION_STYLE_ASSIGNMENT (( #227 ) ) ;
#88 = SURFACE_STYLE_FILL_AREA ( #59 ) ;
#89 = ORIENTED_EDGE ( 'NONE', *, *, #98, .T. ) ;
#90 = DIRECTION ( 'NONE',  ( 0.000000000000000000, 1.000000000000000000, 0.000000000000000000 ) ) ;
#91 = CARTESIAN_POINT ( 'NONE',  ( 0.1874999999999998335, 1.250000000000000000, 2.296212748401286493E-17 ) ) ;
#92 = MANIFOLD_SOLID_BREP ( 'Revolve - Tool Body (Straight Shanked)', #56 ) ;
#93 = AXIS2_PLACEMENT_3D ( 'NONE', #64, #144, #172 ) ;
#94 = DIRECTION ( 'NONE',  ( 0.000000000000000000, 0.000000000000000000, -1.000000000000000000 ) ) ;
#95 = DIRECTION ( 'NONE',  ( 1.000000000000000000, 0.000000000000000000, 0.000000000000000000 ) ) ;
#96 = DIRECTION ( 'NONE',  ( -1.924444970088698003E-16, 1.000000000000000000, -0.000000000000000000 ) ) ;
#97 = FILL_AREA_STYLE ('',( #272 ) ) ;
#98 = EDGE_CURVE ( 'NONE', #372, #31, #369, .T. ) ;
#99 = AXIS2_PLACEMENT_3D ( 'NONE', #363, #13, #240 ) ;
#100 = SURFACE_SIDE_STYLE ('',( #299 ) ) ;
#101 = DIMENSIONAL_EXPONENTS ( 1.000000000000000000, 0.000000000000000000, 0.000000000000000000, 0.000000000000000000, 0.000000000000000000, 0.000000000000000000, 0.000000000000000000 ) ;
#102 = FILL_AREA_STYLE ('',( #20 ) ) ;
#103 = ORIENTED_EDGE ( 'NONE', *, *, #323, .T. ) ;
#104 = DIRECTION ( 'NONE',  ( 0.000000000000000000, 0.000000000000000000, -1.000000000000000000 ) ) ;
#105 = SURFACE_STYLE_USAGE ( .BOTH. , #317 ) ;
#106 = CARTESIAN_POINT ( 'NONE',  ( 2.296212748401286493E-17, 0.000000000000000000, 0.1874999999999999445 ) ) ;
#107 = CIRCLE ( 'NONE', #44, 0.1875000000000000555 ) ;
#108 = CIRCLE ( 'NONE', #75, 0.1875000000000000278 ) ;
#109 =( GEOMETRIC_REPRESENTATION_CONTEXT ( 3 ) GLOBAL_UNCERTAINTY_ASSIGNED_CONTEXT ( ( #136 ) ) GLOBAL_UNIT_ASSIGNED_CONTEXT ( ( #346, #51, #23 ) ) REPRESENTATION_CONTEXT ( 'NONE', 'WORKASPACE' ) );
#110 = PLANE ( 'NONE',  #49 ) ;
#111 = VERTEX_POINT ( 'NONE', #151 ) ;
#112 = CARTESIAN_POINT ( 'NONE',  ( -1.224646799147353700E-16, 3.000000000000000444, 0.000000000000000000 ) ) ;
#113 = FILL_AREA_STYLE ('',( #222 ) ) ;
#114 = FACE_OUTER_BOUND ( 'NONE', #248, .T. ) ;
#115 = CARTESIAN_POINT ( 'NONE',  ( -1.224646799147353700E-16, 3.000000000000000444, 0.000000000000000000 ) ) ;
#116 = FILL_AREA_STYLE_COLOUR ( '', #17 ) ;
#117 = PLANE ( 'NONE',  #14 ) ;
#118 = CARTESIAN_POINT ( 'NONE',  ( 0.1874999999999996947, 3.000000000000000444, 2.296212748401285260E-17 ) ) ;
#119 = DIRECTION ( 'NONE',  ( 0.000000000000000000, -0.000000000000000000, 1.000000000000000000 ) ) ;
#120 = DIRECTION ( 'NONE',  ( 0.000000000000000000, 0.000000000000000000, -1.000000000000000000 ) ) ;
#121 = EDGE_CURVE ( 'NONE', #31, #372, #348, .T. ) ;
#122 =( NAMED_UNIT ( * ) SI_UNIT ( $, .STERADIAN. ) SOLID_ANGLE_UNIT ( ) );
#123 = COLOUR_RGB ( '',0.7921568627450980005, 0.8196078431372548767, 0.9333333333333333481 ) ;
#124 = VECTOR ( 'NONE', #52, 39.37007874015748143 ) ;
#125 = DIRECTION ( 'NONE',  ( 0.000000000000000000, 0.000000000000000000, -1.000000000000000000 ) ) ;
#126 =( NAMED_UNIT ( * ) PLANE_ANGLE_UNIT ( ) SI_UNIT ( $, .RADIAN. ) );
#127 =( LENGTH_UNIT ( ) NAMED_UNIT ( * ) SI_UNIT ( $, .METRE. ) );
#128 = AXIS2_PLACEMENT_3D ( 'NONE', #290, #30, #256 ) ;
#129 = AXIS2_PLACEMENT_3D ( 'NONE', #112, #224, #197 ) ;
#130 = FACE_OUTER_BOUND ( 'NONE', #62, .T. ) ;
#131 = EDGE_CURVE ( 'NONE', #353, #357, #201, .T. ) ;
#132 = DIRECTION ( 'NONE',  ( -0.000000000000000000, -1.000000000000000000, -0.000000000000000000 ) ) ;
#133 =( NAMED_UNIT ( * ) PLANE_ANGLE_UNIT ( ) SI_UNIT ( $, .RADIAN. ) );
#134 = SURFACE_STYLE_FILL_AREA ( #102 ) ;
#135 = PRESENTATION_LAYER_ASSIGNMENT (  '', '', ( #296 ) ) ;
#136 = UNCERTAINTY_MEASURE_WITH_UNIT (LENGTH_MEASURE( 1.000000000000000082E-05 ), #346, 'distance_accuracy_value', 'NONE');
#137 = PRODUCT_DEFINITION_SHAPE ( 'NONE', 'NONE',  #142 ) ;
#138 =( LENGTH_UNIT ( ) NAMED_UNIT ( * ) SI_UNIT ( $, .METRE. ) );
#139 = CARTESIAN_POINT ( 'NONE',  ( 0.1874999999999998335, 3.000000000000000444, 2.296212748401286493E-17 ) ) ;
#140 = VERTEX_POINT ( 'NONE', #153 ) ;
#141 = FACE_OUTER_BOUND ( 'NONE', #225, .T. ) ;
#142 = PRODUCT_DEFINITION ( 'UNKNOWN', '', #156, #72 ) ;
#143 = FACE_OUTER_BOUND ( 'NONE', #344, .T. ) ;
#144 = DIRECTION ( 'NONE',  ( -1.924444970088698003E-16, 1.000000000000000000, -0.000000000000000000 ) ) ;
#145 = ORIENTED_EDGE ( 'NONE', *, *, #131, .F. ) ;
#146 = DIRECTION ( 'NONE',  ( 0.000000000000000000, 0.000000000000000000, -1.000000000000000000 ) ) ;
#147 = DIRECTION ( 'NONE',  ( -1.924444970088698003E-16, 1.000000000000000000, -0.000000000000000000 ) ) ;
#148 = COLOUR_RGB ( '',1.000000000000000000, 0.000000000000000000, 0.000000000000000000 ) ;
#149 = ORIENTED_EDGE ( 'NONE', *, *, #273, .F. ) ;
#150 = EDGE_CURVE ( 'NONE', #257, #191, #329, .T. ) ;
#151 = CARTESIAN_POINT ( 'NONE',  ( -1.148106374200644017E-17, 0.000000000000000000, 0.000000000000000000 ) ) ;
#152 = PRESENTATION_LAYER_ASSIGNMENT (  '', '', ( #238 ) ) ;
#153 = CARTESIAN_POINT ( 'NONE',  ( 2.296212748401287726E-17, 0.1875000000000000555, 0.1875000000000000278 ) ) ;
#154 = DIRECTION ( 'NONE',  ( -0.000000000000000000, -1.000000000000000000, -0.000000000000000000 ) ) ;
#155 = CIRCLE ( 'NONE', #18, 0.1875000000000000555 ) ;
#156 = PRODUCT_DEFINITION_FORMATION_WITH_SPECIFIED_SOURCE ( 'ANY', '', #319, .NOT_KNOWN. ) ;
#157 =( NAMED_UNIT ( * ) SI_UNIT ( $, .STERADIAN. ) SOLID_ANGLE_UNIT ( ) );
#158 =( LENGTH_UNIT ( ) NAMED_UNIT ( * ) SI_UNIT ( $, .METRE. ) );
#159 = UNCERTAINTY_MEASURE_WITH_UNIT (LENGTH_MEASURE( 1.000000000000000082E-05 ), #324, 'distance_accuracy_value', 'NONE');
#160 = AXIS2_PLACEMENT_3D ( 'NONE', #336, #279, #246 ) ;
#161 = SURFACE_SIDE_STYLE ('',( #360 ) ) ;
#162 = FACE_OUTER_BOUND ( 'NONE', #82, .T. ) ;
#163 = DIRECTION ( 'NONE',  ( 1.924444970088698003E-16, -1.000000000000000000, 0.000000000000000000 ) ) ;
#164 = EDGE_CURVE ( 'NONE', #357, #261, #155, .T. ) ;
#165 = CARTESIAN_POINT ( 'NONE',  ( -2.296212748401288034E-17, 0.1875000000000000555, 0.000000000000000000 ) ) ;
#166 = LENGTH_MEASURE_WITH_UNIT ( LENGTH_MEASURE( 0.02539999999999999897 ), #311 );
#167 = MECHANICAL_DESIGN_GEOMETRIC_PRESENTATION_REPRESENTATION (  '', ( #179 ), #57 ) ;
#168 = ORIENTED_EDGE ( 'NONE', *, *, #98, .F. ) ;
#169 = LENGTH_MEASURE_WITH_UNIT ( LENGTH_MEASURE( 0.02539999999999999897 ), #158 );
#170 = ORIENTED_EDGE ( 'NONE', *, *, #281, .F. ) ;
#171 = ORIENTED_EDGE ( 'NONE', *, *, #356, .T. ) ;
#172 = DIRECTION ( 'NONE',  ( -1.000000000000000000, 0.000000000000000000, 0.000000000000000000 ) ) ;
#173 = ORIENTED_EDGE ( 'NONE', *, *, #86, .F. ) ;
#174 = AXIS2_PLACEMENT_3D ( 'NONE', #318, #310, #146 ) ;
#175 =( LENGTH_UNIT ( ) NAMED_UNIT ( * ) SI_UNIT ( $, .METRE. ) );
#176 = DIMENSIONAL_EXPONENTS ( 1.000000000000000000, 0.000000000000000000, 0.000000000000000000, 0.000000000000000000, 0.000000000000000000, 0.000000000000000000, 0.000000000000000000 ) ;
#177 = DIRECTION ( 'NONE',  ( 0.000000000000000000, 0.000000000000000000, -1.000000000000000000 ) ) ;
#178 =( NAMED_UNIT ( * ) SI_UNIT ( $, .STERADIAN. ) SOLID_ANGLE_UNIT ( ) );
#179 = STYLED_ITEM ( 'NONE', ( #300 ), #184 ) ;
#180 = DIRECTION ( 'NONE',  ( -0.000000000000000000, -1.000000000000000000, -0.000000000000000000 ) ) ;
#181 = CARTESIAN_POINT ( 'NONE',  ( 0.000000000000000000, 0.000000000000000000, 0.000000000000000000 ) ) ;
#182 = CARTESIAN_POINT ( 'NONE',  ( -0.1874999999999999722, 3.000000000000000444, 0.000000000000000000 ) ) ;
#183 = LENGTH_MEASURE_WITH_UNIT ( LENGTH_MEASURE( 0.02539999999999999897 ), #77 );
#184 = ADVANCED_FACE ( 'NONE', ( #130 ), #247, .T. ) ;
#185 = AXIS2_PLACEMENT_3D ( 'NONE', #340, #4, #220 ) ;
#186 = SURFACE_STYLE_FILL_AREA ( #309 ) ;
#187 = UNCERTAINTY_MEASURE_WITH_UNIT (LENGTH_MEASURE( 1.000000000000000082E-05 ), #327, 'distance_accuracy_value', 'NONE');
#188 = ORIENTED_EDGE ( 'NONE', *, *, #39, .T. ) ;
#189 = SPHERICAL_SURFACE ( 'NONE', #334, 0.1875000000000000555 ) ;
#190 = CARTESIAN_POINT ( 'NONE',  ( 0.000000000000000000, 0.000000000000000000, -0.1874999999999999445 ) ) ;
#191 = VERTEX_POINT ( 'NONE', #267 ) ;
#192 = DIRECTION ( 'NONE',  ( 1.000000000000000000, 1.924444970088698003E-16, 0.000000000000000000 ) ) ;
#193 = CARTESIAN_POINT ( 'NONE',  ( 0.1874999999999998890, 3.000000000000000444, 0.000000000000000000 ) ) ;
#194 = DIRECTION ( 'NONE',  ( -1.924444970088698003E-16, 1.000000000000000000, -0.000000000000000000 ) ) ;
#195 =( CONVERSION_BASED_UNIT ( 'INCH', #169 ) LENGTH_UNIT ( ) NAMED_UNIT ( #35 ) );
#196 = ORIENTED_EDGE ( 'NONE', *, *, #164, .T. ) ;
#197 = DIRECTION ( 'NONE',  ( -1.000000000000000000, 0.000000000000000000, 0.000000000000000000 ) ) ;
#198 = DIMENSIONAL_EXPONENTS ( 1.000000000000000000, 0.000000000000000000, 0.000000000000000000, 0.000000000000000000, 0.000000000000000000, 0.000000000000000000, 0.000000000000000000 ) ;
#199 = FACE_OUTER_BOUND ( 'NONE', #9, .T. ) ;
#200 = ORIENTED_EDGE ( 'NONE', *, *, #273, .T. ) ;
#201 = CIRCLE ( 'NONE', #45, 0.1875000000000000555 ) ;
#202 = DIRECTION ( 'NONE',  ( -0.000000000000000000, -1.000000000000000000, -0.000000000000000000 ) ) ;
#203 = ADVANCED_FACE ( 'NONE', ( #215 ), #209, .T. ) ;
#204 = LINE ( 'NONE', #118, #339 ) ;
#205 =( NAMED_UNIT ( * ) PLANE_ANGLE_UNIT ( ) SI_UNIT ( $, .RADIAN. ) );
#206 = STYLED_ITEM ( 'NONE', ( #19 ), #208 ) ;
#207 = DIRECTION ( 'NONE',  ( -0.000000000000000000, -1.000000000000000000, -0.000000000000000000 ) ) ;
#208 = ADVANCED_FACE ( 'NONE', ( #76 ), #74, .T. ) ;
#209 = CYLINDRICAL_SURFACE ( 'NONE', #6, 0.1874999999999999445 ) ;
#210 = VERTEX_POINT ( 'NONE', #139 ) ;
#211 = COLOUR_RGB ( '',1.000000000000000000, 0.000000000000000000, 0.000000000000000000 ) ;
#212 =( GEOMETRIC_REPRESENTATION_CONTEXT ( 3 ) GLOBAL_UNCERTAINTY_ASSIGNED_CONTEXT ( ( #159 ) ) GLOBAL_UNIT_ASSIGNED_CONTEXT ( ( #324, #298, #358 ) ) REPRESENTATION_CONTEXT ( 'NONE', 'WORKASPACE' ) );
#213 =( CONVERSION_BASED_UNIT ( 'INCH', #183 ) LENGTH_UNIT ( ) NAMED_UNIT ( #101 ) );
#214 = ORIENTED_EDGE ( 'NONE', *, *, #164, .F. ) ;
#215 = FACE_OUTER_BOUND ( 'NONE', #216, .T. ) ;
#216 = EDGE_LOOP ( 'NONE', ( #223, #200, #280, #214, #221 ) ) ;
#217 = FILL_AREA_STYLE_COLOUR ( '', #148 ) ;
#218 = UNCERTAINTY_MEASURE_WITH_UNIT (LENGTH_MEASURE( 1.000000000000000082E-05 ), #47, 'distance_accuracy_value', 'NONE');
#219 = CIRCLE ( 'NONE', #93, 0.1874999999999996392 ) ;
#220 = DIRECTION ( 'NONE',  ( 0.000000000000000000, 0.000000000000000000, -1.000000000000000000 ) ) ;
#221 = ORIENTED_EDGE ( 'NONE', *, *, #323, .F. ) ;
#222 = FILL_AREA_STYLE_COLOUR ( '', #291 ) ;
#223 = ORIENTED_EDGE ( 'NONE', *, *, #121, .T. ) ;
#224 = DIRECTION ( 'NONE',  ( -1.924444970088698003E-16, 1.000000000000000000, -0.000000000000000000 ) ) ;
#225 = EDGE_LOOP ( 'NONE', ( #284, #15, #196, #188 ) ) ;
#226 = FILL_AREA_STYLE ('',( #32 ) ) ;
#227 = SURFACE_STYLE_USAGE ( .BOTH. , #81 ) ;
#228 = PRESENTATION_LAYER_ASSIGNMENT (  '', '', ( #179 ) ) ;
#229 = CARTESIAN_POINT ( 'NONE',  ( -2.296212748401288034E-17, 0.1875000000000000555, 0.000000000000000000 ) ) ;
#230 = STYLED_ITEM ( 'NONE', ( #87 ), #331 ) ;
#231 = EDGE_CURVE ( 'NONE', #257, #25, #219, .T. ) ;
#232 = DIRECTION ( 'NONE',  ( -1.924444970088698003E-16, 1.000000000000000000, 0.000000000000000000 ) ) ;
#233 = PLANE ( 'NONE',  #73 ) ;
#234 = ADVANCED_BREP_SHAPE_REPRESENTATION ( '81930', ( #83, #92, #58 ), #212 ) ;
#235 = CARTESIAN_POINT ( 'NONE',  ( 0.000000000000000000, 1.250000000000000000, 0.000000000000000000 ) ) ;
#236 = DIMENSIONAL_EXPONENTS ( 1.000000000000000000, 0.000000000000000000, 0.000000000000000000, 0.000000000000000000, 0.000000000000000000, 0.000000000000000000, 0.000000000000000000 ) ;
#237 = ORIENTED_EDGE ( 'NONE', *, *, #356, .F. ) ;
#238 = STYLED_ITEM ( 'NONE', ( #242 ), #83 ) ;
#239 = FILL_AREA_STYLE ('',( #12 ) ) ;
#240 = DIRECTION ( 'NONE',  ( 0.000000000000000000, 0.000000000000000000, -1.000000000000000000 ) ) ;
#241 =( GEOMETRIC_REPRESENTATION_CONTEXT ( 3 ) GLOBAL_UNCERTAINTY_ASSIGNED_CONTEXT ( ( #335 ) ) GLOBAL_UNIT_ASSIGNED_CONTEXT ( ( #60, #28, #1 ) ) REPRESENTATION_CONTEXT ( 'NONE', 'WORKASPACE' ) );
#242 = PRESENTATION_STYLE_ASSIGNMENT (( #294 ) ) ;
#243 =( NAMED_UNIT ( * ) SI_UNIT ( $, .STERADIAN. ) SOLID_ANGLE_UNIT ( ) );
#244 = UNCERTAINTY_MEASURE_WITH_UNIT (LENGTH_MEASURE( 1.000000000000000082E-05 ), #213, 'distance_accuracy_value', 'NONE');
#245 = SURFACE_STYLE_USAGE ( .BOTH. , #332 ) ;
#246 = DIRECTION ( 'NONE',  ( 1.000000000000000000, 0.000000000000000000, 0.000000000000000000 ) ) ;
#247 = SPHERICAL_SURFACE ( 'NONE', #160, 0.1875000000000000555 ) ;
#248 = EDGE_LOOP ( 'NONE', ( #171, #292 ) ) ;
#249 = AXIS2_PLACEMENT_3D ( 'NONE', #2, #147, #53 ) ;
#250 = EDGE_CURVE ( 'NONE', #25, #257, #359, .T. ) ;
#251 =( GEOMETRIC_REPRESENTATION_CONTEXT ( 3 ) GLOBAL_UNCERTAINTY_ASSIGNED_CONTEXT ( ( #79 ) ) GLOBAL_UNIT_ASSIGNED_CONTEXT ( ( #195, #286, #24 ) ) REPRESENTATION_CONTEXT ( 'NONE', 'WORKASPACE' ) );
#252 = DIRECTION ( 'NONE',  ( -1.000000000000000000, 0.000000000000000000, 0.000000000000000000 ) ) ;
#253 = ORIENTED_EDGE ( 'NONE', *, *, #250, .T. ) ;
#254 = CARTESIAN_POINT ( 'NONE',  ( 0.1875000000000000555, 0.1875000000000000555, 0.000000000000000000 ) ) ;
#255 = CYLINDRICAL_SURFACE ( 'NONE', #249, 0.1874999999999998335 ) ;
#256 = DIRECTION ( 'NONE',  ( -1.000000000000000000, 0.000000000000000000, 0.000000000000000000 ) ) ;
#257 = VERTEX_POINT ( 'NONE', #8 ) ;
#258 = ADVANCED_FACE ( 'NONE', ( #36 ), #117, .F. ) ;
#259 = LINE ( 'NONE', #106, #302 ) ;
#260 = MECHANICAL_DESIGN_GEOMETRIC_PRESENTATION_REPRESENTATION (  '', ( #238 ), #322 ) ;
#261 = VERTEX_POINT ( 'NONE', #254 ) ;
#262 = MECHANICAL_DESIGN_GEOMETRIC_PRESENTATION_REPRESENTATION (  '', ( #46 ), #109 ) ;
#263 = APPLICATION_PROTOCOL_DEFINITION ( 'draft international standard', 'automotive_design', 1998, #305 ) ;
#264 = DIRECTION ( 'NONE',  ( -1.000000000000000000, -1.924444970088698003E-16, 0.000000000000000000 ) ) ;
#265 = ORIENTED_EDGE ( 'NONE', *, *, #22, .T. ) ;
#266 = DIMENSIONAL_EXPONENTS ( 1.000000000000000000, 0.000000000000000000, 0.000000000000000000, 0.000000000000000000, 0.000000000000000000, 0.000000000000000000, 0.000000000000000000 ) ;
#267 = CARTESIAN_POINT ( 'NONE',  ( -0.1875000000000001388, 3.000000000000000444, 0.000000000000000000 ) ) ;
#268 = STYLED_ITEM ( 'NONE', ( #274 ), #92 ) ;
#269 = PRESENTATION_LAYER_ASSIGNMENT (  '', '', ( #230 ) ) ;
#270 =( LENGTH_UNIT ( ) NAMED_UNIT ( * ) SI_UNIT ( $, .METRE. ) );
#271 = LENGTH_MEASURE_WITH_UNIT ( LENGTH_MEASURE( 0.02539999999999999897 ), #127 );
#272 = FILL_AREA_STYLE_COLOUR ( '', #123 ) ;
#273 = EDGE_CURVE ( 'NONE', #372, #140, #259, .T. ) ;
#274 = PRESENTATION_STYLE_ASSIGNMENT (( #293 ) ) ;
#275 = CIRCLE ( 'NONE', #185, 0.1875000000000000555 ) ;
#276 = EDGE_CURVE ( 'NONE', #261, #140, #275, .T. ) ;
#277 = EDGE_LOOP ( 'NONE', ( #149, #89, #103, #145, #173 ) ) ;
#278 = CARTESIAN_POINT ( 'NONE',  ( 0.000000000000000000, 0.000000000000000000, 0.000000000000000000 ) ) ;
#279 = DIRECTION ( 'NONE',  ( 0.000000000000000000, 0.000000000000000000, 1.000000000000000000 ) ) ;
#280 = ORIENTED_EDGE ( 'NONE', *, *, #276, .F. ) ;
#281 = EDGE_CURVE ( 'NONE', #210, #191, #108, .T. ) ;
#282 = AXIS2_PLACEMENT_3D ( 'NONE', #362, #202, #69 ) ;
#283 = COLOUR_RGB ( '',1.000000000000000000, 0.000000000000000000, 0.000000000000000000 ) ;
#284 = ORIENTED_EDGE ( 'NONE', *, *, #22, .F. ) ;
#285 = DIRECTION ( 'NONE',  ( -1.000000000000000000, 0.000000000000000000, 0.000000000000000000 ) ) ;
#286 =( NAMED_UNIT ( * ) PLANE_ANGLE_UNIT ( ) SI_UNIT ( $, .RADIAN. ) );
#287 = SURFACE_SIDE_STYLE ('',( #88 ) ) ;
#288 = DIRECTION ( 'NONE',  ( 1.000000000000000000, 0.000000000000000000, -1.224646799147353207E-16 ) ) ;
#289 = AXIS2_PLACEMENT_3D ( 'NONE', #229, #55, #288 ) ;
#290 = CARTESIAN_POINT ( 'NONE',  ( 2.143131898507867804E-16, 1.250000000000000000, 0.000000000000000000 ) ) ;
#291 = COLOUR_RGB ( '',1.000000000000000000, 0.000000000000000000, 0.000000000000000000 ) ;
#292 = ORIENTED_EDGE ( 'NONE', *, *, #281, .T. ) ;
#293 = SURFACE_STYLE_USAGE ( .BOTH. , #100 ) ;
#294 = SURFACE_STYLE_USAGE ( .BOTH. , #287 ) ;
#295 = CARTESIAN_POINT ( 'NONE',  ( 2.296212748401285877E-17, 1.250000000000000000, 0.1874999999999998335 ) ) ;
#296 = STYLED_ITEM ( 'NONE', ( #78 ), #203 ) ;
#297 = PRESENTATION_LAYER_ASSIGNMENT (  '', '', ( #46 ) ) ;
#298 =( NAMED_UNIT ( * ) PLANE_ANGLE_UNIT ( ) SI_UNIT ( $, .RADIAN. ) );
#299 = SURFACE_STYLE_FILL_AREA ( #97 ) ;
#300 = PRESENTATION_STYLE_ASSIGNMENT (( #304 ) ) ;
#301 = CLOSED_SHELL ( 'NONE', ( #184, #203, #331, #208, #345 ) ) ;
#302 = VECTOR ( 'NONE', #352, 39.37007874015748143 ) ;
#303 = SURFACE_STYLE_USAGE ( .BOTH. , #50 ) ;
#304 = SURFACE_STYLE_USAGE ( .BOTH. , #161 ) ;
#305 = APPLICATION_CONTEXT ( 'automotive_design' ) ;
#306 = UNCERTAINTY_MEASURE_WITH_UNIT (LENGTH_MEASURE( 1.000000000000000082E-05 ), #325, 'distance_accuracy_value', 'NONE');
#307 = CIRCLE ( 'NONE', #289, 0.1875000000000000555 ) ;
#308 = MECHANICAL_DESIGN_GEOMETRIC_PRESENTATION_REPRESENTATION (  '', ( #296 ), #48 ) ;
#309 = FILL_AREA_STYLE ('',( #217 ) ) ;
#310 = DIRECTION ( 'NONE',  ( -0.000000000000000000, -1.000000000000000000, -0.000000000000000000 ) ) ;
#311 =( LENGTH_UNIT ( ) NAMED_UNIT ( * ) SI_UNIT ( $, .METRE. ) );
#312 = CARTESIAN_POINT ( 'NONE',  ( 0.000000000000000000, 1.250000000000000000, -0.1874999999999998335 ) ) ;
#313 = APPLICATION_CONTEXT ( 'automotive_design' ) ;
#314 = MECHANICAL_DESIGN_GEOMETRIC_PRESENTATION_REPRESENTATION (  '', ( #268 ), #34 ) ;
#315 = CARTESIAN_POINT ( 'NONE',  ( 0.000000000000000000, 0.1875000000000000555, 0.000000000000000000 ) ) ;
#316 = ORIENTED_EDGE ( 'NONE', *, *, #276, .T. ) ;
#317 = SURFACE_SIDE_STYLE ('',( #3 ) ) ;
#318 = CARTESIAN_POINT ( 'NONE',  ( 0.000000000000000000, 0.000000000000000000, 0.000000000000000000 ) ) ;
#319 = PRODUCT ( '81930', '81930', '', ( #328 ) ) ;
#320 = ORIENTED_EDGE ( 'NONE', *, *, #150, .T. ) ;
#321 = CARTESIAN_POINT ( 'NONE',  ( 0.000000000000000000, 0.1875000000000000555, -0.1875000000000000555 ) ) ;
#322 =( GEOMETRIC_REPRESENTATION_CONTEXT ( 3 ) GLOBAL_UNCERTAINTY_ASSIGNED_CONTEXT ( ( #306 ) ) GLOBAL_UNIT_ASSIGNED_CONTEXT ( ( #325, #205, #178 ) ) REPRESENTATION_CONTEXT ( 'NONE', 'WORKASPACE' ) );
#323 = EDGE_CURVE ( 'NONE', #31, #357, #80, .T. ) ;
#324 =( CONVERSION_BASED_UNIT ( 'INCH', #354 ) LENGTH_UNIT ( ) NAMED_UNIT ( #266 ) );
#325 =( CONVERSION_BASED_UNIT ( 'INCH', #67 ) LENGTH_UNIT ( ) NAMED_UNIT ( #326 ) );
#326 = DIMENSIONAL_EXPONENTS ( 1.000000000000000000, 0.000000000000000000, 0.000000000000000000, 0.000000000000000000, 0.000000000000000000, 0.000000000000000000, 0.000000000000000000 ) ;
#327 =( CONVERSION_BASED_UNIT ( 'INCH', #271 ) LENGTH_UNIT ( ) NAMED_UNIT ( #176 ) );
#328 = PRODUCT_CONTEXT ( 'NONE', #313, 'mechanical' ) ;
#329 = LINE ( 'NONE', #182, #85 ) ;
#330 =( NAMED_UNIT ( * ) PLANE_ANGLE_UNIT ( ) SI_UNIT ( $, .RADIAN. ) );
#331 = ADVANCED_FACE ( 'NONE', ( #162 ), #110, .T. ) ;
#332 = SURFACE_SIDE_STYLE ('',( #134 ) ) ;
#333 = COLOUR_RGB ( '',1.000000000000000000, 0.000000000000000000, 0.000000000000000000 ) ;
#334 = AXIS2_PLACEMENT_3D ( 'NONE', #165, #27, #373 ) ;
#335 = UNCERTAINTY_MEASURE_WITH_UNIT (LENGTH_MEASURE( 1.000000000000000082E-05 ), #60, 'distance_accuracy_value', 'NONE');
#336 = CARTESIAN_POINT ( 'NONE',  ( -2.296212748401288034E-17, 0.1875000000000000555, 0.000000000000000000 ) ) ;
#337 = ADVANCED_FACE ( 'NONE', ( #199 ), #355, .T. ) ;
#338 = MECHANICAL_DESIGN_GEOMETRIC_PRESENTATION_REPRESENTATION (  '', ( #206 ), #251 ) ;
#339 = VECTOR ( 'NONE', #96, 39.37007874015748143 ) ;
#340 = CARTESIAN_POINT ( 'NONE',  ( 0.000000000000000000, 0.1875000000000000555, 0.000000000000000000 ) ) ;
#341 = ORIENTED_EDGE ( 'NONE', *, *, #150, .F. ) ;
#342 = LENGTH_MEASURE_WITH_UNIT ( LENGTH_MEASURE( 0.02539999999999999897 ), #138 );
#343 = SURFACE_STYLE_FILL_AREA ( #113 ) ;
#344 = EDGE_LOOP ( 'NONE', ( #37, #253, #320, #170 ) ) ;
#345 = ADVANCED_FACE ( 'NONE', ( #141 ), #189, .T. ) ;
#346 =( CONVERSION_BASED_UNIT ( 'INCH', #342 ) LENGTH_UNIT ( ) NAMED_UNIT ( #236 ) );
#347 = ORIENTED_EDGE ( 'NONE', *, *, #231, .T. ) ;
#348 = CIRCLE ( 'NONE', #282, 0.1874999999999998335 ) ;
#349 = DIRECTION ( 'NONE',  ( -1.924444970088698003E-16, 1.000000000000000000, -0.000000000000000000 ) ) ;
#350 = AXIS2_PLACEMENT_3D ( 'NONE', #10, #194, #285 ) ;
#351 = ORIENTED_EDGE ( 'NONE', *, *, #121, .F. ) ;
#352 = DIRECTION ( 'NONE',  ( -0.000000000000000000, -1.000000000000000000, -0.000000000000000000 ) ) ;
#353 = VERTEX_POINT ( 'NONE', #54 ) ;
#354 = LENGTH_MEASURE_WITH_UNIT ( LENGTH_MEASURE( 0.02539999999999999897 ), #270 );
#355 = CYLINDRICAL_SURFACE ( 'NONE', #350, 0.1874999999999998335 ) ;
#356 = EDGE_CURVE ( 'NONE', #191, #210, #365, .T. ) ;
#357 = VERTEX_POINT ( 'NONE', #321 ) ;
#358 =( NAMED_UNIT ( * ) SI_UNIT ( $, .STERADIAN. ) SOLID_ANGLE_UNIT ( ) );
#359 = CIRCLE ( 'NONE', #128, 0.1874999999999996392 ) ;
#360 = SURFACE_STYLE_FILL_AREA ( #239 ) ;
#361 = DIMENSIONAL_EXPONENTS ( 1.000000000000000000, 0.000000000000000000, 0.000000000000000000, 0.000000000000000000, 0.000000000000000000, 0.000000000000000000, 0.000000000000000000 ) ;
#362 = CARTESIAN_POINT ( 'NONE',  ( 0.000000000000000000, 1.250000000000000000, 0.000000000000000000 ) ) ;
#363 = CARTESIAN_POINT ( 'NONE',  ( 0.000000000000000000, 1.250000000000000000, 0.000000000000000000 ) ) ;
#364 = PRESENTATION_LAYER_ASSIGNMENT (  '', '', ( #206 ) ) ;
#365 = CIRCLE ( 'NONE', #129, 0.1875000000000000278 ) ;
#366 = EDGE_CURVE ( 'NONE', #25, #210, #204, .T. ) ;
#367 =( LENGTH_UNIT ( ) NAMED_UNIT ( * ) SI_UNIT ( $, .METRE. ) );
#368 = ORIENTED_EDGE ( 'NONE', *, *, #250, .F. ) ;
#369 = CIRCLE ( 'NONE', #99, 0.1874999999999998335 ) ;
#370 = MECHANICAL_DESIGN_GEOMETRIC_PRESENTATION_REPRESENTATION (  '', ( #230 ), #241 ) ;
#371 = CARTESIAN_POINT ( 'NONE',  ( 2.143131898507868297E-16, 1.250000000000000000, 0.000000000000000000 ) ) ;
#372 = VERTEX_POINT ( 'NONE', #295 ) ;
#373 = DIRECTION ( 'NONE',  ( 1.000000000000000000, 0.000000000000000000, 0.000000000000000000 ) ) ;
ENDSEC;
END-ISO-10303-21;
