ISO-10303-21;
HEADER;
FILE_DESCRIPTION (( 'STEP AP214' ),
    '1' );
FILE_NAME ('83201.STEP',
    '2023-06-23T08:32:44',
    ( '' ),
    ( '' ),
    'SwSTEP 2.0',
    'SolidWorks 2023',
    '' );
FILE_SCHEMA (( 'AUTOMOTIVE_DESIGN' ));
ENDSEC;

DATA;
#1 = VERTEX_POINT ( 'NONE', #61 ) ;
#2 = DIRECTION ( 'NONE',  ( -0.000000000000000000, -1.000000000000000000, -0.000000000000000000 ) ) ;
#3 =( GEOMETRIC_REPRESENTATION_CONTEXT ( 3 ) GLOBAL_UNCERTAINTY_ASSIGNED_CONTEXT ( ( #89 ) ) GLOBAL_UNIT_ASSIGNED_CONTEXT ( ( #202, #275, #201 ) ) REPRESENTATION_CONTEXT ( 'NONE', 'WORKASPACE' ) );
#4 = DIRECTION ( 'NONE',  ( -4.082155997157848133E-17, 1.000000000000000000, -0.000000000000000000 ) ) ;
#5 = ADVANCED_FACE ( 'NONE', ( #27 ), #48, .T. ) ;
#6 = ORIENTED_EDGE ( 'NONE', *, *, #169, .F. ) ;
#7 = AXIS2_PLACEMENT_3D ( 'NONE', #159, #4, #83 ) ;
#8 = PRESENTATION_STYLE_ASSIGNMENT (( #160 ) ) ;
#9 = EDGE_CURVE ( 'NONE', #97, #149, #110, .T. ) ;
#10 = FILL_AREA_STYLE_COLOUR ( '', #137 ) ;
#11 = LENGTH_MEASURE_WITH_UNIT ( LENGTH_MEASURE( 0.02539999999999999897 ), #31 );
#12 = CIRCLE ( 'NONE', #225, 0.1875000000000000278 ) ;
#13 = SURFACE_SIDE_STYLE ('',( #140 ) ) ;
#14 = PLANE ( 'NONE',  #296 ) ;
#15 = ORIENTED_EDGE ( 'NONE', *, *, #273, .F. ) ;
#16 = VERTEX_POINT ( 'NONE', #194 ) ;
#17 = APPLICATION_PROTOCOL_DEFINITION ( 'draft international standard', 'automotive_design', 1998, #227 ) ;
#18 = VERTEX_POINT ( 'NONE', #234 ) ;
#19 = DIMENSIONAL_EXPONENTS ( 1.000000000000000000, 0.000000000000000000, 0.000000000000000000, 0.000000000000000000, 0.000000000000000000, 0.000000000000000000, 0.000000000000000000 ) ;
#20 = COLOUR_RGB ( '',1.000000000000000000, 0.000000000000000000, 0.000000000000000000 ) ;
#21 =( LENGTH_UNIT ( ) NAMED_UNIT ( * ) SI_UNIT ( $, .METRE. ) );
#22 = ORIENTED_EDGE ( 'NONE', *, *, #146, .T. ) ;
#23 = ADVANCED_FACE ( 'NONE', ( #285 ), #133, .T. ) ;
#24 = DIRECTION ( 'NONE',  ( -1.000000000000000000, 0.000000000000000000, 0.000000000000000000 ) ) ;
#25 =( LENGTH_UNIT ( ) NAMED_UNIT ( * ) SI_UNIT ( $, .METRE. ) );
#26 = PLANE ( 'NONE',  #155 ) ;
#27 = FACE_OUTER_BOUND ( 'NONE', #175, .T. ) ;
#28 = CARTESIAN_POINT ( 'NONE',  ( 0.000000000000000000, 1.500000000000000222, -0.1875000000000000278 ) ) ;
#29 = ORIENTED_EDGE ( 'NONE', *, *, #255, .F. ) ;
#30 = VECTOR ( 'NONE', #135, 39.37007874015748143 ) ;
#31 =( LENGTH_UNIT ( ) NAMED_UNIT ( * ) SI_UNIT ( $, .METRE. ) );
#32 = CARTESIAN_POINT ( 'NONE',  ( 2.296212748401287726E-17, 1.500000000000000222, 0.1875000000000000278 ) ) ;
#33 = LINE ( 'NONE', #78, #30 ) ;
#34 = LENGTH_MEASURE_WITH_UNIT ( LENGTH_MEASURE( 0.02539999999999999897 ), #266 );
#35 = UNCERTAINTY_MEASURE_WITH_UNIT (LENGTH_MEASURE( 1.000000000000000082E-05 ), #306, 'distance_accuracy_value', 'NONE');
#36 = ORIENTED_EDGE ( 'NONE', *, *, #193, .F. ) ;
#37 =( LENGTH_UNIT ( ) NAMED_UNIT ( * ) SI_UNIT ( $, .METRE. ) );
#38 = ORIENTED_EDGE ( 'NONE', *, *, #146, .F. ) ;
#39 = FILL_AREA_STYLE_COLOUR ( '', #260 ) ;
#40 =( NAMED_UNIT ( * ) PLANE_ANGLE_UNIT ( ) SI_UNIT ( $, .RADIAN. ) );
#41 = DIRECTION ( 'NONE',  ( 0.000000000000000000, -1.000000000000000000, -0.000000000000000000 ) ) ;
#42 = DIRECTION ( 'NONE',  ( 0.000000000000000000, 0.000000000000000000, -1.000000000000000000 ) ) ;
#43 = MECHANICAL_DESIGN_GEOMETRIC_PRESENTATION_REPRESENTATION (  '', ( #276 ), #68 ) ;
#44 = CARTESIAN_POINT ( 'NONE',  ( 7.582401355855259480E-33, 1.500000000000000222, 0.000000000000000000 ) ) ;
#45 = DIRECTION ( 'NONE',  ( -4.082155997157848133E-17, 1.000000000000000000, 0.000000000000000000 ) ) ;
#46 = FILL_AREA_STYLE ('',( #217 ) ) ;
#47 = SURFACE_STYLE_FILL_AREA ( #46 ) ;
#48 = CYLINDRICAL_SURFACE ( 'NONE', #114, 0.1875000000000000555 ) ;
#49 = AXIS2_PLACEMENT_3D ( 'NONE', #95, #54, #96 ) ;
#50 = UNCERTAINTY_MEASURE_WITH_UNIT (LENGTH_MEASURE( 1.000000000000000082E-05 ), #157, 'distance_accuracy_value', 'NONE');
#51 = EDGE_CURVE ( 'NONE', #228, #149, #111, .T. ) ;
#52 = SURFACE_STYLE_USAGE ( .BOTH. , #252 ) ;
#53 = ORIENTED_EDGE ( 'NONE', *, *, #273, .T. ) ;
#54 = DIRECTION ( 'NONE',  ( -0.000000000000000000, -1.000000000000000000, -0.000000000000000000 ) ) ;
#55 = PRESENTATION_LAYER_ASSIGNMENT (  '', '', ( #198 ) ) ;
#56 = AXIS2_PLACEMENT_3D ( 'NONE', #109, #244, #182 ) ;
#57 = ADVANCED_FACE ( 'NONE', ( #195 ), #81, .T. ) ;
#58 = CARTESIAN_POINT ( 'NONE',  ( 0.000000000000000000, 1.500000000000000222, 0.000000000000000000 ) ) ;
#59 = ORIENTED_EDGE ( 'NONE', *, *, #224, .F. ) ;
#60 = CARTESIAN_POINT ( 'NONE',  ( -6.123233995736772199E-17, 3.000000000000000444, 0.000000000000000000 ) ) ;
#61 = CARTESIAN_POINT ( 'NONE',  ( -0.1875000000000001388, 3.000000000000000444, 0.000000000000000000 ) ) ;
#62 = FILL_AREA_STYLE ('',( #191 ) ) ;
#63 = SURFACE_SIDE_STYLE ('',( #47 ) ) ;
#64 = COLOUR_RGB ( '',0.7921568627450980005, 0.8196078431372548767, 0.9333333333333333481 ) ;
#65 = FACE_OUTER_BOUND ( 'NONE', #122, .T. ) ;
#66 = SURFACE_SIDE_STYLE ('',( #186 ) ) ;
#67 = ADVANCED_FACE ( 'NONE', ( #65 ), #261, .F. ) ;
#68 =( GEOMETRIC_REPRESENTATION_CONTEXT ( 3 ) GLOBAL_UNCERTAINTY_ASSIGNED_CONTEXT ( ( #248 ) ) GLOBAL_UNIT_ASSIGNED_CONTEXT ( ( #168, #113, #298 ) ) REPRESENTATION_CONTEXT ( 'NONE', 'WORKASPACE' ) );
#69 = MECHANICAL_DESIGN_GEOMETRIC_PRESENTATION_REPRESENTATION (  '', ( #203 ), #85 ) ;
#70 = CARTESIAN_POINT ( 'NONE',  ( 0.000000000000000000, 1.500000000000000222, 0.000000000000000000 ) ) ;
#71 = DIRECTION ( 'NONE',  ( 1.000000000000000000, 4.082155997157848133E-17, 0.000000000000000000 ) ) ;
#72 = SURFACE_STYLE_USAGE ( .BOTH. , #13 ) ;
#73 = MANIFOLD_SOLID_BREP ( 'Revolve - Cutting Edge', #90 ) ;
#74 = CIRCLE ( 'NONE', #241, 0.1875000000000000278 ) ;
#75 = UNCERTAINTY_MEASURE_WITH_UNIT (LENGTH_MEASURE( 1.000000000000000082E-05 ), #79, 'distance_accuracy_value', 'NONE');
#76 = SURFACE_STYLE_USAGE ( .BOTH. , #123 ) ;
#77 = ORIENTED_EDGE ( 'NONE', *, *, #245, .T. ) ;
#78 = CARTESIAN_POINT ( 'NONE',  ( 0.000000000000000000, 0.000000000000000000, -0.1875000000000000278 ) ) ;
#79 =( CONVERSION_BASED_UNIT ( 'INCH', #309 ) LENGTH_UNIT ( ) NAMED_UNIT ( #208 ) );
#80 = DIRECTION ( 'NONE',  ( -0.000000000000000000, -1.000000000000000000, -0.000000000000000000 ) ) ;
#81 = CYLINDRICAL_SURFACE ( 'NONE', #196, 0.1875000000000000278 ) ;
#82 = AXIS2_PLACEMENT_3D ( 'NONE', #70, #179, #214 ) ;
#83 = DIRECTION ( 'NONE',  ( -1.000000000000000000, 0.000000000000000000, 0.000000000000000000 ) ) ;
#84 = EDGE_CURVE ( 'NONE', #16, #153, #284, .T. ) ;
#85 =( GEOMETRIC_REPRESENTATION_CONTEXT ( 3 ) GLOBAL_UNCERTAINTY_ASSIGNED_CONTEXT ( ( #75 ) ) GLOBAL_UNIT_ASSIGNED_CONTEXT ( ( #79, #256, #204 ) ) REPRESENTATION_CONTEXT ( 'NONE', 'WORKASPACE' ) );
#86 = LENGTH_MEASURE_WITH_UNIT ( LENGTH_MEASURE( 0.02539999999999999897 ), #294 );
#87 = CARTESIAN_POINT ( 'NONE',  ( 0.1875000000000000278, 3.000000000000000444, 0.000000000000000000 ) ) ;
#88 = PRESENTATION_STYLE_ASSIGNMENT (( #72 ) ) ;
#89 = UNCERTAINTY_MEASURE_WITH_UNIT (LENGTH_MEASURE( 1.000000000000000082E-05 ), #202, 'distance_accuracy_value', 'NONE');
#90 = CLOSED_SHELL ( 'NONE', ( #139, #107, #57, #143 ) ) ;
#91 = CIRCLE ( 'NONE', #181, 0.1875000000000000833 ) ;
#92 = ORIENTED_EDGE ( 'NONE', *, *, #169, .T. ) ;
#93 = APPLICATION_PROTOCOL_DEFINITION ( 'draft international standard', 'automotive_design', 1998, #246 ) ;
#94 = ORIENTED_EDGE ( 'NONE', *, *, #193, .T. ) ;
#95 = CARTESIAN_POINT ( 'NONE',  ( 0.000000000000000000, 0.000000000000000000, 0.000000000000000000 ) ) ;
#96 = DIRECTION ( 'NONE',  ( 0.000000000000000000, 0.000000000000000000, -1.000000000000000000 ) ) ;
#97 = VERTEX_POINT ( 'NONE', #32 ) ;
#98 = DIMENSIONAL_EXPONENTS ( 1.000000000000000000, 0.000000000000000000, 0.000000000000000000, 0.000000000000000000, 0.000000000000000000, 0.000000000000000000, 0.000000000000000000 ) ;
#99 = DIRECTION ( 'NONE',  ( 0.000000000000000000, 0.000000000000000000, -1.000000000000000000 ) ) ;
#100 = ORIENTED_EDGE ( 'NONE', *, *, #255, .T. ) ;
#101 = DIMENSIONAL_EXPONENTS ( 1.000000000000000000, 0.000000000000000000, 0.000000000000000000, 0.000000000000000000, 0.000000000000000000, 0.000000000000000000, 0.000000000000000000 ) ;
#102 = CARTESIAN_POINT ( 'NONE',  ( 0.000000000000000000, 0.000000000000000000, 0.000000000000000000 ) ) ;
#103 = LENGTH_MEASURE_WITH_UNIT ( LENGTH_MEASURE( 0.02539999999999999897 ), #25 );
#104 = SURFACE_STYLE_FILL_AREA ( #269 ) ;
#105 = CARTESIAN_POINT ( 'NONE',  ( 0.000000000000000000, 0.000000000000000000, 0.000000000000000000 ) ) ;
#106 = AXIS2_PLACEMENT_3D ( 'NONE', #105, #163, #289 ) ;
#107 = ADVANCED_FACE ( 'NONE', ( #291 ), #26, .T. ) ;
#108 = DIRECTION ( 'NONE',  ( -0.000000000000000000, -1.000000000000000000, -0.000000000000000000 ) ) ;
#109 = CARTESIAN_POINT ( 'NONE',  ( 7.582401355855259480E-33, 1.500000000000000222, 0.000000000000000000 ) ) ;
#110 = LINE ( 'NONE', #129, #180 ) ;
#111 = CIRCLE ( 'NONE', #106, 0.1875000000000000278 ) ;
#112 = STYLED_ITEM ( 'NONE', ( #162 ), #183 ) ;
#113 =( NAMED_UNIT ( * ) PLANE_ANGLE_UNIT ( ) SI_UNIT ( $, .RADIAN. ) );
#114 = AXIS2_PLACEMENT_3D ( 'NONE', #130, #158, #215 ) ;
#115 = CARTESIAN_POINT ( 'NONE',  ( 0.000000000000000000, 1.500000000000000222, 0.000000000000000000 ) ) ;
#116 = UNCERTAINTY_MEASURE_WITH_UNIT (LENGTH_MEASURE( 1.000000000000000082E-05 ), #125, 'distance_accuracy_value', 'NONE');
#117 = ADVANCED_FACE ( 'NONE', ( #220 ), #14, .F. ) ;
#118 = ORIENTED_EDGE ( 'NONE', *, *, #219, .F. ) ;
#119 = FILL_AREA_STYLE ('',( #39 ) ) ;
#120 = STYLED_ITEM ( 'NONE', ( #88 ), #73 ) ;
#121 = AXIS2_PLACEMENT_3D ( 'NONE', #207, #41, #99 ) ;
#122 = EDGE_LOOP ( 'NONE', ( #59, #265 ) ) ;
#123 = SURFACE_SIDE_STYLE ('',( #211 ) ) ;
#124 = EDGE_LOOP ( 'NONE', ( #303, #94 ) ) ;
#125 =( CONVERSION_BASED_UNIT ( 'INCH', #127 ) LENGTH_UNIT ( ) NAMED_UNIT ( #262 ) );
#126 = ORIENTED_EDGE ( 'NONE', *, *, #84, .F. ) ;
#127 = LENGTH_MEASURE_WITH_UNIT ( LENGTH_MEASURE( 0.02539999999999999897 ), #21 );
#128 = PRODUCT_DEFINITION_SHAPE ( 'NONE', 'NONE',  #264 ) ;
#129 = CARTESIAN_POINT ( 'NONE',  ( 2.296212748401287726E-17, 0.000000000000000000, 0.1875000000000000278 ) ) ;
#130 = CARTESIAN_POINT ( 'NONE',  ( -6.123233995736772199E-17, 3.000000000000000444, 0.000000000000000000 ) ) ;
#131 =( GEOMETRIC_REPRESENTATION_CONTEXT ( 3 ) GLOBAL_UNCERTAINTY_ASSIGNED_CONTEXT ( ( #278 ) ) GLOBAL_UNIT_ASSIGNED_CONTEXT ( ( #141, #249, #223 ) ) REPRESENTATION_CONTEXT ( 'NONE', 'WORKASPACE' ) );
#132 = DIRECTION ( 'NONE',  ( -4.082155997157848133E-17, 1.000000000000000000, -0.000000000000000000 ) ) ;
#133 = CYLINDRICAL_SURFACE ( 'NONE', #7, 0.1875000000000000555 ) ;
#134 = FILL_AREA_STYLE_COLOUR ( '', #20 ) ;
#135 = DIRECTION ( 'NONE',  ( -0.000000000000000000, -1.000000000000000000, -0.000000000000000000 ) ) ;
#136 = SURFACE_SIDE_STYLE ('',( #104 ) ) ;
#137 = COLOUR_RGB ( '',1.000000000000000000, 0.000000000000000000, 0.000000000000000000 ) ;
#138 = CIRCLE ( 'NONE', #292, 0.1875000000000000278 ) ;
#139 = ADVANCED_FACE ( 'NONE', ( #300 ), #302, .T. ) ;
#140 = SURFACE_STYLE_FILL_AREA ( #274 ) ;
#141 =( CONVERSION_BASED_UNIT ( 'INCH', #11 ) LENGTH_UNIT ( ) NAMED_UNIT ( #19 ) );
#142 = VECTOR ( 'NONE', #243, 39.37007874015748143 ) ;
#143 = ADVANCED_FACE ( 'NONE', ( #144 ), #148, .T. ) ;
#144 = FACE_OUTER_BOUND ( 'NONE', #124, .T. ) ;
#145 = ORIENTED_EDGE ( 'NONE', *, *, #245, .F. ) ;
#146 = EDGE_CURVE ( 'NONE', #97, #185, #138, .T. ) ;
#147 = PRODUCT_CONTEXT ( 'NONE', #227, 'mechanical' ) ;
#148 = PLANE ( 'NONE',  #121 ) ;
#149 = VERTEX_POINT ( 'NONE', #152 ) ;
#150 =( NAMED_UNIT ( * ) SI_UNIT ( $, .STERADIAN. ) SOLID_ANGLE_UNIT ( ) );
#151 = DIMENSIONAL_EXPONENTS ( 1.000000000000000000, 0.000000000000000000, 0.000000000000000000, 0.000000000000000000, 0.000000000000000000, 0.000000000000000000, 0.000000000000000000 ) ;
#152 = CARTESIAN_POINT ( 'NONE',  ( 2.296212748401287726E-17, 0.000000000000000000, 0.1875000000000000278 ) ) ;
#153 = VERTEX_POINT ( 'NONE', #282 ) ;
#154 = ORIENTED_EDGE ( 'NONE', *, *, #84, .T. ) ;
#155 = AXIS2_PLACEMENT_3D ( 'NONE', #115, #221, #200 ) ;
#156 = CIRCLE ( 'NONE', #56, 0.1875000000000000278 ) ;
#157 =( CONVERSION_BASED_UNIT ( 'INCH', #103 ) LENGTH_UNIT ( ) NAMED_UNIT ( #101 ) );
#158 = DIRECTION ( 'NONE',  ( -4.082155997157848133E-17, 1.000000000000000000, -0.000000000000000000 ) ) ;
#159 = CARTESIAN_POINT ( 'NONE',  ( -6.123233995736772199E-17, 3.000000000000000444, 0.000000000000000000 ) ) ;
#160 = SURFACE_STYLE_USAGE ( .BOTH. , #63 ) ;
#161 =( GEOMETRIC_REPRESENTATION_CONTEXT ( 3 ) GLOBAL_UNCERTAINTY_ASSIGNED_CONTEXT ( ( #35 ) ) GLOBAL_UNIT_ASSIGNED_CONTEXT ( ( #306, #40, #150 ) ) REPRESENTATION_CONTEXT ( 'NONE', 'WORKASPACE' ) );
#162 = PRESENTATION_STYLE_ASSIGNMENT (( #286 ) ) ;
#163 = DIRECTION ( 'NONE',  ( -0.000000000000000000, -1.000000000000000000, -0.000000000000000000 ) ) ;
#164 = ADVANCED_BREP_SHAPE_REPRESENTATION ( '83201', ( #73, #183, #167 ), #161 ) ;
#165 = CARTESIAN_POINT ( 'NONE',  ( -0.1875000000000001110, 3.000000000000000444, 0.000000000000000000 ) ) ;
#166 = PRESENTATION_LAYER_ASSIGNMENT (  '', '', ( #276 ) ) ;
#167 = AXIS2_PLACEMENT_3D ( 'NONE', #279, #176, #254 ) ;
#168 =( CONVERSION_BASED_UNIT ( 'INCH', #34 ) LENGTH_UNIT ( ) NAMED_UNIT ( #151 ) );
#169 = EDGE_CURVE ( 'NONE', #1, #153, #91, .T. ) ;
#170 =( GEOMETRIC_REPRESENTATION_CONTEXT ( 3 ) GLOBAL_UNCERTAINTY_ASSIGNED_CONTEXT ( ( #50 ) ) GLOBAL_UNIT_ASSIGNED_CONTEXT ( ( #157, #268, #237 ) ) REPRESENTATION_CONTEXT ( 'NONE', 'WORKASPACE' ) );
#171 =( GEOMETRIC_REPRESENTATION_CONTEXT ( 3 ) GLOBAL_UNCERTAINTY_ASSIGNED_CONTEXT ( ( #116 ) ) GLOBAL_UNIT_ASSIGNED_CONTEXT ( ( #125, #173, #307 ) ) REPRESENTATION_CONTEXT ( 'NONE', 'WORKASPACE' ) );
#172 = SHAPE_DEFINITION_REPRESENTATION ( #128, #164 ) ;
#173 =( NAMED_UNIT ( * ) PLANE_ANGLE_UNIT ( ) SI_UNIT ( $, .RADIAN. ) );
#174 = EDGE_CURVE ( 'NONE', #16, #18, #12, .T. ) ;
#175 = EDGE_LOOP ( 'NONE', ( #126, #253, #53, #118 ) ) ;
#176 = DIRECTION ( 'NONE',  ( 0.000000000000000000, 0.000000000000000000, 1.000000000000000000 ) ) ;
#177 = PRESENTATION_STYLE_ASSIGNMENT (( #76 ) ) ;
#178 = ORIENTED_EDGE ( 'NONE', *, *, #224, .T. ) ;
#179 = DIRECTION ( 'NONE',  ( -0.000000000000000000, -1.000000000000000000, -0.000000000000000000 ) ) ;
#180 = VECTOR ( 'NONE', #108, 39.37007874015748143 ) ;
#181 = AXIS2_PLACEMENT_3D ( 'NONE', #60, #259, #229 ) ;
#182 = DIRECTION ( 'NONE',  ( -1.000000000000000000, 0.000000000000000000, 0.000000000000000000 ) ) ;
#183 = MANIFOLD_SOLID_BREP ( 'Revolve - Tool Body (Straight Shanked)', #230 ) ;
#184 = PRODUCT ( '83201', '83201', '', ( #147 ) ) ;
#185 = VERTEX_POINT ( 'NONE', #28 ) ;
#186 = SURFACE_STYLE_FILL_AREA ( #62 ) ;
#187 = DIRECTION ( 'NONE',  ( 0.000000000000000000, 0.000000000000000000, -1.000000000000000000 ) ) ;
#188 = MECHANICAL_DESIGN_GEOMETRIC_PRESENTATION_REPRESENTATION (  '', ( #120 ), #3 ) ;
#189 = CIRCLE ( 'NONE', #82, 0.1875000000000000278 ) ;
#190 = DIRECTION ( 'NONE',  ( -1.000000000000000000, -4.082155997157848133E-17, 0.000000000000000000 ) ) ;
#191 = FILL_AREA_STYLE_COLOUR ( '', #199 ) ;
#192 = SURFACE_STYLE_USAGE ( .BOTH. , #136 ) ;
#193 = EDGE_CURVE ( 'NONE', #149, #228, #74, .T. ) ;
#194 = CARTESIAN_POINT ( 'NONE',  ( 0.1875000000000000278, 1.500000000000000222, 2.296212748401288342E-17 ) ) ;
#195 = FACE_OUTER_BOUND ( 'NONE', #232, .T. ) ;
#196 = AXIS2_PLACEMENT_3D ( 'NONE', #216, #2, #293 ) ;
#197 = FILL_AREA_STYLE ('',( #10 ) ) ;
#198 = STYLED_ITEM ( 'NONE', ( #304 ), #139 ) ;
#199 = COLOUR_RGB ( '',0.7921568627450980005, 0.8196078431372548767, 0.9333333333333333481 ) ;
#200 = DIRECTION ( 'NONE',  ( 0.000000000000000000, -0.000000000000000000, 1.000000000000000000 ) ) ;
#201 =( NAMED_UNIT ( * ) SI_UNIT ( $, .STERADIAN. ) SOLID_ANGLE_UNIT ( ) );
#202 =( CONVERSION_BASED_UNIT ( 'INCH', #86 ) LENGTH_UNIT ( ) NAMED_UNIT ( #98 ) );
#203 = STYLED_ITEM ( 'NONE', ( #177 ), #143 ) ;
#204 =( NAMED_UNIT ( * ) SI_UNIT ( $, .STERADIAN. ) SOLID_ANGLE_UNIT ( ) );
#205 = PRODUCT_RELATED_PRODUCT_CATEGORY ( 'part', '', ( #184 ) ) ;
#206 = EDGE_LOOP ( 'NONE', ( #100, #226, #210, #145 ) ) ;
#207 = CARTESIAN_POINT ( 'NONE',  ( 0.000000000000000000, 0.000000000000000000, 0.000000000000000000 ) ) ;
#208 = DIMENSIONAL_EXPONENTS ( 1.000000000000000000, 0.000000000000000000, 0.000000000000000000, 0.000000000000000000, 0.000000000000000000, 0.000000000000000000, 0.000000000000000000 ) ;
#209 = COLOUR_RGB ( '',1.000000000000000000, 0.000000000000000000, 0.000000000000000000 ) ;
#210 = ORIENTED_EDGE ( 'NONE', *, *, #51, .F. ) ;
#211 = SURFACE_STYLE_FILL_AREA ( #119 ) ;
#212 = PRODUCT_DEFINITION_FORMATION_WITH_SPECIFIED_SOURCE ( 'ANY', '', #184, .NOT_KNOWN. ) ;
#213 = CARTESIAN_POINT ( 'NONE',  ( 1.562249773606105096E-34, 1.500000000000000222, 0.000000000000000000 ) ) ;
#214 = DIRECTION ( 'NONE',  ( 0.000000000000000000, 0.000000000000000000, -1.000000000000000000 ) ) ;
#215 = DIRECTION ( 'NONE',  ( -1.000000000000000000, 0.000000000000000000, 0.000000000000000000 ) ) ;
#216 = CARTESIAN_POINT ( 'NONE',  ( 0.000000000000000000, 0.000000000000000000, 0.000000000000000000 ) ) ;
#217 = FILL_AREA_STYLE_COLOUR ( '', #209 ) ;
#218 = PRESENTATION_LAYER_ASSIGNMENT (  '', '', ( #203 ) ) ;
#219 = EDGE_CURVE ( 'NONE', #153, #1, #301, .T. ) ;
#220 = FACE_OUTER_BOUND ( 'NONE', #239, .T. ) ;
#221 = DIRECTION ( 'NONE',  ( 0.000000000000000000, 1.000000000000000000, 0.000000000000000000 ) ) ;
#222 = DIRECTION ( 'NONE',  ( -0.000000000000000000, -1.000000000000000000, -0.000000000000000000 ) ) ;
#223 =( NAMED_UNIT ( * ) SI_UNIT ( $, .STERADIAN. ) SOLID_ANGLE_UNIT ( ) );
#224 = EDGE_CURVE ( 'NONE', #18, #16, #156, .T. ) ;
#225 = AXIS2_PLACEMENT_3D ( 'NONE', #44, #233, #24 ) ;
#226 = ORIENTED_EDGE ( 'NONE', *, *, #9, .T. ) ;
#227 = APPLICATION_CONTEXT ( 'automotive_design' ) ;
#228 = VERTEX_POINT ( 'NONE', #288 ) ;
#229 = DIRECTION ( 'NONE',  ( -1.000000000000000000, 0.000000000000000000, 0.000000000000000000 ) ) ;
#230 = CLOSED_SHELL ( 'NONE', ( #23, #67, #5, #117 ) ) ;
#231 = PRESENTATION_LAYER_ASSIGNMENT (  '', '', ( #112 ) ) ;
#232 = EDGE_LOOP ( 'NONE', ( #250, #22, #77, #36 ) ) ;
#233 = DIRECTION ( 'NONE',  ( -4.082155997157848133E-17, 1.000000000000000000, -0.000000000000000000 ) ) ;
#234 = CARTESIAN_POINT ( 'NONE',  ( -0.1875000000000000278, 1.500000000000000222, 0.000000000000000000 ) ) ;
#235 = MECHANICAL_DESIGN_GEOMETRIC_PRESENTATION_REPRESENTATION (  '', ( #198 ), #171 ) ;
#236 = MECHANICAL_DESIGN_GEOMETRIC_PRESENTATION_REPRESENTATION (  '', ( #240 ), #170 ) ;
#237 =( NAMED_UNIT ( * ) SI_UNIT ( $, .STERADIAN. ) SOLID_ANGLE_UNIT ( ) );
#238 = PRESENTATION_STYLE_ASSIGNMENT (( #192 ) ) ;
#239 = EDGE_LOOP ( 'NONE', ( #92, #305 ) ) ;
#240 = STYLED_ITEM ( 'NONE', ( #8 ), #57 ) ;
#241 = AXIS2_PLACEMENT_3D ( 'NONE', #102, #222, #187 ) ;
#242 = DIRECTION ( 'NONE',  ( 4.082155997157848133E-17, -1.000000000000000000, 0.000000000000000000 ) ) ;
#243 = DIRECTION ( 'NONE',  ( -4.082155997157848133E-17, 1.000000000000000000, -0.000000000000000000 ) ) ;
#244 = DIRECTION ( 'NONE',  ( -4.082155997157848133E-17, 1.000000000000000000, -0.000000000000000000 ) ) ;
#245 = EDGE_CURVE ( 'NONE', #185, #228, #33, .T. ) ;
#246 = APPLICATION_CONTEXT ( 'automotive_design' ) ;
#247 = PRODUCT_DEFINITION_CONTEXT ( 'detailed design', #246, 'design' ) ;
#248 = UNCERTAINTY_MEASURE_WITH_UNIT (LENGTH_MEASURE( 1.000000000000000082E-05 ), #168, 'distance_accuracy_value', 'NONE');
#249 =( NAMED_UNIT ( * ) PLANE_ANGLE_UNIT ( ) SI_UNIT ( $, .RADIAN. ) );
#250 = ORIENTED_EDGE ( 'NONE', *, *, #9, .F. ) ;
#251 = DIRECTION ( 'NONE',  ( -1.000000000000000000, 0.000000000000000000, 0.000000000000000000 ) ) ;
#252 = SURFACE_SIDE_STYLE ('',( #295 ) ) ;
#253 = ORIENTED_EDGE ( 'NONE', *, *, #174, .T. ) ;
#254 = DIRECTION ( 'NONE',  ( 1.000000000000000000, 0.000000000000000000, 0.000000000000000000 ) ) ;
#255 = EDGE_CURVE ( 'NONE', #185, #97, #189, .T. ) ;
#256 =( NAMED_UNIT ( * ) PLANE_ANGLE_UNIT ( ) SI_UNIT ( $, .RADIAN. ) );
#257 = EDGE_LOOP ( 'NONE', ( #178, #154, #6, #15 ) ) ;
#258 =( LENGTH_UNIT ( ) NAMED_UNIT ( * ) SI_UNIT ( $, .METRE. ) );
#259 = DIRECTION ( 'NONE',  ( -4.082155997157848133E-17, 1.000000000000000000, -0.000000000000000000 ) ) ;
#260 = COLOUR_RGB ( '',1.000000000000000000, 0.000000000000000000, 0.000000000000000000 ) ;
#261 = PLANE ( 'NONE',  #280 ) ;
#262 = DIMENSIONAL_EXPONENTS ( 1.000000000000000000, 0.000000000000000000, 0.000000000000000000, 0.000000000000000000, 0.000000000000000000, 0.000000000000000000, 0.000000000000000000 ) ;
#263 = FILL_AREA_STYLE_COLOUR ( '', #64 ) ;
#264 = PRODUCT_DEFINITION ( 'UNKNOWN', '', #212, #247 ) ;
#265 = ORIENTED_EDGE ( 'NONE', *, *, #174, .F. ) ;
#266 =( LENGTH_UNIT ( ) NAMED_UNIT ( * ) SI_UNIT ( $, .METRE. ) );
#267 = AXIS2_PLACEMENT_3D ( 'NONE', #287, #297, #251 ) ;
#268 =( NAMED_UNIT ( * ) PLANE_ANGLE_UNIT ( ) SI_UNIT ( $, .RADIAN. ) );
#269 = FILL_AREA_STYLE ('',( #134 ) ) ;
#270 = PRESENTATION_LAYER_ASSIGNMENT (  '', '', ( #240 ) ) ;
#271 = CARTESIAN_POINT ( 'NONE',  ( 0.1874999999999999722, 3.000000000000000444, 2.296212748401288034E-17 ) ) ;
#272 = VECTOR ( 'NONE', #132, 39.37007874015748143 ) ;
#273 = EDGE_CURVE ( 'NONE', #18, #1, #290, .T. ) ;
#274 = FILL_AREA_STYLE ('',( #263 ) ) ;
#275 =( NAMED_UNIT ( * ) PLANE_ANGLE_UNIT ( ) SI_UNIT ( $, .RADIAN. ) );
#276 = STYLED_ITEM ( 'NONE', ( #238 ), #107 ) ;
#277 = MECHANICAL_DESIGN_GEOMETRIC_PRESENTATION_REPRESENTATION (  '', ( #112 ), #131 ) ;
#278 = UNCERTAINTY_MEASURE_WITH_UNIT (LENGTH_MEASURE( 1.000000000000000082E-05 ), #141, 'distance_accuracy_value', 'NONE');
#279 = CARTESIAN_POINT ( 'NONE',  ( 0.000000000000000000, 0.000000000000000000, 0.000000000000000000 ) ) ;
#280 = AXIS2_PLACEMENT_3D ( 'NONE', #213, #45, #190 ) ;
#281 = EDGE_LOOP ( 'NONE', ( #29, #38 ) ) ;
#282 = CARTESIAN_POINT ( 'NONE',  ( 0.1875000000000000278, 3.000000000000000444, 2.296212748401288342E-17 ) ) ;
#283 = PRESENTATION_LAYER_ASSIGNMENT (  '', '', ( #120 ) ) ;
#284 = LINE ( 'NONE', #271, #142 ) ;
#285 = FACE_OUTER_BOUND ( 'NONE', #257, .T. ) ;
#286 = SURFACE_STYLE_USAGE ( .BOTH. , #66 ) ;
#287 = CARTESIAN_POINT ( 'NONE',  ( -6.123233995736772199E-17, 3.000000000000000444, 0.000000000000000000 ) ) ;
#288 = CARTESIAN_POINT ( 'NONE',  ( 0.000000000000000000, 0.000000000000000000, -0.1875000000000000278 ) ) ;
#289 = DIRECTION ( 'NONE',  ( 0.000000000000000000, 0.000000000000000000, -1.000000000000000000 ) ) ;
#290 = LINE ( 'NONE', #165, #272 ) ;
#291 = FACE_OUTER_BOUND ( 'NONE', #281, .T. ) ;
#292 = AXIS2_PLACEMENT_3D ( 'NONE', #58, #80, #42 ) ;
#293 = DIRECTION ( 'NONE',  ( 0.000000000000000000, 0.000000000000000000, -1.000000000000000000 ) ) ;
#294 =( LENGTH_UNIT ( ) NAMED_UNIT ( * ) SI_UNIT ( $, .METRE. ) );
#295 = SURFACE_STYLE_FILL_AREA ( #197 ) ;
#296 = AXIS2_PLACEMENT_3D ( 'NONE', #87, #242, #71 ) ;
#297 = DIRECTION ( 'NONE',  ( -4.082155997157848133E-17, 1.000000000000000000, -0.000000000000000000 ) ) ;
#298 =( NAMED_UNIT ( * ) SI_UNIT ( $, .STERADIAN. ) SOLID_ANGLE_UNIT ( ) );
#299 = LENGTH_MEASURE_WITH_UNIT ( LENGTH_MEASURE( 0.02539999999999999897 ), #37 );
#300 = FACE_OUTER_BOUND ( 'NONE', #206, .T. ) ;
#301 = CIRCLE ( 'NONE', #267, 0.1875000000000000833 ) ;
#302 = CYLINDRICAL_SURFACE ( 'NONE', #49, 0.1875000000000000278 ) ;
#303 = ORIENTED_EDGE ( 'NONE', *, *, #51, .T. ) ;
#304 = PRESENTATION_STYLE_ASSIGNMENT (( #52 ) ) ;
#305 = ORIENTED_EDGE ( 'NONE', *, *, #219, .T. ) ;
#306 =( CONVERSION_BASED_UNIT ( 'INCH', #299 ) LENGTH_UNIT ( ) NAMED_UNIT ( #308 ) );
#307 =( NAMED_UNIT ( * ) SI_UNIT ( $, .STERADIAN. ) SOLID_ANGLE_UNIT ( ) );
#308 = DIMENSIONAL_EXPONENTS ( 1.000000000000000000, 0.000000000000000000, 0.000000000000000000, 0.000000000000000000, 0.000000000000000000, 0.000000000000000000, 0.000000000000000000 ) ;
#309 = LENGTH_MEASURE_WITH_UNIT ( LENGTH_MEASURE( 0.02539999999999999897 ), #258 );
ENDSEC;
END-ISO-10303-21;
