ISO-10303-21;
HEADER;
FILE_DESCRIPTION (( 'STEP AP214' ),
    '1' );
FILE_NAME ('Micro_AEMM-010-2X.STEP',
    '2022-03-15T14:22:22',
    ( '' ),
    ( '' ),
    'SwSTEP 2.0',
    'SolidWorks 2022',
    '' );
FILE_SCHEMA (( 'AUTOMOTIVE_DESIGN' ));
ENDSEC;

DATA;
#1 = DIRECTION ( 'NONE',  ( -1.000000000000000000, 0.000000000000000000, 1.224646799147353207E-16 ) ) ;
#2 = FILL_AREA_STYLE_COLOUR ( '', #240 ) ;
#3 = CIRCLE ( 'NONE', #192, 0.07874000000000000443 ) ;
#4 = ORIENTED_EDGE ( 'NONE', *, *, #234, .T. ) ;
#5 =( CONVERSION_BASED_UNIT ( 'INCH', #158 ) LENGTH_UNIT ( ) NAMED_UNIT ( #275 ) );
#6 = ORIENTED_EDGE ( 'NONE', *, *, #86, .F. ) ;
#7 = EDGE_CURVE ( 'NONE', #162, #50, #27, .T. ) ;
#8 = DIRECTION ( 'NONE',  ( 1.000000000000000000, 0.000000000000000000, 0.000000000000000000 ) ) ;
#9 = AXIS2_PLACEMENT_3D ( 'NONE', #190, #156, #17 ) ;
#10 = EDGE_LOOP ( 'NONE', ( #185, #110, #241, #75 ) ) ;
#11 = EDGE_CURVE ( 'NONE', #30, #77, #62, .T. ) ;
#12 = FACE_OUTER_BOUND ( 'NONE', #99, .T. ) ;
#13 = VERTEX_POINT ( 'NONE', #253 ) ;
#14 = CARTESIAN_POINT ( 'NONE',  ( 0.01966531500000003735, 0.000000000000000000, 0.1574800000000000366 ) ) ;
#15 = ORIENTED_EDGE ( 'NONE', *, *, #36, .F. ) ;
#16 = FACE_OUTER_BOUND ( 'NONE', #35, .T. ) ;
#17 = DIRECTION ( 'NONE',  ( -1.000000000000000000, 0.000000000000000000, 0.000000000000000000 ) ) ;
#18 = EDGE_CURVE ( 'NONE', #13, #278, #291, .T. ) ;
#19 = ADVANCED_FACE ( 'NONE', ( #125 ), #181, .T. ) ;
#20 = DIRECTION ( 'NONE',  ( 1.000000000000000000, 0.000000000000000000, 0.000000000000000000 ) ) ;
#21 = LINE ( 'NONE', #199, #151 ) ;
#22 = DIRECTION ( 'NONE',  ( -1.000000000000000000, 0.000000000000000000, 0.000000000000000000 ) ) ;
#23 = ADVANCED_BREP_SHAPE_REPRESENTATION ( 'Micro_AEMM-010-2X', ( #261, #166 ), #144 ) ;
#24 = DIRECTION ( 'NONE',  ( 1.000000000000000000, 0.000000000000000000, 0.000000000000000000 ) ) ;
#25 = CARTESIAN_POINT ( 'NONE',  ( 1.928573779297252010E-17, 0.000000000000000000, 0.1574800000000000366 ) ) ;
#26 = CIRCLE ( 'NONE', #208, 0.06374000000000018540 ) ;
#27 = CIRCLE ( 'NONE', #258, 0.01966531500000001306 ) ;
#28 = ORIENTED_EDGE ( 'NONE', *, *, #86, .T. ) ;
#29 = PRODUCT_CONTEXT ( 'NONE', #129, 'mechanical' ) ;
#30 = VERTEX_POINT ( 'NONE', #173 ) ;
#31 = ORIENTED_EDGE ( 'NONE', *, *, #276, .F. ) ;
#32 = VECTOR ( 'NONE', #120, 39.37007874015748143 ) ;
#33 = ORIENTED_EDGE ( 'NONE', *, *, #7, .F. ) ;
#34 = ORIENTED_EDGE ( 'NONE', *, *, #18, .T. ) ;
#35 = EDGE_LOOP ( 'NONE', ( #31, #4, #47, #122 ) ) ;
#36 = EDGE_CURVE ( 'NONE', #123, #149, #272, .T. ) ;
#37 = FACE_OUTER_BOUND ( 'NONE', #206, .T. ) ;
#38 = FILL_AREA_STYLE ('',( #43 ) ) ;
#39 = PRODUCT_DEFINITION_FORMATION_WITH_SPECIFIED_SOURCE ( 'ANY', '', #46, .NOT_KNOWN. ) ;
#40 = LINE ( 'NONE', #70, #280 ) ;
#41 = CYLINDRICAL_SURFACE ( 'NONE', #84, 0.01966531500000000959 ) ;
#42 = CARTESIAN_POINT ( 'NONE',  ( -0.07874000000000000443, 0.000000000000000000, 1.953504000000000129 ) ) ;
#43 = FILL_AREA_STYLE_COLOUR ( '', #252 ) ;
#44 = VECTOR ( 'NONE', #223, 39.37007874015748854 ) ;
#45 = STYLED_ITEM ( 'NONE', ( #163 ), #23 ) ;
#46 = PRODUCT ( 'Micro_AEMM-010-2X', 'Micro_AEMM-010-2X', '', ( #29 ) ) ;
#47 = ORIENTED_EDGE ( 'NONE', *, *, #250, .T. ) ;
#48 = AXIS2_PLACEMENT_3D ( 'NONE', #175, #220, #134 ) ;
#49 = DIMENSIONAL_EXPONENTS ( 1.000000000000000000, 0.000000000000000000, 0.000000000000000000, 0.000000000000000000, 0.000000000000000000, 0.000000000000000000, 0.000000000000000000 ) ;
#50 = VERTEX_POINT ( 'NONE', #138 ) ;
#51 = PRODUCT_DEFINITION ( 'UNKNOWN', '', #39, #225 ) ;
#52 =( NAMED_UNIT ( * ) SI_UNIT ( $, .STERADIAN. ) SOLID_ANGLE_UNIT ( ) );
#53 = AXIS2_PLACEMENT_3D ( 'NONE', #147, #119, #24 ) ;
#54 = EDGE_CURVE ( 'NONE', #108, #172, #193, .T. ) ;
#55 = ORIENTED_EDGE ( 'NONE', *, *, #11, .T. ) ;
#56 =( NAMED_UNIT ( * ) SI_UNIT ( $, .STERADIAN. ) SOLID_ANGLE_UNIT ( ) );
#57 = ORIENTED_EDGE ( 'NONE', *, *, #212, .T. ) ;
#58 = EDGE_CURVE ( 'NONE', #172, #108, #26, .T. ) ;
#59 = CARTESIAN_POINT ( 'NONE',  ( 0.06374000000000018540, 8.724383797125754882E-18, 1.968503999999999809 ) ) ;
#60 = UNCERTAINTY_MEASURE_WITH_UNIT (LENGTH_MEASURE( 1.000000000000000082E-05 ), #5, 'distance_accuracy_value', 'NONE');
#61 = DIRECTION ( 'NONE',  ( 0.000000000000000000, 0.000000000000000000, -1.000000000000000000 ) ) ;
#62 = CIRCLE ( 'NONE', #254, 0.01966531500000000265 ) ;
#63 = ORIENTED_EDGE ( 'NONE', *, *, #297, .F. ) ;
#64 = FACE_OUTER_BOUND ( 'NONE', #191, .T. ) ;
#65 = CARTESIAN_POINT ( 'NONE',  ( 0.07874000000000000443, 9.642868896486258509E-18, 1.968503999999999809 ) ) ;
#66 = CARTESIAN_POINT ( 'NONE',  ( 0.000000000000000000, 0.000000000000000000, 1.968503999999999809 ) ) ;
#67 = CARTESIAN_POINT ( 'NONE',  ( -0.07873999999999993504, 0.000000000000000000, 0.4925091870401411831 ) ) ;
#68 = AXIS2_PLACEMENT_3D ( 'NONE', #189, #95, #264 ) ;
#69 = MECHANICAL_DESIGN_GEOMETRIC_PRESENTATION_REPRESENTATION (  '', ( #45 ), #209 ) ;
#70 = CARTESIAN_POINT ( 'NONE',  ( -0.01966531499999999225, 2.408306506897445027E-18, 0.1574800000000000366 ) ) ;
#71 = DIRECTION ( 'NONE',  ( 0.1736481776669313304, 0.000000000000000000, 0.9848077530122077983 ) ) ;
#72 = EDGE_LOOP ( 'NONE', ( #126, #217, #188, #259 ) ) ;
#73 = SURFACE_STYLE_USAGE ( .BOTH. , #98 ) ;
#74 = PRODUCT_RELATED_PRODUCT_CATEGORY ( 'part', '', ( #46 ) ) ;
#75 = ORIENTED_EDGE ( 'NONE', *, *, #201, .F. ) ;
#76 = PRESENTATION_LAYER_ASSIGNMENT (  '', '', ( #104 ) ) ;
#77 = VERTEX_POINT ( 'NONE', #182 ) ;
#78 = FACE_OUTER_BOUND ( 'NONE', #239, .T. ) ;
#79 = ORIENTED_EDGE ( 'NONE', *, *, #54, .F. ) ;
#80 = CONICAL_SURFACE ( 'NONE', #139, 0.06374000000000018540, 0.7853981633974522758 ) ;
#81 = CARTESIAN_POINT ( 'NONE',  ( -0.06374000000000018540, 0.000000000000000000, 1.968503999999999809 ) ) ;
#82 = CARTESIAN_POINT ( 'NONE',  ( 0.000000000000000000, 0.000000000000000000, 1.968503999999999809 ) ) ;
#83 = FACE_OUTER_BOUND ( 'NONE', #284, .T. ) ;
#84 = AXIS2_PLACEMENT_3D ( 'NONE', #85, #130, #133 ) ;
#85 = CARTESIAN_POINT ( 'NONE',  ( 0.000000000000000000, 0.000000000000000000, 0.000000000000000000 ) ) ;
#86 = EDGE_CURVE ( 'NONE', #278, #13, #3, .T. ) ;
#87 = LINE ( 'NONE', #194, #44 ) ;
#88 = DIRECTION ( 'NONE',  ( 1.000000000000000000, 0.000000000000000000, -0.000000000000000000 ) ) ;
#89 = VECTOR ( 'NONE', #171, 39.37007874015748854 ) ;
#90 = DIRECTION ( 'NONE',  ( 0.000000000000000000, 0.000000000000000000, 1.000000000000000000 ) ) ;
#91 = CARTESIAN_POINT ( 'NONE',  ( 0.01966531500000003735, 0.000000000000000000, 0.1574800000000000366 ) ) ;
#92 = EDGE_CURVE ( 'NONE', #50, #30, #106, .T. ) ;
#93 = UNCERTAINTY_MEASURE_WITH_UNIT (LENGTH_MEASURE( 1.000000000000000082E-05 ), #231, 'distance_accuracy_value', 'NONE');
#94 = LENGTH_MEASURE_WITH_UNIT ( LENGTH_MEASURE( 0.02539999999999999897 ), #295 );
#95 = DIRECTION ( 'NONE',  ( -1.224646799147353207E-16, -0.000000000000000000, -1.000000000000000000 ) ) ;
#96 = FILL_AREA_STYLE ('',( #2 ) ) ;
#97 = ORIENTED_EDGE ( 'NONE', *, *, #58, .T. ) ;
#98 = SURFACE_SIDE_STYLE ('',( #227 ) ) ;
#99 = EDGE_LOOP ( 'NONE', ( #79, #57, #6, #277 ) ) ;
#100 = VECTOR ( 'NONE', #238, 39.37007874015748143 ) ;
#101 = DIRECTION ( 'NONE',  ( -1.224646799147353207E-16, -0.000000000000000000, -1.000000000000000000 ) ) ;
#102 = EDGE_CURVE ( 'NONE', #172, #278, #187, .T. ) ;
#103 = EDGE_LOOP ( 'NONE', ( #232, #266, #230, #218 ) ) ;
#104 = STYLED_ITEM ( 'NONE', ( #198 ), #261 ) ;
#105 = CIRCLE ( 'NONE', #270, 0.01966531500000001306 ) ;
#106 = LINE ( 'NONE', #299, #32 ) ;
#107 = CARTESIAN_POINT ( 'NONE',  ( 0.000000000000000000, 0.000000000000000000, 1.953504000000000129 ) ) ;
#108 = VERTEX_POINT ( 'NONE', #59 ) ;
#109 = PLANE ( 'NONE',  #157 ) ;
#110 = ORIENTED_EDGE ( 'NONE', *, *, #7, .T. ) ;
#111 = FACE_OUTER_BOUND ( 'NONE', #10, .T. ) ;
#112 =( GEOMETRIC_REPRESENTATION_CONTEXT ( 3 ) GLOBAL_UNCERTAINTY_ASSIGNED_CONTEXT ( ( #60 ) ) GLOBAL_UNIT_ASSIGNED_CONTEXT ( ( #5, #207, #52 ) ) REPRESENTATION_CONTEXT ( 'NONE', 'WORKASPACE' ) );
#113 = EDGE_CURVE ( 'NONE', #278, #149, #216, .T. ) ;
#114 = DIRECTION ( 'NONE',  ( -1.000000000000000000, 0.000000000000000000, 1.224646799147353207E-16 ) ) ;
#115 = DIRECTION ( 'NONE',  ( -1.224646799147353207E-16, -0.000000000000000000, -1.000000000000000000 ) ) ;
#116 = FACE_OUTER_BOUND ( 'NONE', #72, .T. ) ;
#117 = MECHANICAL_DESIGN_GEOMETRIC_PRESENTATION_REPRESENTATION (  '', ( #104 ), #112 ) ;
#118 = AXIS2_PLACEMENT_3D ( 'NONE', #66, #90, #88 ) ;
#119 = DIRECTION ( 'NONE',  ( 0.000000000000000000, 0.000000000000000000, 1.000000000000000000 ) ) ;
#120 = DIRECTION ( 'NONE',  ( -1.224646799147353207E-16, -0.000000000000000000, -1.000000000000000000 ) ) ;
#121 =( LENGTH_UNIT ( ) NAMED_UNIT ( * ) SI_UNIT ( $, .METRE. ) );
#122 = ORIENTED_EDGE ( 'NONE', *, *, #288, .F. ) ;
#123 = VERTEX_POINT ( 'NONE', #283 ) ;
#124 = DIRECTION ( 'NONE',  ( 1.000000000000000000, 0.000000000000000000, 0.000000000000000000 ) ) ;
#125 = FACE_OUTER_BOUND ( 'NONE', #103, .T. ) ;
#126 = ORIENTED_EDGE ( 'NONE', *, *, #276, .T. ) ;
#127 = DIRECTION ( 'NONE',  ( 1.000000000000000000, 0.000000000000000000, 0.000000000000000000 ) ) ;
#128 = ORIENTED_EDGE ( 'NONE', *, *, #288, .T. ) ;
#129 = APPLICATION_CONTEXT ( 'automotive_design' ) ;
#130 = DIRECTION ( 'NONE',  ( -1.224646799147353207E-16, -0.000000000000000000, -1.000000000000000000 ) ) ;
#131 = CARTESIAN_POINT ( 'NONE',  ( 6.031497994593740586E-17, 0.000000000000000000, 0.4925091870401411831 ) ) ;
#132 = AXIS2_PLACEMENT_3D ( 'NONE', #269, #285, #243 ) ;
#133 = DIRECTION ( 'NONE',  ( -1.000000000000000000, 0.000000000000000000, 1.224646799147353207E-16 ) ) ;
#134 = DIRECTION ( 'NONE',  ( -1.000000000000000000, 0.000000000000000000, 1.224646799147353207E-16 ) ) ;
#135 = SURFACE_STYLE_FILL_AREA ( #38 ) ;
#136 =( NAMED_UNIT ( * ) PLANE_ANGLE_UNIT ( ) SI_UNIT ( $, .RADIAN. ) );
#137 =( NAMED_UNIT ( * ) SI_UNIT ( $, .STERADIAN. ) SOLID_ANGLE_UNIT ( ) );
#138 = CARTESIAN_POINT ( 'NONE',  ( -0.01966531499999999225, 6.025587701691850612E-18, 0.1574800000000000366 ) ) ;
#139 = AXIS2_PLACEMENT_3D ( 'NONE', #82, #61, #152 ) ;
#140 = ADVANCED_FACE ( 'NONE', ( #12 ), #80, .T. ) ;
#141 = CARTESIAN_POINT ( 'NONE',  ( 1.928573779297252010E-17, 0.000000000000000000, 0.1574800000000000366 ) ) ;
#142 =( NAMED_UNIT ( * ) PLANE_ANGLE_UNIT ( ) SI_UNIT ( $, .RADIAN. ) );
#143 = CARTESIAN_POINT ( 'NONE',  ( 0.000000000000000000, 0.000000000000000000, 1.968503999999999809 ) ) ;
#144 =( GEOMETRIC_REPRESENTATION_CONTEXT ( 3 ) GLOBAL_UNCERTAINTY_ASSIGNED_CONTEXT ( ( #256 ) ) GLOBAL_UNIT_ASSIGNED_CONTEXT ( ( #204, #136, #137 ) ) REPRESENTATION_CONTEXT ( 'NONE', 'WORKASPACE' ) );
#145 = DIRECTION ( 'NONE',  ( -0.000000000000000000, -0.000000000000000000, -1.000000000000000000 ) ) ;
#146 = APPLICATION_PROTOCOL_DEFINITION ( 'draft international standard', 'automotive_design', 1998, #290 ) ;
#147 = CARTESIAN_POINT ( 'NONE',  ( 0.000000000000000000, 0.000000000000000000, 1.968503999999999809 ) ) ;
#148 = CARTESIAN_POINT ( 'NONE',  ( -0.07874000000000000443, 0.000000000000000000, 1.968503999999999809 ) ) ;
#149 = VERTEX_POINT ( 'NONE', #67 ) ;
#150 = ADVANCED_FACE ( 'NONE', ( #116 ), #41, .T. ) ;
#151 = VECTOR ( 'NONE', #159, 39.37007874015748143 ) ;
#152 = DIRECTION ( 'NONE',  ( -1.000000000000000000, 0.000000000000000000, 0.000000000000000000 ) ) ;
#153 = ORIENTED_EDGE ( 'NONE', *, *, #113, .F. ) ;
#154 =( LENGTH_UNIT ( ) NAMED_UNIT ( * ) SI_UNIT ( $, .METRE. ) );
#155 = DIRECTION ( 'NONE',  ( -1.224646799147353207E-16, -0.000000000000000000, -1.000000000000000000 ) ) ;
#156 = DIRECTION ( 'NONE',  ( -0.000000000000000000, -0.000000000000000000, -1.000000000000000000 ) ) ;
#157 = AXIS2_PLACEMENT_3D ( 'NONE', #245, #180, #271 ) ;
#158 = LENGTH_MEASURE_WITH_UNIT ( LENGTH_MEASURE( 0.02539999999999999897 ), #154 );
#159 = DIRECTION ( 'NONE',  ( -1.224646799147353207E-16, -0.000000000000000000, -1.000000000000000000 ) ) ;
#160 = LINE ( 'NONE', #65, #248 ) ;
#161 = EDGE_CURVE ( 'NONE', #162, #77, #21, .T. ) ;
#162 = VERTEX_POINT ( 'NONE', #14 ) ;
#163 = PRESENTATION_STYLE_ASSIGNMENT (( #73 ) ) ;
#164 = DIRECTION ( 'NONE',  ( 0.000000000000000000, 0.000000000000000000, -1.000000000000000000 ) ) ;
#165 = AXIS2_PLACEMENT_3D ( 'NONE', #107, #267, #127 ) ;
#166 = AXIS2_PLACEMENT_3D ( 'NONE', #257, #214, #260 ) ;
#167 = DIRECTION ( 'NONE',  ( -1.224646799147353207E-16, -0.000000000000000000, -1.000000000000000000 ) ) ;
#168 = CLOSED_SHELL ( 'NONE', ( #150, #197, #140, #265, #169, #226, #19, #246, #203, #244 ) ) ;
#169 = ADVANCED_FACE ( 'NONE', ( #249 ), #176, .T. ) ;
#170 = ORIENTED_EDGE ( 'NONE', *, *, #54, .T. ) ;
#171 = DIRECTION ( 'NONE',  ( -0.7071067811865502373, 0.000000000000000000, -0.7071067811865446862 ) ) ;
#172 = VERTEX_POINT ( 'NONE', #286 ) ;
#173 = CARTESIAN_POINT ( 'NONE',  ( -0.01966531500000000265, 0.000000000000000000, 4.816613013794886973E-18 ) ) ;
#174 = AXIS2_PLACEMENT_3D ( 'NONE', #143, #145, #235 ) ;
#175 = CARTESIAN_POINT ( 'NONE',  ( 2.949324855037697299E-34, 0.000000000000000000, 2.408306506897443486E-18 ) ) ;
#176 = CYLINDRICAL_SURFACE ( 'NONE', #9, 0.07874000000000000443 ) ;
#177 = DIRECTION ( 'NONE',  ( 1.000000000000000000, 0.000000000000000000, 0.000000000000000000 ) ) ;
#178 = CYLINDRICAL_SURFACE ( 'NONE', #247, 0.01966531500000000959 ) ;
#179 = CIRCLE ( 'NONE', #229, 0.07874000000000000443 ) ;
#180 = DIRECTION ( 'NONE',  ( 0.000000000000000000, 0.000000000000000000, 1.000000000000000000 ) ) ;
#181 = CONICAL_SURFACE ( 'NONE', #202, 0.06374000000000018540, 0.7853981633974522758 ) ;
#182 = CARTESIAN_POINT ( 'NONE',  ( 0.01966531500000000265, 2.408306506897443871E-18, 4.739000847409537175E-34 ) ) ;
#183 = CARTESIAN_POINT ( 'NONE',  ( 0.000000000000000000, 0.000000000000000000, 1.953504000000000129 ) ) ;
#184 = LENGTH_MEASURE_WITH_UNIT ( LENGTH_MEASURE( 0.02539999999999999897 ), #121 );
#185 = ORIENTED_EDGE ( 'NONE', *, *, #161, .F. ) ;
#186 = AXIS2_PLACEMENT_3D ( 'NONE', #251, #224, #20 ) ;
#187 = LINE ( 'NONE', #81, #89 ) ;
#188 = ORIENTED_EDGE ( 'NONE', *, *, #11, .F. ) ;
#189 = CARTESIAN_POINT ( 'NONE',  ( 6.031497994593740586E-17, 0.000000000000000000, 0.4925091870401411831 ) ) ;
#190 = CARTESIAN_POINT ( 'NONE',  ( 0.000000000000000000, 0.000000000000000000, 1.968503999999999809 ) ) ;
#191 = EDGE_LOOP ( 'NONE', ( #236, #33, #128, #282 ) ) ;
#192 = AXIS2_PLACEMENT_3D ( 'NONE', #183, #255, #8 ) ;
#193 = CIRCLE ( 'NONE', #53, 0.06374000000000018540 ) ;
#194 = CARTESIAN_POINT ( 'NONE',  ( 0.06374000000000018540, 7.805898697765251255E-18, 1.968503999999999809 ) ) ;
#195 = DIRECTION ( 'NONE',  ( -0.000000000000000000, -0.000000000000000000, -1.000000000000000000 ) ) ;
#196 = CYLINDRICAL_SURFACE ( 'NONE', #174, 0.07874000000000000443 ) ;
#197 = ADVANCED_FACE ( 'NONE', ( #16 ), #221, .T. ) ;
#198 = PRESENTATION_STYLE_ASSIGNMENT (( #287 ) ) ;
#199 = CARTESIAN_POINT ( 'NONE',  ( 0.01966531500000000959, 2.408306506897444257E-18, -2.408306506897444257E-18 ) ) ;
#200 = CONICAL_SURFACE ( 'NONE', #186, 0.01966531500000001306, 0.1745329251994338360 ) ;
#201 = EDGE_CURVE ( 'NONE', #77, #30, #296, .T. ) ;
#202 = AXIS2_PLACEMENT_3D ( 'NONE', #262, #164, #215 ) ;
#203 = ADVANCED_FACE ( 'NONE', ( #111 ), #178, .T. ) ;
#204 =( CONVERSION_BASED_UNIT ( 'INCH', #94 ) LENGTH_UNIT ( ) NAMED_UNIT ( #298 ) );
#205 = CARTESIAN_POINT ( 'NONE',  ( 2.949324855037697299E-34, 0.000000000000000000, 2.408306506897443486E-18 ) ) ;
#206 = EDGE_LOOP ( 'NONE', ( #55, #213 ) ) ;
#207 =( NAMED_UNIT ( * ) PLANE_ANGLE_UNIT ( ) SI_UNIT ( $, .RADIAN. ) );
#208 = AXIS2_PLACEMENT_3D ( 'NONE', #237, #281, #124 ) ;
#209 =( GEOMETRIC_REPRESENTATION_CONTEXT ( 3 ) GLOBAL_UNCERTAINTY_ASSIGNED_CONTEXT ( ( #93 ) ) GLOBAL_UNIT_ASSIGNED_CONTEXT ( ( #231, #142, #56 ) ) REPRESENTATION_CONTEXT ( 'NONE', 'WORKASPACE' ) );
#210 = SHAPE_DEFINITION_REPRESENTATION ( #211, #23 ) ;
#211 = PRODUCT_DEFINITION_SHAPE ( 'NONE', 'NONE',  #51 ) ;
#212 = EDGE_CURVE ( 'NONE', #108, #13, #87, .T. ) ;
#213 = ORIENTED_EDGE ( 'NONE', *, *, #201, .T. ) ;
#214 = DIRECTION ( 'NONE',  ( 0.000000000000000000, 0.000000000000000000, 1.000000000000000000 ) ) ;
#215 = DIRECTION ( 'NONE',  ( -1.000000000000000000, 0.000000000000000000, 0.000000000000000000 ) ) ;
#216 = LINE ( 'NONE', #148, #100 ) ;
#217 = ORIENTED_EDGE ( 'NONE', *, *, #161, .T. ) ;
#218 = ORIENTED_EDGE ( 'NONE', *, *, #18, .F. ) ;
#219 = ORIENTED_EDGE ( 'NONE', *, *, #250, .F. ) ;
#220 = DIRECTION ( 'NONE',  ( -1.224646799147353207E-16, -0.000000000000000000, -1.000000000000000000 ) ) ;
#221 = CONICAL_SURFACE ( 'NONE', #132, 0.01966531500000001306, 0.1745329251994338360 ) ;
#222 = SURFACE_SIDE_STYLE ('',( #135 ) ) ;
#223 = DIRECTION ( 'NONE',  ( 0.7071067811865502373, 8.659560562354966138E-17, -0.7071067811865446862 ) ) ;
#224 = DIRECTION ( 'NONE',  ( 1.224646799147353207E-16, 0.000000000000000000, 1.000000000000000000 ) ) ;
#225 = PRODUCT_DEFINITION_CONTEXT ( 'detailed design', #290, 'design' ) ;
#226 = ADVANCED_FACE ( 'NONE', ( #83 ), #293, .T. ) ;
#227 = SURFACE_STYLE_FILL_AREA ( #96 ) ;
#228 = APPLICATION_PROTOCOL_DEFINITION ( 'draft international standard', 'automotive_design', 1998, #129 ) ;
#229 = AXIS2_PLACEMENT_3D ( 'NONE', #131, #115, #177 ) ;
#230 = ORIENTED_EDGE ( 'NONE', *, *, #102, .T. ) ;
#231 =( CONVERSION_BASED_UNIT ( 'INCH', #184 ) LENGTH_UNIT ( ) NAMED_UNIT ( #49 ) );
#232 = ORIENTED_EDGE ( 'NONE', *, *, #212, .F. ) ;
#233 = DIRECTION ( 'NONE',  ( -1.000000000000000000, 0.000000000000000000, 0.000000000000000000 ) ) ;
#234 = EDGE_CURVE ( 'NONE', #50, #149, #40, .T. ) ;
#235 = DIRECTION ( 'NONE',  ( -1.000000000000000000, 0.000000000000000000, 0.000000000000000000 ) ) ;
#236 = ORIENTED_EDGE ( 'NONE', *, *, #234, .F. ) ;
#237 = CARTESIAN_POINT ( 'NONE',  ( 0.000000000000000000, 0.000000000000000000, 1.968503999999999809 ) ) ;
#238 = DIRECTION ( 'NONE',  ( -0.000000000000000000, -0.000000000000000000, -1.000000000000000000 ) ) ;
#239 = EDGE_LOOP ( 'NONE', ( #28, #279, #219, #153 ) ) ;
#240 = COLOUR_RGB ( '',0.7921568627450980005, 0.8196078431372548767, 0.9333333333333333481 ) ;
#241 = ORIENTED_EDGE ( 'NONE', *, *, #92, .T. ) ;
#242 = EDGE_LOOP ( 'NONE', ( #63, #34, #263, #15 ) ) ;
#243 = DIRECTION ( 'NONE',  ( 1.000000000000000000, 0.000000000000000000, 0.000000000000000000 ) ) ;
#244 = ADVANCED_FACE ( 'NONE', ( #37 ), #109, .F. ) ;
#245 = CARTESIAN_POINT ( 'NONE',  ( 0.000000000000000000, 0.000000000000000000, 0.000000000000000000 ) ) ;
#246 = ADVANCED_FACE ( 'NONE', ( #64 ), #200, .T. ) ;
#247 = AXIS2_PLACEMENT_3D ( 'NONE', #289, #155, #114 ) ;
#248 = VECTOR ( 'NONE', #195, 39.37007874015748143 ) ;
#249 = FACE_OUTER_BOUND ( 'NONE', #242, .T. ) ;
#250 = EDGE_CURVE ( 'NONE', #149, #123, #179, .T. ) ;
#251 = CARTESIAN_POINT ( 'NONE',  ( 1.928573779297252010E-17, 0.000000000000000000, 0.1574800000000000366 ) ) ;
#252 = COLOUR_RGB ( '',0.7921568627450980005, 0.8196078431372548767, 0.9333333333333333481 ) ;
#253 = CARTESIAN_POINT ( 'NONE',  ( 0.07874000000000000443, 9.642868896486258509E-18, 1.953504000000000129 ) ) ;
#254 = AXIS2_PLACEMENT_3D ( 'NONE', #205, #167, #1 ) ;
#255 = DIRECTION ( 'NONE',  ( 0.000000000000000000, 0.000000000000000000, -1.000000000000000000 ) ) ;
#256 = UNCERTAINTY_MEASURE_WITH_UNIT (LENGTH_MEASURE( 1.000000000000000082E-05 ), #204, 'distance_accuracy_value', 'NONE');
#257 = CARTESIAN_POINT ( 'NONE',  ( 0.000000000000000000, 0.000000000000000000, 0.000000000000000000 ) ) ;
#258 = AXIS2_PLACEMENT_3D ( 'NONE', #141, #274, #22 ) ;
#259 = ORIENTED_EDGE ( 'NONE', *, *, #92, .F. ) ;
#260 = DIRECTION ( 'NONE',  ( 1.000000000000000000, 0.000000000000000000, 0.000000000000000000 ) ) ;
#261 = MANIFOLD_SOLID_BREP ( 'Cut-Revolve1', #168 ) ;
#262 = CARTESIAN_POINT ( 'NONE',  ( 0.000000000000000000, 0.000000000000000000, 1.968503999999999809 ) ) ;
#263 = ORIENTED_EDGE ( 'NONE', *, *, #113, .T. ) ;
#264 = DIRECTION ( 'NONE',  ( 1.000000000000000000, 0.000000000000000000, 0.000000000000000000 ) ) ;
#265 = ADVANCED_FACE ( 'NONE', ( #78 ), #196, .T. ) ;
#266 = ORIENTED_EDGE ( 'NONE', *, *, #58, .F. ) ;
#267 = DIRECTION ( 'NONE',  ( 0.000000000000000000, 0.000000000000000000, -1.000000000000000000 ) ) ;
#268 = DIRECTION ( 'NONE',  ( -0.1736481776669311639, 2.126576849575782392E-17, 0.9848077530122080203 ) ) ;
#269 = CARTESIAN_POINT ( 'NONE',  ( 1.928573779297252010E-17, 0.000000000000000000, 0.1574800000000000366 ) ) ;
#270 = AXIS2_PLACEMENT_3D ( 'NONE', #25, #101, #233 ) ;
#271 = DIRECTION ( 'NONE',  ( 1.000000000000000000, 0.000000000000000000, -0.000000000000000000 ) ) ;
#272 = CIRCLE ( 'NONE', #68, 0.07874000000000000443 ) ;
#273 = VECTOR ( 'NONE', #71, 39.37007874015748143 ) ;
#274 = DIRECTION ( 'NONE',  ( -1.224646799147353207E-16, -0.000000000000000000, -1.000000000000000000 ) ) ;
#275 = DIMENSIONAL_EXPONENTS ( 1.000000000000000000, 0.000000000000000000, 0.000000000000000000, 0.000000000000000000, 0.000000000000000000, 0.000000000000000000, 0.000000000000000000 ) ;
#276 = EDGE_CURVE ( 'NONE', #50, #162, #105, .T. ) ;
#277 = ORIENTED_EDGE ( 'NONE', *, *, #102, .F. ) ;
#278 = VERTEX_POINT ( 'NONE', #42 ) ;
#279 = ORIENTED_EDGE ( 'NONE', *, *, #297, .T. ) ;
#280 = VECTOR ( 'NONE', #268, 39.37007874015747433 ) ;
#281 = DIRECTION ( 'NONE',  ( 0.000000000000000000, 0.000000000000000000, 1.000000000000000000 ) ) ;
#282 = ORIENTED_EDGE ( 'NONE', *, *, #36, .T. ) ;
#283 = CARTESIAN_POINT ( 'NONE',  ( 0.07874000000000007382, 9.642868896486267753E-18, 0.4925091870401411831 ) ) ;
#284 = EDGE_LOOP ( 'NONE', ( #97, #170 ) ) ;
#285 = DIRECTION ( 'NONE',  ( 1.224646799147353207E-16, 0.000000000000000000, 1.000000000000000000 ) ) ;
#286 = CARTESIAN_POINT ( 'NONE',  ( -0.06374000000000018540, 0.000000000000000000, 1.968503999999999809 ) ) ;
#287 = SURFACE_STYLE_USAGE ( .BOTH. , #222 ) ;
#288 = EDGE_CURVE ( 'NONE', #162, #123, #294, .T. ) ;
#289 = CARTESIAN_POINT ( 'NONE',  ( 0.000000000000000000, 0.000000000000000000, 0.000000000000000000 ) ) ;
#290 = APPLICATION_CONTEXT ( 'automotive_design' ) ;
#291 = CIRCLE ( 'NONE', #165, 0.07874000000000000443 ) ;
#292 = PRESENTATION_LAYER_ASSIGNMENT (  '', '', ( #45 ) ) ;
#293 = PLANE ( 'NONE',  #118 ) ;
#294 = LINE ( 'NONE', #91, #273 ) ;
#295 =( LENGTH_UNIT ( ) NAMED_UNIT ( * ) SI_UNIT ( $, .METRE. ) );
#296 = CIRCLE ( 'NONE', #48, 0.01966531500000000265 ) ;
#297 = EDGE_CURVE ( 'NONE', #13, #123, #160, .T. ) ;
#298 = DIMENSIONAL_EXPONENTS ( 1.000000000000000000, 0.000000000000000000, 0.000000000000000000, 0.000000000000000000, 0.000000000000000000, 0.000000000000000000, 0.000000000000000000 ) ;
#299 = CARTESIAN_POINT ( 'NONE',  ( -0.01966531500000000959, 0.000000000000000000, 2.408306506897444257E-18 ) ) ;
ENDSEC;
END-ISO-10303-21;
