ISO-10303-21;
HEADER;
FILE_DESCRIPTION (( 'STEP AP214' ),
    '1' );
FILE_NAME ('84408.STEP',
    '2023-06-30T23:25:51',
    ( '' ),
    ( '' ),
    'SwSTEP 2.0',
    'SolidWorks 2023',
    '' );
FILE_SCHEMA (( 'AUTOMOTIVE_DESIGN' ));
ENDSEC;

DATA;
#1 =( LENGTH_UNIT ( ) NAMED_UNIT ( * ) SI_UNIT ( $, .METRE. ) );
#2 = SURFACE_SIDE_STYLE ('',( #177 ) ) ;
#3 = DIRECTION ( 'NONE',  ( -1.224646799147352961E-16, 1.000000000000000000, 0.000000000000000000 ) ) ;
#4 = CIRCLE ( 'NONE', #267, 0.06249999999999975020 ) ;
#5 = CIRCLE ( 'NONE', #338, 0.06249999999999993755 ) ;
#6 = DIRECTION ( 'NONE',  ( -1.224646799147352961E-16, 1.000000000000000000, -0.000000000000000000 ) ) ;
#7 = FILL_AREA_STYLE ('',( #180 ) ) ;
#8 =( CONVERSION_BASED_UNIT ( 'INCH', #92 ) LENGTH_UNIT ( ) NAMED_UNIT ( #262 ) );
#9 = DIRECTION ( 'NONE',  ( 0.000000000000000000, 0.000000000000000000, -1.000000000000000000 ) ) ;
#10 = DIRECTION ( 'NONE',  ( 0.000000000000000000, 0.000000000000000000, -1.000000000000000000 ) ) ;
#11 = DIRECTION ( 'NONE',  ( 1.000000000000000000, 0.000000000000000000, -1.224646799147353207E-16 ) ) ;
#12 = COLOUR_RGB ( '',1.000000000000000000, 0.000000000000000000, 0.000000000000000000 ) ;
#13 = CARTESIAN_POINT ( 'NONE',  ( 0.000000000000000000, 0.06250000000000002776, -0.06250000000000000000 ) ) ;
#14 = FACE_OUTER_BOUND ( 'NONE', #327, .T. ) ;
#15 = ADVANCED_FACE ( 'NONE', ( #345 ), #42, .T. ) ;
#16 = CLOSED_SHELL ( 'NONE', ( #57, #155, #15, #88 ) ) ;
#17 = SURFACE_STYLE_FILL_AREA ( #185 ) ;
#18 = EDGE_LOOP ( 'NONE', ( #212, #168 ) ) ;
#19 = EDGE_LOOP ( 'NONE', ( #104, #339, #47, #128 ) ) ;
#20 = UNCERTAINTY_MEASURE_WITH_UNIT (LENGTH_MEASURE( 1.000000000000000082E-05 ), #332, 'distance_accuracy_value', 'NONE');
#21 = ADVANCED_FACE ( 'NONE', ( #260 ), #321, .T. ) ;
#22 = AXIS2_PLACEMENT_3D ( 'NONE', #234, #35, #174 ) ;
#23 =( GEOMETRIC_REPRESENTATION_CONTEXT ( 3 ) GLOBAL_UNCERTAINTY_ASSIGNED_CONTEXT ( ( #335 ) ) GLOBAL_UNIT_ASSIGNED_CONTEXT ( ( #313, #166, #80 ) ) REPRESENTATION_CONTEXT ( 'NONE', 'WORKASPACE' ) );
#24 = ORIENTED_EDGE ( 'NONE', *, *, #151, .T. ) ;
#25 =( CONVERSION_BASED_UNIT ( 'INCH', #232 ) LENGTH_UNIT ( ) NAMED_UNIT ( #347 ) );
#26 = DIMENSIONAL_EXPONENTS ( 1.000000000000000000, 0.000000000000000000, 0.000000000000000000, 0.000000000000000000, 0.000000000000000000, 0.000000000000000000, 0.000000000000000000 ) ;
#27 = DIRECTION ( 'NONE',  ( -1.000000000000000000, 0.000000000000000000, 0.000000000000000000 ) ) ;
#28 = DIRECTION ( 'NONE',  ( 0.000000000000000000, 0.000000000000000000, -1.000000000000000000 ) ) ;
#29 =( LENGTH_UNIT ( ) NAMED_UNIT ( * ) SI_UNIT ( $, .METRE. ) );
#30 = AXIS2_PLACEMENT_3D ( 'NONE', #342, #137, #315 ) ;
#31 = PRODUCT_DEFINITION_FORMATION_WITH_SPECIFIED_SOURCE ( 'ANY', '', #223, .NOT_KNOWN. ) ;
#32 = DIRECTION ( 'NONE',  ( -0.000000000000000000, -1.000000000000000000, -0.000000000000000000 ) ) ;
#33 = CARTESIAN_POINT ( 'NONE',  ( 0.000000000000000000, 0.000000000000000000, 0.000000000000000000 ) ) ;
#34 = SURFACE_STYLE_USAGE ( .BOTH. , #2 ) ;
#35 = DIRECTION ( 'NONE',  ( 0.000000000000000000, 0.000000000000000000, 1.000000000000000000 ) ) ;
#36 = CARTESIAN_POINT ( 'NONE',  ( -0.06249999999999993755, 2.500000000000000000, 0.000000000000000000 ) ) ;
#37 = CARTESIAN_POINT ( 'NONE',  ( 0.000000000000000000, 0.06250000000000002776, 0.000000000000000000 ) ) ;
#38 = STYLED_ITEM ( 'NONE', ( #351 ), #41 ) ;
#39 = COLOUR_RGB ( '',0.7921568627450980005, 0.8196078431372548767, 0.9333333333333333481 ) ;
#40 =( NAMED_UNIT ( * ) SI_UNIT ( $, .STERADIAN. ) SOLID_ANGLE_UNIT ( ) );
#41 = MANIFOLD_SOLID_BREP ( 'Revolve - Tool Body (Straight Shanked)', #16 ) ;
#42 = CYLINDRICAL_SURFACE ( 'NONE', #156, 0.06249999999999988204 ) ;
#43 = DIRECTION ( 'NONE',  ( -1.224646799147352961E-16, 1.000000000000000000, -0.000000000000000000 ) ) ;
#44 = UNCERTAINTY_MEASURE_WITH_UNIT (LENGTH_MEASURE( 1.000000000000000082E-05 ), #8, 'distance_accuracy_value', 'NONE');
#45 = COLOUR_RGB ( '',1.000000000000000000, 0.000000000000000000, 0.000000000000000000 ) ;
#46 = AXIS2_PLACEMENT_3D ( 'NONE', #37, #210, #206 ) ;
#47 = ORIENTED_EDGE ( 'NONE', *, *, #151, .F. ) ;
#48 = UNCERTAINTY_MEASURE_WITH_UNIT (LENGTH_MEASURE( 1.000000000000000082E-05 ), #103, 'distance_accuracy_value', 'NONE');
#49 = SURFACE_STYLE_FILL_AREA ( #233 ) ;
#50 = CYLINDRICAL_SURFACE ( 'NONE', #311, 0.06249999999999988204 ) ;
#51 = SURFACE_SIDE_STYLE ('',( #49 ) ) ;
#52 = DIRECTION ( 'NONE',  ( 0.000000000000000000, 1.000000000000000000, 0.000000000000000000 ) ) ;
#53 = CIRCLE ( 'NONE', #331, 0.06250000000000001388 ) ;
#54 = VECTOR ( 'NONE', #326, 39.37007874015748143 ) ;
#55 = SURFACE_STYLE_FILL_AREA ( #86 ) ;
#56 = PRODUCT_CONTEXT ( 'NONE', #288, 'mechanical' ) ;
#57 = ADVANCED_FACE ( 'NONE', ( #325 ), #50, .T. ) ;
#58 = CARTESIAN_POINT ( 'NONE',  ( -0.06250000000000001388, 0.06250000000000002776, 7.654042494670957545E-18 ) ) ;
#59 = DIRECTION ( 'NONE',  ( 0.000000000000000000, 0.000000000000000000, -1.000000000000000000 ) ) ;
#60 = COLOUR_RGB ( '',1.000000000000000000, 0.000000000000000000, 0.000000000000000000 ) ;
#61 = AXIS2_PLACEMENT_3D ( 'NONE', #258, #369, #59 ) ;
#62 = CARTESIAN_POINT ( 'NONE',  ( -0.06249999999999956285, 0.5000000000000001110, 0.000000000000000000 ) ) ;
#63 = FILL_AREA_STYLE_COLOUR ( '', #45 ) ;
#64 = DIRECTION ( 'NONE',  ( -0.000000000000000000, -1.000000000000000000, -0.000000000000000000 ) ) ;
#65 = SURFACE_STYLE_USAGE ( .BOTH. , #126 ) ;
#66 = ORIENTED_EDGE ( 'NONE', *, *, #280, .T. ) ;
#67 = AXIS2_PLACEMENT_3D ( 'NONE', #69, #309, #153 ) ;
#68 = CARTESIAN_POINT ( 'NONE',  ( 0.000000000000000000, 0.000000000000000000, 0.000000000000000000 ) ) ;
#69 = CARTESIAN_POINT ( 'NONE',  ( -6.123233995736766036E-17, 2.500000000000000000, 0.000000000000000000 ) ) ;
#70 = ORIENTED_EDGE ( 'NONE', *, *, #368, .T. ) ;
#71 = UNCERTAINTY_MEASURE_WITH_UNIT (LENGTH_MEASURE( 1.000000000000000082E-05 ), #176, 'distance_accuracy_value', 'NONE');
#72 = CARTESIAN_POINT ( 'NONE',  ( -6.123233995736766036E-17, 2.500000000000000000, 0.000000000000000000 ) ) ;
#73 = PLANE ( 'NONE',  #160 ) ;
#74 = ADVANCED_FACE ( 'NONE', ( #119 ), #113, .T. ) ;
#75 = STYLED_ITEM ( 'NONE', ( #250 ), #106 ) ;
#76 = VERTEX_POINT ( 'NONE', #58 ) ;
#77 = FILL_AREA_STYLE_COLOUR ( '', #337 ) ;
#78 = FILL_AREA_STYLE ('',( #132 ) ) ;
#79 = UNCERTAINTY_MEASURE_WITH_UNIT (LENGTH_MEASURE( 1.000000000000000082E-05 ), #239, 'distance_accuracy_value', 'NONE');
#80 =( NAMED_UNIT ( * ) SI_UNIT ( $, .STERADIAN. ) SOLID_ANGLE_UNIT ( ) );
#81 = CARTESIAN_POINT ( 'NONE',  ( -6.123233995736766036E-17, 2.500000000000000000, 0.000000000000000000 ) ) ;
#82 = MECHANICAL_DESIGN_GEOMETRIC_PRESENTATION_REPRESENTATION (  '', ( #149 ), #129 ) ;
#83 = AXIS2_PLACEMENT_3D ( 'NONE', #148, #323, #357 ) ;
#84 = ADVANCED_FACE ( 'NONE', ( #112 ), #358, .T. ) ;
#85 = CARTESIAN_POINT ( 'NONE',  ( -7.654042494670957545E-18, 0.06250000000000001388, 0.000000000000000000 ) ) ;
#86 = FILL_AREA_STYLE ('',( #63 ) ) ;
#87 = CARTESIAN_POINT ( 'NONE',  ( 0.06249999999999993755, 2.500000000000000000, 7.654042494670949841E-18 ) ) ;
#88 = ADVANCED_FACE ( 'NONE', ( #269 ), #306, .F. ) ;
#89 =( NAMED_UNIT ( * ) SI_UNIT ( $, .STERADIAN. ) SOLID_ANGLE_UNIT ( ) );
#90 = COLOUR_RGB ( '',0.7921568627450980005, 0.8196078431372548767, 0.9333333333333333481 ) ;
#91 =( GEOMETRIC_REPRESENTATION_CONTEXT ( 3 ) GLOBAL_UNCERTAINTY_ASSIGNED_CONTEXT ( ( #231 ) ) GLOBAL_UNIT_ASSIGNED_CONTEXT ( ( #25, #105, #235 ) ) REPRESENTATION_CONTEXT ( 'NONE', 'WORKASPACE' ) );
#92 = LENGTH_MEASURE_WITH_UNIT ( LENGTH_MEASURE( 0.02539999999999999897 ), #328 );
#93 = CARTESIAN_POINT ( 'NONE',  ( 0.000000000000000000, 0.000000000000000000, -0.06249999999999996531 ) ) ;
#94 =( LENGTH_UNIT ( ) NAMED_UNIT ( * ) SI_UNIT ( $, .METRE. ) );
#95 = APPLICATION_PROTOCOL_DEFINITION ( 'draft international standard', 'automotive_design', 1998, #288 ) ;
#96 =( LENGTH_UNIT ( ) NAMED_UNIT ( * ) SI_UNIT ( $, .METRE. ) );
#97 = EDGE_CURVE ( 'NONE', #195, #220, #361, .T. ) ;
#98 = LENGTH_MEASURE_WITH_UNIT ( LENGTH_MEASURE( 0.02539999999999999897 ), #94 );
#99 = ORIENTED_EDGE ( 'NONE', *, *, #218, .T. ) ;
#100 = AXIS2_PLACEMENT_3D ( 'NONE', #318, #52, #205 ) ;
#101 = AXIS2_PLACEMENT_3D ( 'NONE', #33, #139, #144 ) ;
#102 = PRODUCT_DEFINITION_CONTEXT ( 'detailed design', #330, 'design' ) ;
#103 =( CONVERSION_BASED_UNIT ( 'INCH', #98 ) LENGTH_UNIT ( ) NAMED_UNIT ( #179 ) );
#104 = ORIENTED_EDGE ( 'NONE', *, *, #125, .T. ) ;
#105 =( NAMED_UNIT ( * ) PLANE_ANGLE_UNIT ( ) SI_UNIT ( $, .RADIAN. ) );
#106 = ADVANCED_FACE ( 'NONE', ( #14 ), #273, .T. ) ;
#107 = CIRCLE ( 'NONE', #134, 0.06249999999999993755 ) ;
#108 = ORIENTED_EDGE ( 'NONE', *, *, #218, .F. ) ;
#109 = PRODUCT_DEFINITION_SHAPE ( 'NONE', 'NONE',  #305 ) ;
#110 = SURFACE_STYLE_USAGE ( .BOTH. , #196 ) ;
#111 = FILL_AREA_STYLE_COLOUR ( '', #39 ) ;
#112 = FACE_OUTER_BOUND ( 'NONE', #19, .T. ) ;
#113 = PLANE ( 'NONE',  #100 ) ;
#114 =( GEOMETRIC_REPRESENTATION_CONTEXT ( 3 ) GLOBAL_UNCERTAINTY_ASSIGNED_CONTEXT ( ( #20 ) ) GLOBAL_UNIT_ASSIGNED_CONTEXT ( ( #332, #247, #40 ) ) REPRESENTATION_CONTEXT ( 'NONE', 'WORKASPACE' ) );
#115 = PRESENTATION_LAYER_ASSIGNMENT (  '', '', ( #222 ) ) ;
#116 = DIRECTION ( 'NONE',  ( -0.000000000000000000, -1.000000000000000000, -0.000000000000000000 ) ) ;
#117 = SURFACE_STYLE_FILL_AREA ( #7 ) ;
#118 = CARTESIAN_POINT ( 'NONE',  ( -7.654042494670957545E-18, 0.06250000000000001388, 0.000000000000000000 ) ) ;
#119 = FACE_OUTER_BOUND ( 'NONE', #251, .T. ) ;
#120 = DIRECTION ( 'NONE',  ( 0.000000000000000000, 0.000000000000000000, -1.000000000000000000 ) ) ;
#121 = CARTESIAN_POINT ( 'NONE',  ( 1.836970198721029194E-16, 0.5000000000000001110, 0.000000000000000000 ) ) ;
#122 =( GEOMETRIC_REPRESENTATION_CONTEXT ( 3 ) GLOBAL_UNCERTAINTY_ASSIGNED_CONTEXT ( ( #71 ) ) GLOBAL_UNIT_ASSIGNED_CONTEXT ( ( #176, #145, #89 ) ) REPRESENTATION_CONTEXT ( 'NONE', 'WORKASPACE' ) );
#123 = CARTESIAN_POINT ( 'NONE',  ( -0.06250000000000005551, 2.500000000000000000, 0.000000000000000000 ) ) ;
#124 =( NAMED_UNIT ( * ) SI_UNIT ( $, .STERADIAN. ) SOLID_ANGLE_UNIT ( ) );
#125 = EDGE_CURVE ( 'NONE', #199, #76, #324, .T. ) ;
#126 = SURFACE_SIDE_STYLE ('',( #117 ) ) ;
#127 = APPLICATION_PROTOCOL_DEFINITION ( 'draft international standard', 'automotive_design', 1998, #330 ) ;
#128 = ORIENTED_EDGE ( 'NONE', *, *, #193, .T. ) ;
#129 =( GEOMETRIC_REPRESENTATION_CONTEXT ( 3 ) GLOBAL_UNCERTAINTY_ASSIGNED_CONTEXT ( ( #158 ) ) GLOBAL_UNIT_ASSIGNED_CONTEXT ( ( #135, #131, #263 ) ) REPRESENTATION_CONTEXT ( 'NONE', 'WORKASPACE' ) );
#130 = ORIENTED_EDGE ( 'NONE', *, *, #336, .F. ) ;
#131 =( NAMED_UNIT ( * ) PLANE_ANGLE_UNIT ( ) SI_UNIT ( $, .RADIAN. ) );
#132 = FILL_AREA_STYLE_COLOUR ( '', #293 ) ;
#133 = AXIS2_PLACEMENT_3D ( 'NONE', #219, #302, #253 ) ;
#134 = AXIS2_PLACEMENT_3D ( 'NONE', #249, #64, #120 ) ;
#135 =( CONVERSION_BASED_UNIT ( 'INCH', #164 ) LENGTH_UNIT ( ) NAMED_UNIT ( #204 ) );
#136 = EDGE_CURVE ( 'NONE', #226, #314, #4, .T. ) ;
#137 = DIRECTION ( 'NONE',  ( -1.224646799147352961E-16, 1.000000000000000000, -0.000000000000000000 ) ) ;
#138 = DIMENSIONAL_EXPONENTS ( 1.000000000000000000, 0.000000000000000000, 0.000000000000000000, 0.000000000000000000, 0.000000000000000000, 0.000000000000000000, 0.000000000000000000 ) ;
#139 = DIRECTION ( 'NONE',  ( 0.000000000000000000, 0.000000000000000000, 1.000000000000000000 ) ) ;
#140 = DIRECTION ( 'NONE',  ( -1.000000000000000000, 0.000000000000000000, 0.000000000000000000 ) ) ;
#141 = STYLED_ITEM ( 'NONE', ( #152 ), #84 ) ;
#142 = EDGE_CURVE ( 'NONE', #220, #195, #371, .T. ) ;
#143 = CIRCLE ( 'NONE', #349, 0.06249999999999975020 ) ;
#144 = DIRECTION ( 'NONE',  ( 1.000000000000000000, 0.000000000000000000, 0.000000000000000000 ) ) ;
#145 =( NAMED_UNIT ( * ) PLANE_ANGLE_UNIT ( ) SI_UNIT ( $, .RADIAN. ) );
#146 = CARTESIAN_POINT ( 'NONE',  ( 0.000000000000000000, 0.5000000000000000000, 0.000000000000000000 ) ) ;
#147 = FILL_AREA_STYLE_COLOUR ( '', #90 ) ;
#148 = CARTESIAN_POINT ( 'NONE',  ( 0.000000000000000000, 0.06250000000000002776, 0.000000000000000000 ) ) ;
#149 = STYLED_ITEM ( 'NONE', ( #292 ), #21 ) ;
#150 = AXIS2_PLACEMENT_3D ( 'NONE', #118, #274, #11 ) ;
#151 = EDGE_CURVE ( 'NONE', #282, #192, #53, .T. ) ;
#152 = PRESENTATION_STYLE_ASSIGNMENT (( #65 ) ) ;
#153 = DIRECTION ( 'NONE',  ( -1.000000000000000000, 0.000000000000000000, 0.000000000000000000 ) ) ;
#154 = DIRECTION ( 'NONE',  ( -0.000000000000000000, -1.000000000000000000, -0.000000000000000000 ) ) ;
#155 = ADVANCED_FACE ( 'NONE', ( #198 ), #73, .F. ) ;
#156 = AXIS2_PLACEMENT_3D ( 'NONE', #72, #43, #27 ) ;
#157 = ORIENTED_EDGE ( 'NONE', *, *, #243, .T. ) ;
#158 = UNCERTAINTY_MEASURE_WITH_UNIT (LENGTH_MEASURE( 1.000000000000000082E-05 ), #135, 'distance_accuracy_value', 'NONE');
#159 = ORIENTED_EDGE ( 'NONE', *, *, #136, .T. ) ;
#160 = AXIS2_PLACEMENT_3D ( 'NONE', #169, #3, #372 ) ;
#161 = FILL_AREA_STYLE ('',( #111 ) ) ;
#162 = CIRCLE ( 'NONE', #83, 0.06250000000000000000 ) ;
#163 = ADVANCED_FACE ( 'NONE', ( #261 ), #264, .T. ) ;
#164 = LENGTH_MEASURE_WITH_UNIT ( LENGTH_MEASURE( 0.02539999999999999897 ), #29 );
#165 = DIMENSIONAL_EXPONENTS ( 1.000000000000000000, 0.000000000000000000, 0.000000000000000000, 0.000000000000000000, 0.000000000000000000, 0.000000000000000000, 0.000000000000000000 ) ;
#166 =( NAMED_UNIT ( * ) PLANE_ANGLE_UNIT ( ) SI_UNIT ( $, .RADIAN. ) );
#167 = MANIFOLD_SOLID_BREP ( 'Revolve - Cutting Edge', #281 ) ;
#168 = ORIENTED_EDGE ( 'NONE', *, *, #265, .F. ) ;
#169 = CARTESIAN_POINT ( 'NONE',  ( 1.836970198721029441E-16, 0.5000000000000000000, 0.000000000000000000 ) ) ;
#170 = ORIENTED_EDGE ( 'NONE', *, *, #336, .T. ) ;
#171 = SURFACE_STYLE_USAGE ( .BOTH. , #51 ) ;
#172 = MECHANICAL_DESIGN_GEOMETRIC_PRESENTATION_REPRESENTATION (  '', ( #209 ), #91 ) ;
#173 = VECTOR ( 'NONE', #6, 39.37007874015748143 ) ;
#174 = DIRECTION ( 'NONE',  ( 1.000000000000000000, 0.000000000000000000, 0.000000000000000000 ) ) ;
#175 =( LENGTH_UNIT ( ) NAMED_UNIT ( * ) SI_UNIT ( $, .METRE. ) );
#176 =( CONVERSION_BASED_UNIT ( 'INCH', #241 ) LENGTH_UNIT ( ) NAMED_UNIT ( #138 ) );
#177 = SURFACE_STYLE_FILL_AREA ( #237 ) ;
#178 = DIRECTION ( 'NONE',  ( -0.000000000000000000, -1.000000000000000000, -0.000000000000000000 ) ) ;
#179 = DIMENSIONAL_EXPONENTS ( 1.000000000000000000, 0.000000000000000000, 0.000000000000000000, 0.000000000000000000, 0.000000000000000000, 0.000000000000000000, 0.000000000000000000 ) ;
#180 = FILL_AREA_STYLE_COLOUR ( '', #12 ) ;
#181 = PRESENTATION_LAYER_ASSIGNMENT (  '', '', ( #141 ) ) ;
#182 = CARTESIAN_POINT ( 'NONE',  ( 0.06249999999999981959, 2.500000000000000000, 7.654042494670943678E-18 ) ) ;
#183 =( NAMED_UNIT ( * ) PLANE_ANGLE_UNIT ( ) SI_UNIT ( $, .RADIAN. ) );
#184 = ORIENTED_EDGE ( 'NONE', *, *, #259, .F. ) ;
#185 = FILL_AREA_STYLE ('',( #279 ) ) ;
#186 = STYLED_ITEM ( 'NONE', ( #202 ), #74 ) ;
#187 = CIRCLE ( 'NONE', #61, 0.06250000000000000000 ) ;
#188 = SURFACE_SIDE_STYLE ('',( #17 ) ) ;
#189 = ORIENTED_EDGE ( 'NONE', *, *, #207, .F. ) ;
#190 = VERTEX_POINT ( 'NONE', #294 ) ;
#191 = AXIS2_PLACEMENT_3D ( 'NONE', #225, #340, #10 ) ;
#192 = VERTEX_POINT ( 'NONE', #350 ) ;
#193 = EDGE_CURVE ( 'NONE', #282, #199, #187, .T. ) ;
#194 = CARTESIAN_POINT ( 'NONE',  ( 0.06249999999999993755, 2.500000000000000000, 0.000000000000000000 ) ) ;
#195 = VERTEX_POINT ( 'NONE', #87 ) ;
#196 = SURFACE_SIDE_STYLE ('',( #286 ) ) ;
#197 = EDGE_LOOP ( 'NONE', ( #334, #255, #285, #230 ) ) ;
#198 = FACE_OUTER_BOUND ( 'NONE', #18, .T. ) ;
#199 = VERTEX_POINT ( 'NONE', #301 ) ;
#200 =( LENGTH_UNIT ( ) NAMED_UNIT ( * ) SI_UNIT ( $, .METRE. ) );
#201 = AXIS2_PLACEMENT_3D ( 'NONE', #68, #154, #362 ) ;
#202 = PRESENTATION_STYLE_ASSIGNMENT (( #298 ) ) ;
#203 = PRESENTATION_STYLE_ASSIGNMENT (( #110 ) ) ;
#204 = DIMENSIONAL_EXPONENTS ( 1.000000000000000000, 0.000000000000000000, 0.000000000000000000, 0.000000000000000000, 0.000000000000000000, 0.000000000000000000, 0.000000000000000000 ) ;
#205 = DIRECTION ( 'NONE',  ( 0.000000000000000000, -0.000000000000000000, 1.000000000000000000 ) ) ;
#206 = DIRECTION ( 'NONE',  ( 0.000000000000000000, 0.000000000000000000, -1.000000000000000000 ) ) ;
#207 = EDGE_CURVE ( 'NONE', #224, #282, #283, .T. ) ;
#208 = DIRECTION ( 'NONE',  ( -1.224646799147352961E-16, 1.000000000000000000, -0.000000000000000000 ) ) ;
#209 = STYLED_ITEM ( 'NONE', ( #289 ), #163 ) ;
#210 = DIRECTION ( 'NONE',  ( -0.000000000000000000, -1.000000000000000000, -0.000000000000000000 ) ) ;
#211 = EDGE_CURVE ( 'NONE', #226, #220, #266, .T. ) ;
#212 = ORIENTED_EDGE ( 'NONE', *, *, #136, .F. ) ;
#213 = CARTESIAN_POINT ( 'NONE',  ( 7.654042494670952923E-18, 0.5000000000000000000, 0.06249999999999993755 ) ) ;
#214 = DIRECTION ( 'NONE',  ( 1.224646799147352961E-16, -1.000000000000000000, 0.000000000000000000 ) ) ;
#215 = LINE ( 'NONE', #93, #268 ) ;
#216 = LENGTH_MEASURE_WITH_UNIT ( LENGTH_MEASURE( 0.02539999999999999897 ), #96 );
#217 = EDGE_LOOP ( 'NONE', ( #184, #99, #227, #24 ) ) ;
#218 = EDGE_CURVE ( 'NONE', #76, #224, #162, .T. ) ;
#219 = CARTESIAN_POINT ( 'NONE',  ( -7.654042494670957545E-18, 0.06250000000000001388, 0.000000000000000000 ) ) ;
#220 = VERTEX_POINT ( 'NONE', #123 ) ;
#221 =( GEOMETRIC_REPRESENTATION_CONTEXT ( 3 ) GLOBAL_UNCERTAINTY_ASSIGNED_CONTEXT ( ( #48 ) ) GLOBAL_UNIT_ASSIGNED_CONTEXT ( ( #103, #360, #329 ) ) REPRESENTATION_CONTEXT ( 'NONE', 'WORKASPACE' ) );
#222 = STYLED_ITEM ( 'NONE', ( #203 ), #167 ) ;
#223 = PRODUCT ( '84408', '84408', '', ( #56 ) ) ;
#224 = VERTEX_POINT ( 'NONE', #13 ) ;
#225 = CARTESIAN_POINT ( 'NONE',  ( 0.000000000000000000, 0.06250000000000002776, 0.000000000000000000 ) ) ;
#226 = VERTEX_POINT ( 'NONE', #62 ) ;
#227 = ORIENTED_EDGE ( 'NONE', *, *, #207, .T. ) ;
#228 = MECHANICAL_DESIGN_GEOMETRIC_PRESENTATION_REPRESENTATION (  '', ( #141 ), #221 ) ;
#229 = MECHANICAL_DESIGN_GEOMETRIC_PRESENTATION_REPRESENTATION (  '', ( #222 ), #23 ) ;
#230 = ORIENTED_EDGE ( 'NONE', *, *, #97, .F. ) ;
#231 = UNCERTAINTY_MEASURE_WITH_UNIT (LENGTH_MEASURE( 1.000000000000000082E-05 ), #25, 'distance_accuracy_value', 'NONE');
#232 = LENGTH_MEASURE_WITH_UNIT ( LENGTH_MEASURE( 0.02539999999999999897 ), #1 );
#233 = FILL_AREA_STYLE ('',( #77 ) ) ;
#234 = CARTESIAN_POINT ( 'NONE',  ( -7.654042494670957545E-18, 0.06250000000000001388, 0.000000000000000000 ) ) ;
#235 =( NAMED_UNIT ( * ) SI_UNIT ( $, .STERADIAN. ) SOLID_ANGLE_UNIT ( ) );
#236 = AXIS2_PLACEMENT_3D ( 'NONE', #194, #214, #276 ) ;
#237 = FILL_AREA_STYLE ('',( #147 ) ) ;
#238 =( NAMED_UNIT ( * ) PLANE_ANGLE_UNIT ( ) SI_UNIT ( $, .RADIAN. ) );
#239 =( CONVERSION_BASED_UNIT ( 'INCH', #295 ) LENGTH_UNIT ( ) NAMED_UNIT ( #26 ) );
#240 = CARTESIAN_POINT ( 'NONE',  ( 7.654042494670954463E-18, 0.000000000000000000, 0.06249999999999996531 ) ) ;
#241 = LENGTH_MEASURE_WITH_UNIT ( LENGTH_MEASURE( 0.02539999999999999897 ), #200 );
#242 = LINE ( 'NONE', #240, #312 ) ;
#243 = EDGE_CURVE ( 'NONE', #314, #195, #299, .T. ) ;
#244 = PRESENTATION_LAYER_ASSIGNMENT (  '', '', ( #209 ) ) ;
#245 = DIRECTION ( 'NONE',  ( -1.224646799147352961E-16, 1.000000000000000000, -0.000000000000000000 ) ) ;
#246 = CARTESIAN_POINT ( 'NONE',  ( 0.06250000000000000000, 0.06250000000000002776, 0.000000000000000000 ) ) ;
#247 =( NAMED_UNIT ( * ) PLANE_ANGLE_UNIT ( ) SI_UNIT ( $, .RADIAN. ) );
#248 = ORIENTED_EDGE ( 'NONE', *, *, #252, .F. ) ;
#249 = CARTESIAN_POINT ( 'NONE',  ( 0.000000000000000000, 0.5000000000000000000, 0.000000000000000000 ) ) ;
#250 = PRESENTATION_STYLE_ASSIGNMENT (( #304 ) ) ;
#251 = EDGE_LOOP ( 'NONE', ( #248, #287 ) ) ;
#252 = EDGE_CURVE ( 'NONE', #190, #343, #5, .T. ) ;
#253 = DIRECTION ( 'NONE',  ( 1.000000000000000000, 0.000000000000000000, 0.000000000000000000 ) ) ;
#254 = ORIENTED_EDGE ( 'NONE', *, *, #142, .F. ) ;
#255 = ORIENTED_EDGE ( 'NONE', *, *, #265, .T. ) ;
#256 =( GEOMETRIC_REPRESENTATION_CONTEXT ( 3 ) GLOBAL_UNCERTAINTY_ASSIGNED_CONTEXT ( ( #79 ) ) GLOBAL_UNIT_ASSIGNED_CONTEXT ( ( #239, #183, #373 ) ) REPRESENTATION_CONTEXT ( 'NONE', 'WORKASPACE' ) );
#257 = ORIENTED_EDGE ( 'NONE', *, *, #97, .T. ) ;
#258 = CARTESIAN_POINT ( 'NONE',  ( 0.000000000000000000, 0.06250000000000002776, 0.000000000000000000 ) ) ;
#259 = EDGE_CURVE ( 'NONE', #76, #192, #277, .T. ) ;
#260 = FACE_OUTER_BOUND ( 'NONE', #217, .T. ) ;
#261 = FACE_OUTER_BOUND ( 'NONE', #303, .T. ) ;
#262 = DIMENSIONAL_EXPONENTS ( 1.000000000000000000, 0.000000000000000000, 0.000000000000000000, 0.000000000000000000, 0.000000000000000000, 0.000000000000000000, 0.000000000000000000 ) ;
#263 =( NAMED_UNIT ( * ) SI_UNIT ( $, .STERADIAN. ) SOLID_ANGLE_UNIT ( ) );
#264 = CYLINDRICAL_SURFACE ( 'NONE', #333, 0.06249999999999996531 ) ;
#265 = EDGE_CURVE ( 'NONE', #314, #226, #143, .T. ) ;
#266 = LINE ( 'NONE', #36, #173 ) ;
#267 = AXIS2_PLACEMENT_3D ( 'NONE', #121, #245, #356 ) ;
#268 = VECTOR ( 'NONE', #116, 39.37007874015748143 ) ;
#269 = FACE_OUTER_BOUND ( 'NONE', #290, .T. ) ;
#270 = DIRECTION ( 'NONE',  ( -1.224646799147352961E-16, 1.000000000000000000, -0.000000000000000000 ) ) ;
#271 = PRODUCT_RELATED_PRODUCT_CATEGORY ( 'part', '', ( #223 ) ) ;
#272 = DIRECTION ( 'NONE',  ( -0.000000000000000000, -1.000000000000000000, -0.000000000000000000 ) ) ;
#273 = CYLINDRICAL_SURFACE ( 'NONE', #201, 0.06249999999999996531 ) ;
#274 = DIRECTION ( 'NONE',  ( 1.224646799147353207E-16, -0.000000000000000000, 1.000000000000000000 ) ) ;
#275 = PRESENTATION_LAYER_ASSIGNMENT (  '', '', ( #149 ) ) ;
#276 = DIRECTION ( 'NONE',  ( 1.000000000000000000, 1.224646799147352961E-16, 0.000000000000000000 ) ) ;
#277 = CIRCLE ( 'NONE', #150, 0.06250000000000001388 ) ;
#278 = ORIENTED_EDGE ( 'NONE', *, *, #368, .F. ) ;
#279 = FILL_AREA_STYLE_COLOUR ( '', #60 ) ;
#280 = EDGE_CURVE ( 'NONE', #343, #190, #107, .T. ) ;
#281 = CLOSED_SHELL ( 'NONE', ( #84, #163, #74, #106, #21 ) ) ;
#282 = VERTEX_POINT ( 'NONE', #246 ) ;
#283 = CIRCLE ( 'NONE', #46, 0.06250000000000000000 ) ;
#284 = ORIENTED_EDGE ( 'NONE', *, *, #125, .F. ) ;
#285 = ORIENTED_EDGE ( 'NONE', *, *, #211, .T. ) ;
#286 = SURFACE_STYLE_FILL_AREA ( #161 ) ;
#287 = ORIENTED_EDGE ( 'NONE', *, *, #280, .F. ) ;
#288 = APPLICATION_CONTEXT ( 'automotive_design' ) ;
#289 = PRESENTATION_STYLE_ASSIGNMENT (( #171 ) ) ;
#290 = EDGE_LOOP ( 'NONE', ( #307, #257 ) ) ;
#291 = CARTESIAN_POINT ( 'NONE',  ( 0.000000000000000000, 0.000000000000000000, 0.000000000000000000 ) ) ;
#292 = PRESENTATION_STYLE_ASSIGNMENT (( #308 ) ) ;
#293 = COLOUR_RGB ( '',1.000000000000000000, 0.000000000000000000, 0.000000000000000000 ) ;
#294 = CARTESIAN_POINT ( 'NONE',  ( 0.000000000000000000, 0.5000000000000000000, -0.06249999999999993755 ) ) ;
#295 = LENGTH_MEASURE_WITH_UNIT ( LENGTH_MEASURE( 0.02539999999999999897 ), #354 );
#296 = ADVANCED_BREP_SHAPE_REPRESENTATION ( '84408', ( #167, #41, #101 ), #365 ) ;
#297 = MECHANICAL_DESIGN_GEOMETRIC_PRESENTATION_REPRESENTATION (  '', ( #75 ), #114 ) ;
#298 = SURFACE_STYLE_USAGE ( .BOTH. , #300 ) ;
#299 = LINE ( 'NONE', #182, #54 ) ;
#300 = SURFACE_SIDE_STYLE ('',( #55 ) ) ;
#301 = CARTESIAN_POINT ( 'NONE',  ( 7.654042494670957545E-18, 0.06250000000000002776, 0.06249999999999999306 ) ) ;
#302 = DIRECTION ( 'NONE',  ( 0.000000000000000000, 0.000000000000000000, 1.000000000000000000 ) ) ;
#303 = EDGE_LOOP ( 'NONE', ( #366, #170, #310, #189, #278 ) ) ;
#304 = SURFACE_STYLE_USAGE ( .BOTH. , #188 ) ;
#305 = PRODUCT_DEFINITION ( 'UNKNOWN', '', #31, #102 ) ;
#306 = PLANE ( 'NONE',  #236 ) ;
#307 = ORIENTED_EDGE ( 'NONE', *, *, #142, .T. ) ;
#308 = SURFACE_STYLE_USAGE ( .BOTH. , #341 ) ;
#309 = DIRECTION ( 'NONE',  ( -1.224646799147352961E-16, 1.000000000000000000, -0.000000000000000000 ) ) ;
#310 = ORIENTED_EDGE ( 'NONE', *, *, #193, .F. ) ;
#311 = AXIS2_PLACEMENT_3D ( 'NONE', #81, #208, #140 ) ;
#312 = VECTOR ( 'NONE', #178, 39.37007874015748143 ) ;
#313 =( CONVERSION_BASED_UNIT ( 'INCH', #317 ) LENGTH_UNIT ( ) NAMED_UNIT ( #165 ) );
#314 = VERTEX_POINT ( 'NONE', #353 ) ;
#315 = DIRECTION ( 'NONE',  ( -1.000000000000000000, 0.000000000000000000, 0.000000000000000000 ) ) ;
#316 = EDGE_LOOP ( 'NONE', ( #159, #157, #254, #367 ) ) ;
#317 = LENGTH_MEASURE_WITH_UNIT ( LENGTH_MEASURE( 0.02539999999999999897 ), #175 );
#318 = CARTESIAN_POINT ( 'NONE',  ( 0.000000000000000000, 0.5000000000000000000, 0.000000000000000000 ) ) ;
#319 = PRESENTATION_LAYER_ASSIGNMENT (  '', '', ( #38 ) ) ;
#320 = DIRECTION ( 'NONE',  ( 0.000000000000000000, 0.000000000000000000, -1.000000000000000000 ) ) ;
#321 = SPHERICAL_SURFACE ( 'NONE', #22, 0.06250000000000001388 ) ;
#322 = DIRECTION ( 'NONE',  ( -1.000000000000000000, 0.000000000000000000, 0.000000000000000000 ) ) ;
#323 = DIRECTION ( 'NONE',  ( -0.000000000000000000, -1.000000000000000000, -0.000000000000000000 ) ) ;
#324 = CIRCLE ( 'NONE', #191, 0.06250000000000000000 ) ;
#325 = FACE_OUTER_BOUND ( 'NONE', #316, .T. ) ;
#326 = DIRECTION ( 'NONE',  ( -1.224646799147352961E-16, 1.000000000000000000, -0.000000000000000000 ) ) ;
#327 = EDGE_LOOP ( 'NONE', ( #130, #66, #70, #108, #284 ) ) ;
#328 =( LENGTH_UNIT ( ) NAMED_UNIT ( * ) SI_UNIT ( $, .METRE. ) );
#329 =( NAMED_UNIT ( * ) SI_UNIT ( $, .STERADIAN. ) SOLID_ANGLE_UNIT ( ) );
#330 = APPLICATION_CONTEXT ( 'automotive_design' ) ;
#331 = AXIS2_PLACEMENT_3D ( 'NONE', #85, #320, #346 ) ;
#332 =( CONVERSION_BASED_UNIT ( 'INCH', #216 ) LENGTH_UNIT ( ) NAMED_UNIT ( #352 ) );
#333 = AXIS2_PLACEMENT_3D ( 'NONE', #291, #32, #28 ) ;
#334 = ORIENTED_EDGE ( 'NONE', *, *, #243, .F. ) ;
#335 = UNCERTAINTY_MEASURE_WITH_UNIT (LENGTH_MEASURE( 1.000000000000000082E-05 ), #313, 'distance_accuracy_value', 'NONE');
#336 = EDGE_CURVE ( 'NONE', #343, #199, #242, .T. ) ;
#337 = COLOUR_RGB ( '',1.000000000000000000, 0.000000000000000000, 0.000000000000000000 ) ;
#338 = AXIS2_PLACEMENT_3D ( 'NONE', #146, #272, #9 ) ;
#339 = ORIENTED_EDGE ( 'NONE', *, *, #259, .T. ) ;
#340 = DIRECTION ( 'NONE',  ( -0.000000000000000000, -1.000000000000000000, -0.000000000000000000 ) ) ;
#341 = SURFACE_SIDE_STYLE ('',( #370 ) ) ;
#342 = CARTESIAN_POINT ( 'NONE',  ( -6.123233995736766036E-17, 2.500000000000000000, 0.000000000000000000 ) ) ;
#343 = VERTEX_POINT ( 'NONE', #213 ) ;
#344 = MECHANICAL_DESIGN_GEOMETRIC_PRESENTATION_REPRESENTATION (  '', ( #186 ), #122 ) ;
#345 = FACE_OUTER_BOUND ( 'NONE', #197, .T. ) ;
#346 = DIRECTION ( 'NONE',  ( -1.000000000000000000, 0.000000000000000000, 0.000000000000000000 ) ) ;
#347 = DIMENSIONAL_EXPONENTS ( 1.000000000000000000, 0.000000000000000000, 0.000000000000000000, 0.000000000000000000, 0.000000000000000000, 0.000000000000000000, 0.000000000000000000 ) ;
#348 = MECHANICAL_DESIGN_GEOMETRIC_PRESENTATION_REPRESENTATION (  '', ( #38 ), #256 ) ;
#349 = AXIS2_PLACEMENT_3D ( 'NONE', #359, #270, #322 ) ;
#350 = CARTESIAN_POINT ( 'NONE',  ( -3.827021247335478002E-18, 0.000000000000000000, 0.000000000000000000 ) ) ;
#351 = PRESENTATION_STYLE_ASSIGNMENT (( #34 ) ) ;
#352 = DIMENSIONAL_EXPONENTS ( 1.000000000000000000, 0.000000000000000000, 0.000000000000000000, 0.000000000000000000, 0.000000000000000000, 0.000000000000000000, 0.000000000000000000 ) ;
#353 = CARTESIAN_POINT ( 'NONE',  ( 0.06249999999999993755, 0.5000000000000001110, 7.654042494670949841E-18 ) ) ;
#354 =( LENGTH_UNIT ( ) NAMED_UNIT ( * ) SI_UNIT ( $, .METRE. ) );
#355 = PRESENTATION_LAYER_ASSIGNMENT (  '', '', ( #75 ) ) ;
#356 = DIRECTION ( 'NONE',  ( -1.000000000000000000, 0.000000000000000000, 0.000000000000000000 ) ) ;
#357 = DIRECTION ( 'NONE',  ( 0.000000000000000000, 0.000000000000000000, -1.000000000000000000 ) ) ;
#358 = SPHERICAL_SURFACE ( 'NONE', #133, 0.06250000000000001388 ) ;
#359 = CARTESIAN_POINT ( 'NONE',  ( 1.836970198721029194E-16, 0.5000000000000001110, 0.000000000000000000 ) ) ;
#360 =( NAMED_UNIT ( * ) PLANE_ANGLE_UNIT ( ) SI_UNIT ( $, .RADIAN. ) );
#361 = CIRCLE ( 'NONE', #67, 0.06250000000000000000 ) ;
#362 = DIRECTION ( 'NONE',  ( 0.000000000000000000, 0.000000000000000000, -1.000000000000000000 ) ) ;
#363 = SHAPE_DEFINITION_REPRESENTATION ( #109, #296 ) ;
#364 = PRESENTATION_LAYER_ASSIGNMENT (  '', '', ( #186 ) ) ;
#365 =( GEOMETRIC_REPRESENTATION_CONTEXT ( 3 ) GLOBAL_UNCERTAINTY_ASSIGNED_CONTEXT ( ( #44 ) ) GLOBAL_UNIT_ASSIGNED_CONTEXT ( ( #8, #238, #124 ) ) REPRESENTATION_CONTEXT ( 'NONE', 'WORKASPACE' ) );
#366 = ORIENTED_EDGE ( 'NONE', *, *, #252, .T. ) ;
#367 = ORIENTED_EDGE ( 'NONE', *, *, #211, .F. ) ;
#368 = EDGE_CURVE ( 'NONE', #190, #224, #215, .T. ) ;
#369 = DIRECTION ( 'NONE',  ( -0.000000000000000000, -1.000000000000000000, -0.000000000000000000 ) ) ;
#370 = SURFACE_STYLE_FILL_AREA ( #78 ) ;
#371 = CIRCLE ( 'NONE', #30, 0.06250000000000000000 ) ;
#372 = DIRECTION ( 'NONE',  ( -1.000000000000000000, -1.224646799147352961E-16, 0.000000000000000000 ) ) ;
#373 =( NAMED_UNIT ( * ) SI_UNIT ( $, .STERADIAN. ) SOLID_ANGLE_UNIT ( ) );
ENDSEC;
END-ISO-10303-21;
