ISO-10303-21;
HEADER;
FILE_DESCRIPTION (( 'STEP AP214' ),
    '1' );
FILE_NAME ('Micro_EMSM-030-2.STEP',
    '2022-03-15T14:37:35',
    ( '' ),
    ( '' ),
    'SwSTEP 2.0',
    'SolidWorks 2022',
    '' );
FILE_SCHEMA (( 'AUTOMOTIVE_DESIGN' ));
ENDSEC;

DATA;
#1 = EDGE_CURVE ( 'NONE', #70, #194, #172, .T. ) ;
#2 = DIRECTION ( 'NONE',  ( -0.7071067811865482389, 0.000000000000000000, -0.7071067811865469066 ) ) ;
#3 = DIRECTION ( 'NONE',  ( -1.000000000000000000, 0.000000000000000000, 1.224646799147353454E-16 ) ) ;
#4 = ORIENTED_EDGE ( 'NONE', *, *, #104, .T. ) ;
#5 = CARTESIAN_POINT ( 'NONE',  ( 0.05905500000000000332, 7.232151672364695422E-18, 1.481062999999999574 ) ) ;
#6 = DIRECTION ( 'NONE',  ( 1.000000000000000000, 0.000000000000000000, 0.000000000000000000 ) ) ;
#7 = FACE_OUTER_BOUND ( 'NONE', #95, .T. ) ;
#8 = AXIS2_PLACEMENT_3D ( 'NONE', #175, #293, #271 ) ;
#9 = EDGE_CURVE ( 'NONE', #192, #253, #266, .T. ) ;
#10 =( NAMED_UNIT ( * ) PLANE_ANGLE_UNIT ( ) SI_UNIT ( $, .RADIAN. ) );
#11 = LENGTH_MEASURE_WITH_UNIT ( LENGTH_MEASURE( 0.02539999999999999897 ), #214 );
#12 = AXIS2_PLACEMENT_3D ( 'NONE', #55, #77, #226 ) ;
#13 = PRODUCT_RELATED_PRODUCT_CATEGORY ( 'part', '', ( #208 ) ) ;
#14 = ORIENTED_EDGE ( 'NONE', *, *, #88, .F. ) ;
#15 = DIRECTION ( 'NONE',  ( 1.224646799147353207E-16, 0.000000000000000000, 1.000000000000000000 ) ) ;
#16 = EDGE_LOOP ( 'NONE', ( #174, #169, #121, #196 ) ) ;
#17 = ORIENTED_EDGE ( 'NONE', *, *, #73, .F. ) ;
#18 = FILL_AREA_STYLE_COLOUR ( '', #245 ) ;
#19 = DIRECTION ( 'NONE',  ( 0.7071067811865482389, 8.659560562354941486E-17, -0.7071067811865469066 ) ) ;
#20 = LINE ( 'NONE', #150, #259 ) ;
#21 =( LENGTH_UNIT ( ) NAMED_UNIT ( * ) SI_UNIT ( $, .METRE. ) );
#22 = CARTESIAN_POINT ( 'NONE',  ( 7.232163918832686227E-17, 0.000000000000000000, 0.5905510000000000481 ) ) ;
#23 = DIRECTION ( 'NONE',  ( -1.224646799147353207E-16, -0.000000000000000000, -1.000000000000000000 ) ) ;
#24 = DIRECTION ( 'NONE',  ( -1.000000000000000000, 0.000000000000000000, 1.224646799147353207E-16 ) ) ;
#25 = ADVANCED_BREP_SHAPE_REPRESENTATION ( 'Micro_EMSM-030-2', ( #163, #211 ), #252 ) ;
#26 = CARTESIAN_POINT ( 'NONE',  ( 0.000000000000000000, 0.000000000000000000, 1.496062999999999921 ) ) ;
#27 = CARTESIAN_POINT ( 'NONE',  ( 7.236265475862306734E-17, 0.000000000000000000, 0.5908859175478576864 ) ) ;
#28 = AXIS2_PLACEMENT_3D ( 'NONE', #27, #23, #51 ) ;
#29 = CARTESIAN_POINT ( 'NONE',  ( 7.232163918832686227E-17, 0.000000000000000000, 0.5905510000000000481 ) ) ;
#30 = ADVANCED_FACE ( 'NONE', ( #298 ), #176, .T. ) ;
#31 = APPLICATION_CONTEXT ( 'automotive_design' ) ;
#32 = ADVANCED_FACE ( 'NONE', ( #148 ), #281, .T. ) ;
#33 = AXIS2_PLACEMENT_3D ( 'NONE', #26, #131, #251 ) ;
#34 =( NAMED_UNIT ( * ) PLANE_ANGLE_UNIT ( ) SI_UNIT ( $, .RADIAN. ) );
#35 = CONICAL_SURFACE ( 'NONE', #69, 0.05899594499999998715, 0.1745329251994339748 ) ;
#36 = SURFACE_SIDE_STYLE ('',( #137 ) ) ;
#37 = PRODUCT_DEFINITION_FORMATION_WITH_SPECIFIED_SOURCE ( 'ANY', '', #208, .NOT_KNOWN. ) ;
#38 = PRODUCT_DEFINITION ( 'UNKNOWN', '', #37, #145 ) ;
#39 = ORIENTED_EDGE ( 'NONE', *, *, #294, .F. ) ;
#40 = EDGE_LOOP ( 'NONE', ( #144, #165, #246, #284 ) ) ;
#41 = DIRECTION ( 'NONE',  ( 0.000000000000000000, 0.000000000000000000, 1.000000000000000000 ) ) ;
#42 = LINE ( 'NONE', #282, #140 ) ;
#43 = AXIS2_PLACEMENT_3D ( 'NONE', #290, #75, #273 ) ;
#44 = CARTESIAN_POINT ( 'NONE',  ( 0.05899594500000005654, 0.000000000000000000, 0.5905510000000000481 ) ) ;
#45 = DIRECTION ( 'NONE',  ( -1.224646799147353207E-16, -0.000000000000000000, -1.000000000000000000 ) ) ;
#46 =( CONVERSION_BASED_UNIT ( 'INCH', #199 ) LENGTH_UNIT ( ) NAMED_UNIT ( #242 ) );
#47 = DIRECTION ( 'NONE',  ( -1.000000000000000000, 0.000000000000000000, 0.000000000000000000 ) ) ;
#48 = DIRECTION ( 'NONE',  ( -1.000000000000000000, 0.000000000000000000, 1.224646799147353454E-16 ) ) ;
#49 = CIRCLE ( 'NONE', #62, 0.05905500000000000332 ) ;
#50 = ORIENTED_EDGE ( 'NONE', *, *, #124, .F. ) ;
#51 = DIRECTION ( 'NONE',  ( 1.000000000000000000, 0.000000000000000000, 0.000000000000000000 ) ) ;
#52 = CARTESIAN_POINT ( 'NONE',  ( -0.05899594499999999409, 0.000000000000000000, 1.444983904138465938E-17 ) ) ;
#53 = DIMENSIONAL_EXPONENTS ( 1.000000000000000000, 0.000000000000000000, 0.000000000000000000, 0.000000000000000000, 0.000000000000000000, 0.000000000000000000, 0.000000000000000000 ) ;
#54 = ADVANCED_FACE ( 'NONE', ( #129 ), #35, .T. ) ;
#55 = CARTESIAN_POINT ( 'NONE',  ( 0.000000000000000000, 0.000000000000000000, 0.000000000000000000 ) ) ;
#56 = VECTOR ( 'NONE', #19, 39.37007874015748143 ) ;
#57 = VECTOR ( 'NONE', #2, 39.37007874015748143 ) ;
#58 = FACE_OUTER_BOUND ( 'NONE', #72, .T. ) ;
#59 = AXIS2_PLACEMENT_3D ( 'NONE', #193, #67, #149 ) ;
#60 =( CONVERSION_BASED_UNIT ( 'INCH', #11 ) LENGTH_UNIT ( ) NAMED_UNIT ( #78 ) );
#61 = EDGE_CURVE ( 'NONE', #237, #200, #20, .T. ) ;
#62 = AXIS2_PLACEMENT_3D ( 'NONE', #299, #63, #168 ) ;
#63 = DIRECTION ( 'NONE',  ( 0.000000000000000000, 0.000000000000000000, -1.000000000000000000 ) ) ;
#64 = DIRECTION ( 'NONE',  ( -1.224646799147353207E-16, -0.000000000000000000, -1.000000000000000000 ) ) ;
#65 = EDGE_CURVE ( 'NONE', #83, #87, #159, .T. ) ;
#66 = EDGE_LOOP ( 'NONE', ( #139, #94 ) ) ;
#67 = DIRECTION ( 'NONE',  ( -0.000000000000000000, -0.000000000000000000, -1.000000000000000000 ) ) ;
#68 = ORIENTED_EDGE ( 'NONE', *, *, #104, .F. ) ;
#69 = AXIS2_PLACEMENT_3D ( 'NONE', #22, #243, #6 ) ;
#70 = VERTEX_POINT ( 'NONE', #44 ) ;
#71 = CARTESIAN_POINT ( 'NONE',  ( 0.000000000000000000, 0.000000000000000000, 1.496062999999999921 ) ) ;
#72 = EDGE_LOOP ( 'NONE', ( #106, #260, #297, #14 ) ) ;
#73 = EDGE_CURVE ( 'NONE', #118, #202, #204, .T. ) ;
#74 = ORIENTED_EDGE ( 'NONE', *, *, #73, .T. ) ;
#75 = DIRECTION ( 'NONE',  ( 0.000000000000000000, 0.000000000000000000, 1.000000000000000000 ) ) ;
#76 = ADVANCED_FACE ( 'NONE', ( #103 ), #225, .F. ) ;
#77 = DIRECTION ( 'NONE',  ( -1.224646799147353207E-16, -0.000000000000000000, -1.000000000000000000 ) ) ;
#78 = DIMENSIONAL_EXPONENTS ( 1.000000000000000000, 0.000000000000000000, 0.000000000000000000, 0.000000000000000000, 0.000000000000000000, 0.000000000000000000, 0.000000000000000000 ) ;
#79 = CARTESIAN_POINT ( 'NONE',  ( 0.05905500000000007271, 7.232151672364703126E-18, 0.5908859175478576864 ) ) ;
#80 = PRESENTATION_LAYER_ASSIGNMENT (  '', '', ( #270 ) ) ;
#81 = CARTESIAN_POINT ( 'NONE',  ( 0.000000000000000000, 0.000000000000000000, 0.000000000000000000 ) ) ;
#82 = PRODUCT_DEFINITION_SHAPE ( 'NONE', 'NONE',  #38 ) ;
#83 = VERTEX_POINT ( 'NONE', #52 ) ;
#84 = APPLICATION_PROTOCOL_DEFINITION ( 'draft international standard', 'automotive_design', 1998, #135 ) ;
#85 = MECHANICAL_DESIGN_GEOMETRIC_PRESENTATION_REPRESENTATION (  '', ( #90 ), #205 ) ;
#86 = COLOUR_RGB ( '',0.7921568627450980005, 0.8196078431372548767, 0.9333333333333333481 ) ;
#87 = VERTEX_POINT ( 'NONE', #153 ) ;
#88 = EDGE_CURVE ( 'NONE', #202, #200, #120, .T. ) ;
#89 = CARTESIAN_POINT ( 'NONE',  ( 0.000000000000000000, 0.000000000000000000, 1.481062999999999574 ) ) ;
#90 = STYLED_ITEM ( 'NONE', ( #195 ), #163 ) ;
#91 = CIRCLE ( 'NONE', #223, 0.05899594499999998715 ) ;
#92 = CARTESIAN_POINT ( 'NONE',  ( -0.05899594499999998715, 0.000000000000000000, 7.224919520692328148E-18 ) ) ;
#93 = ADVANCED_FACE ( 'NONE', ( #142 ), #285, .T. ) ;
#94 = ORIENTED_EDGE ( 'NONE', *, *, #185, .T. ) ;
#95 = EDGE_LOOP ( 'NONE', ( #4, #136 ) ) ;
#96 = DIRECTION ( 'NONE',  ( -1.224646799147353207E-16, -0.000000000000000000, -1.000000000000000000 ) ) ;
#97 = CARTESIAN_POINT ( 'NONE',  ( -0.05905500000000000332, 0.000000000000000000, 1.496062999999999921 ) ) ;
#98 = SURFACE_SIDE_STYLE ('',( #219 ) ) ;
#99 = ORIENTED_EDGE ( 'NONE', *, *, #134, .F. ) ;
#100 = AXIS2_PLACEMENT_3D ( 'NONE', #123, #125, #47 ) ;
#101 = MECHANICAL_DESIGN_GEOMETRIC_PRESENTATION_REPRESENTATION (  '', ( #270 ), #198 ) ;
#102 = UNCERTAINTY_MEASURE_WITH_UNIT (LENGTH_MEASURE( 1.000000000000000082E-05 ), #280, 'distance_accuracy_value', 'NONE');
#103 = FACE_OUTER_BOUND ( 'NONE', #66, .T. ) ;
#104 = EDGE_CURVE ( 'NONE', #118, #192, #183, .T. ) ;
#105 = CYLINDRICAL_SURFACE ( 'NONE', #12, 0.05899594499999998715 ) ;
#106 = ORIENTED_EDGE ( 'NONE', *, *, #134, .T. ) ;
#107 = ORIENTED_EDGE ( 'NONE', *, *, #178, .F. ) ;
#108 = CARTESIAN_POINT ( 'NONE',  ( 0.05905500000000000332, 7.232151672364695422E-18, 1.496062999999999921 ) ) ;
#109 = CIRCLE ( 'NONE', #278, 0.05905500000000000332 ) ;
#110 = CARTESIAN_POINT ( 'NONE',  ( -0.05899594499999991776, 7.228535596528511785E-18, 0.5905510000000000481 ) ) ;
#111 = CARTESIAN_POINT ( 'NONE',  ( 0.04405499999999973326, 6.313666573004162521E-18, 1.496062999999999921 ) ) ;
#112 = SURFACE_STYLE_USAGE ( .BOTH. , #36 ) ;
#113 = ADVANCED_FACE ( 'NONE', ( #116 ), #210, .T. ) ;
#114 = EDGE_LOOP ( 'NONE', ( #288, #68, #74, #107 ) ) ;
#115 = AXIS2_PLACEMENT_3D ( 'NONE', #71, #41, #221 ) ;
#116 = FACE_OUTER_BOUND ( 'NONE', #40, .T. ) ;
#117 = UNCERTAINTY_MEASURE_WITH_UNIT (LENGTH_MEASURE( 1.000000000000000082E-05 ), #46, 'distance_accuracy_value', 'NONE');
#118 = VERTEX_POINT ( 'NONE', #264 ) ;
#119 = DIRECTION ( 'NONE',  ( -1.224646799147353207E-16, -0.000000000000000000, -1.000000000000000000 ) ) ;
#120 = LINE ( 'NONE', #97, #262 ) ;
#121 = ORIENTED_EDGE ( 'NONE', *, *, #124, .T. ) ;
#122 = FILL_AREA_STYLE ('',( #18 ) ) ;
#123 = CARTESIAN_POINT ( 'NONE',  ( 0.000000000000000000, 0.000000000000000000, 1.496062999999999921 ) ) ;
#124 = EDGE_CURVE ( 'NONE', #237, #83, #166, .T. ) ;
#125 = DIRECTION ( 'NONE',  ( 0.000000000000000000, 0.000000000000000000, -1.000000000000000000 ) ) ;
#126 = CONICAL_SURFACE ( 'NONE', #291, 0.04405499999999973326, 0.7853981633974491672 ) ;
#127 = CARTESIAN_POINT ( 'NONE',  ( -0.04405499999999973326, 0.000000000000000000, 1.496062999999999921 ) ) ;
#128 = FACE_OUTER_BOUND ( 'NONE', #16, .T. ) ;
#129 = FACE_OUTER_BOUND ( 'NONE', #141, .T. ) ;
#130 = EDGE_CURVE ( 'NONE', #200, #194, #229, .T. ) ;
#131 = DIRECTION ( 'NONE',  ( 0.000000000000000000, 0.000000000000000000, 1.000000000000000000 ) ) ;
#132 = CIRCLE ( 'NONE', #295, 0.05899594499999999409 ) ;
#133 = LINE ( 'NONE', #108, #247 ) ;
#134 = EDGE_CURVE ( 'NONE', #202, #253, #49, .T. ) ;
#135 = APPLICATION_CONTEXT ( 'automotive_design' ) ;
#136 = ORIENTED_EDGE ( 'NONE', *, *, #147, .T. ) ;
#137 = SURFACE_STYLE_FILL_AREA ( #213 ) ;
#138 =( NAMED_UNIT ( * ) SI_UNIT ( $, .STERADIAN. ) SOLID_ANGLE_UNIT ( ) );
#139 = ORIENTED_EDGE ( 'NONE', *, *, #65, .T. ) ;
#140 = VECTOR ( 'NONE', #64, 39.37007874015748143 ) ;
#141 = EDGE_LOOP ( 'NONE', ( #234, #212, #162, #269 ) ) ;
#142 = FACE_OUTER_BOUND ( 'NONE', #179, .T. ) ;
#143 = ORIENTED_EDGE ( 'NONE', *, *, #147, .F. ) ;
#144 = ORIENTED_EDGE ( 'NONE', *, *, #61, .F. ) ;
#145 = PRODUCT_DEFINITION_CONTEXT ( 'detailed design', #31, 'design' ) ;
#146 = ORIENTED_EDGE ( 'NONE', *, *, #178, .T. ) ;
#147 = EDGE_CURVE ( 'NONE', #192, #118, #232, .T. ) ;
#148 = FACE_OUTER_BOUND ( 'NONE', #114, .T. ) ;
#149 = DIRECTION ( 'NONE',  ( -1.000000000000000000, 0.000000000000000000, 0.000000000000000000 ) ) ;
#150 = CARTESIAN_POINT ( 'NONE',  ( -0.05899594499999991776, 7.224919520692328148E-18, 0.5905510000000000481 ) ) ;
#151 = CARTESIAN_POINT ( 'NONE',  ( -0.05905499999999993394, 0.000000000000000000, 0.5908859175478576864 ) ) ;
#152 = CARTESIAN_POINT ( 'NONE',  ( 0.05899594500000005654, 0.000000000000000000, 0.5905510000000000481 ) ) ;
#153 = CARTESIAN_POINT ( 'NONE',  ( 0.05899594500000000796, 7.224919520692329689E-18, 0.000000000000000000 ) ) ;
#154 = UNCERTAINTY_MEASURE_WITH_UNIT (LENGTH_MEASURE( 1.000000000000000082E-05 ), #60, 'distance_accuracy_value', 'NONE');
#155 = FACE_OUTER_BOUND ( 'NONE', #283, .T. ) ;
#156 = AXIS2_PLACEMENT_3D ( 'NONE', #203, #180, #289 ) ;
#157 = DIRECTION ( 'NONE',  ( -0.000000000000000000, -0.000000000000000000, -1.000000000000000000 ) ) ;
#158 = PRESENTATION_STYLE_ASSIGNMENT (( #112 ) ) ;
#159 = CIRCLE ( 'NONE', #189, 0.05899594499999999409 ) ;
#160 = EDGE_CURVE ( 'NONE', #70, #87, #42, .T. ) ;
#161 = SHAPE_DEFINITION_REPRESENTATION ( #82, #25 ) ;
#162 = ORIENTED_EDGE ( 'NONE', *, *, #130, .T. ) ;
#163 = MANIFOLD_SOLID_BREP ( 'Cut-Revolve1', #187 ) ;
#164 =( NAMED_UNIT ( * ) PLANE_ANGLE_UNIT ( ) SI_UNIT ( $, .RADIAN. ) );
#165 = ORIENTED_EDGE ( 'NONE', *, *, #256, .F. ) ;
#166 = LINE ( 'NONE', #92, #236 ) ;
#167 = ORIENTED_EDGE ( 'NONE', *, *, #9, .T. ) ;
#168 = DIRECTION ( 'NONE',  ( 1.000000000000000000, 0.000000000000000000, 0.000000000000000000 ) ) ;
#169 = ORIENTED_EDGE ( 'NONE', *, *, #256, .T. ) ;
#170 = CIRCLE ( 'NONE', #28, 0.05905500000000000332 ) ;
#171 = SURFACE_STYLE_USAGE ( .BOTH. , #98 ) ;
#172 = LINE ( 'NONE', #152, #215 ) ;
#173 = DIRECTION ( 'NONE',  ( -0.000000000000000000, -0.000000000000000000, -1.000000000000000000 ) ) ;
#174 = ORIENTED_EDGE ( 'NONE', *, *, #160, .F. ) ;
#175 = CARTESIAN_POINT ( 'NONE',  ( 0.000000000000000000, 0.000000000000000000, 1.496062999999999921 ) ) ;
#176 = CYLINDRICAL_SURFACE ( 'NONE', #216, 0.05899594499999998715 ) ;
#177 = DIRECTION ( 'NONE',  ( 0.000000000000000000, 0.000000000000000000, -1.000000000000000000 ) ) ;
#178 = EDGE_CURVE ( 'NONE', #253, #202, #109, .T. ) ;
#179 = EDGE_LOOP ( 'NONE', ( #39, #146, #220, #257 ) ) ;
#180 = DIRECTION ( 'NONE',  ( -1.224646799147353207E-16, -0.000000000000000000, -1.000000000000000000 ) ) ;
#181 = ADVANCED_FACE ( 'NONE', ( #58 ), #201, .T. ) ;
#182 = DIRECTION ( 'NONE',  ( -1.224646799147353207E-16, -0.000000000000000000, -1.000000000000000000 ) ) ;
#183 = CIRCLE ( 'NONE', #115, 0.04405499999999973326 ) ;
#184 = APPLICATION_PROTOCOL_DEFINITION ( 'draft international standard', 'automotive_design', 1998, #31 ) ;
#185 = EDGE_CURVE ( 'NONE', #87, #83, #132, .T. ) ;
#186 = LENGTH_MEASURE_WITH_UNIT ( LENGTH_MEASURE( 0.02539999999999999897 ), #231 );
#187 = CLOSED_SHELL ( 'NONE', ( #30, #54, #238, #181, #93, #272, #32, #113, #233, #76 ) ) ;
#188 =( NAMED_UNIT ( * ) SI_UNIT ( $, .STERADIAN. ) SOLID_ANGLE_UNIT ( ) );
#189 = AXIS2_PLACEMENT_3D ( 'NONE', #227, #222, #3 ) ;
#190 = CARTESIAN_POINT ( 'NONE',  ( 0.000000000000000000, 0.000000000000000000, 1.496062999999999921 ) ) ;
#191 = EDGE_LOOP ( 'NONE', ( #255, #218, #286, #50 ) ) ;
#192 = VERTEX_POINT ( 'NONE', #111 ) ;
#193 = CARTESIAN_POINT ( 'NONE',  ( 0.000000000000000000, 0.000000000000000000, 1.496062999999999921 ) ) ;
#194 = VERTEX_POINT ( 'NONE', #79 ) ;
#195 = PRESENTATION_STYLE_ASSIGNMENT (( #171 ) ) ;
#196 = ORIENTED_EDGE ( 'NONE', *, *, #185, .F. ) ;
#197 = CIRCLE ( 'NONE', #156, 0.05899594499999998715 ) ;
#198 =( GEOMETRIC_REPRESENTATION_CONTEXT ( 3 ) GLOBAL_UNCERTAINTY_ASSIGNED_CONTEXT ( ( #154 ) ) GLOBAL_UNIT_ASSIGNED_CONTEXT ( ( #60, #34, #188 ) ) REPRESENTATION_CONTEXT ( 'NONE', 'WORKASPACE' ) );
#199 = LENGTH_MEASURE_WITH_UNIT ( LENGTH_MEASURE( 0.02539999999999999897 ), #21 );
#200 = VERTEX_POINT ( 'NONE', #151 ) ;
#201 = CYLINDRICAL_SURFACE ( 'NONE', #8, 0.05905500000000000332 ) ;
#202 = VERTEX_POINT ( 'NONE', #206 ) ;
#203 = CARTESIAN_POINT ( 'NONE',  ( 7.232163918832686227E-17, 0.000000000000000000, 0.5905510000000000481 ) ) ;
#204 = LINE ( 'NONE', #127, #57 ) ;
#205 =( GEOMETRIC_REPRESENTATION_CONTEXT ( 3 ) GLOBAL_UNCERTAINTY_ASSIGNED_CONTEXT ( ( #117 ) ) GLOBAL_UNIT_ASSIGNED_CONTEXT ( ( #46, #164, #274 ) ) REPRESENTATION_CONTEXT ( 'NONE', 'WORKASPACE' ) );
#206 = CARTESIAN_POINT ( 'NONE',  ( -0.05905500000000000332, 0.000000000000000000, 1.481062999999999574 ) ) ;
#207 = DIRECTION ( 'NONE',  ( -1.000000000000000000, 0.000000000000000000, 0.000000000000000000 ) ) ;
#208 = PRODUCT ( 'Micro_EMSM-030-2', 'Micro_EMSM-030-2', '', ( #209 ) ) ;
#209 = PRODUCT_CONTEXT ( 'NONE', #135, 'mechanical' ) ;
#210 = CONICAL_SURFACE ( 'NONE', #239, 0.05899594499999998715, 0.1745329251994339748 ) ;
#211 = AXIS2_PLACEMENT_3D ( 'NONE', #81, #258, #277 ) ;
#212 = ORIENTED_EDGE ( 'NONE', *, *, #61, .T. ) ;
#213 = FILL_AREA_STYLE ('',( #276 ) ) ;
#214 =( LENGTH_UNIT ( ) NAMED_UNIT ( * ) SI_UNIT ( $, .METRE. ) );
#215 = VECTOR ( 'NONE', #265, 39.37007874015748143 ) ;
#216 = AXIS2_PLACEMENT_3D ( 'NONE', #248, #45, #24 ) ;
#217 = CARTESIAN_POINT ( 'NONE',  ( 7.236265475862306734E-17, 0.000000000000000000, 0.5908859175478576864 ) ) ;
#218 = ORIENTED_EDGE ( 'NONE', *, *, #160, .T. ) ;
#219 = SURFACE_STYLE_FILL_AREA ( #122 ) ;
#220 = ORIENTED_EDGE ( 'NONE', *, *, #88, .T. ) ;
#221 = DIRECTION ( 'NONE',  ( 1.000000000000000000, 0.000000000000000000, 0.000000000000000000 ) ) ;
#222 = DIRECTION ( 'NONE',  ( -1.224646799147353207E-16, -0.000000000000000000, -1.000000000000000000 ) ) ;
#223 = AXIS2_PLACEMENT_3D ( 'NONE', #29, #182, #228 ) ;
#224 = CARTESIAN_POINT ( 'NONE',  ( 7.232163918832686227E-17, 0.000000000000000000, 0.5905510000000000481 ) ) ;
#225 = PLANE ( 'NONE',  #43 ) ;
#226 = DIRECTION ( 'NONE',  ( -1.000000000000000000, 0.000000000000000000, 1.224646799147353207E-16 ) ) ;
#227 = CARTESIAN_POINT ( 'NONE',  ( 8.847974565113090185E-34, 0.000000000000000000, 7.224919520692329689E-18 ) ) ;
#228 = DIRECTION ( 'NONE',  ( -1.000000000000000000, 0.000000000000000000, 0.000000000000000000 ) ) ;
#229 = CIRCLE ( 'NONE', #254, 0.05905500000000000332 ) ;
#230 = EDGE_CURVE ( 'NONE', #194, #200, #170, .T. ) ;
#231 =( LENGTH_UNIT ( ) NAMED_UNIT ( * ) SI_UNIT ( $, .METRE. ) );
#232 = CIRCLE ( 'NONE', #235, 0.04405499999999973326 ) ;
#233 = ADVANCED_FACE ( 'NONE', ( #128 ), #105, .T. ) ;
#234 = ORIENTED_EDGE ( 'NONE', *, *, #279, .F. ) ;
#235 = AXIS2_PLACEMENT_3D ( 'NONE', #190, #261, #240 ) ;
#236 = VECTOR ( 'NONE', #119, 39.37007874015748143 ) ;
#237 = VERTEX_POINT ( 'NONE', #110 ) ;
#238 = ADVANCED_FACE ( 'NONE', ( #155 ), #126, .T. ) ;
#239 = AXIS2_PLACEMENT_3D ( 'NONE', #224, #15, #296 ) ;
#240 = DIRECTION ( 'NONE',  ( 1.000000000000000000, 0.000000000000000000, 0.000000000000000000 ) ) ;
#241 = CARTESIAN_POINT ( 'NONE',  ( 0.04405499999999973326, 5.395181473643630390E-18, 1.496062999999999921 ) ) ;
#242 = DIMENSIONAL_EXPONENTS ( 1.000000000000000000, 0.000000000000000000, 0.000000000000000000, 0.000000000000000000, 0.000000000000000000, 0.000000000000000000, 0.000000000000000000 ) ;
#243 = DIRECTION ( 'NONE',  ( 1.224646799147353207E-16, 0.000000000000000000, 1.000000000000000000 ) ) ;
#244 = DIRECTION ( 'NONE',  ( 1.000000000000000000, 0.000000000000000000, 0.000000000000000000 ) ) ;
#245 = COLOUR_RGB ( '',0.7921568627450980005, 0.8196078431372548767, 0.9333333333333333481 ) ;
#246 = ORIENTED_EDGE ( 'NONE', *, *, #1, .T. ) ;
#247 = VECTOR ( 'NONE', #157, 39.37007874015748143 ) ;
#248 = CARTESIAN_POINT ( 'NONE',  ( 0.000000000000000000, 0.000000000000000000, 0.000000000000000000 ) ) ;
#249 = PLANE ( 'NONE',  #33 ) ;
#250 = CARTESIAN_POINT ( 'NONE',  ( 8.847974565113090185E-34, 0.000000000000000000, 7.224919520692329689E-18 ) ) ;
#251 = DIRECTION ( 'NONE',  ( 1.000000000000000000, 0.000000000000000000, -0.000000000000000000 ) ) ;
#252 =( GEOMETRIC_REPRESENTATION_CONTEXT ( 3 ) GLOBAL_UNCERTAINTY_ASSIGNED_CONTEXT ( ( #102 ) ) GLOBAL_UNIT_ASSIGNED_CONTEXT ( ( #280, #10, #138 ) ) REPRESENTATION_CONTEXT ( 'NONE', 'WORKASPACE' ) );
#253 = VERTEX_POINT ( 'NONE', #5 ) ;
#254 = AXIS2_PLACEMENT_3D ( 'NONE', #217, #96, #244 ) ;
#255 = ORIENTED_EDGE ( 'NONE', *, *, #279, .T. ) ;
#256 = EDGE_CURVE ( 'NONE', #70, #237, #197, .T. ) ;
#257 = ORIENTED_EDGE ( 'NONE', *, *, #230, .F. ) ;
#258 = DIRECTION ( 'NONE',  ( 0.000000000000000000, 0.000000000000000000, 1.000000000000000000 ) ) ;
#259 = VECTOR ( 'NONE', #263, 39.37007874015748143 ) ;
#260 = ORIENTED_EDGE ( 'NONE', *, *, #294, .T. ) ;
#261 = DIRECTION ( 'NONE',  ( 0.000000000000000000, 0.000000000000000000, 1.000000000000000000 ) ) ;
#262 = VECTOR ( 'NONE', #173, 39.37007874015748143 ) ;
#263 = DIRECTION ( 'NONE',  ( -0.1736481776669312471, 2.126576849575783933E-17, 0.9848077530122077983 ) ) ;
#264 = CARTESIAN_POINT ( 'NONE',  ( -0.04405499999999973326, 0.000000000000000000, 1.496062999999999921 ) ) ;
#265 = DIRECTION ( 'NONE',  ( 0.1736481776669314692, 0.000000000000000000, 0.9848077530122077983 ) ) ;
#266 = LINE ( 'NONE', #241, #56 ) ;
#267 = DIRECTION ( 'NONE',  ( 1.000000000000000000, 0.000000000000000000, 0.000000000000000000 ) ) ;
#268 = PRESENTATION_LAYER_ASSIGNMENT (  '', '', ( #90 ) ) ;
#269 = ORIENTED_EDGE ( 'NONE', *, *, #1, .F. ) ;
#270 = STYLED_ITEM ( 'NONE', ( #158 ), #25 ) ;
#271 = DIRECTION ( 'NONE',  ( -1.000000000000000000, 0.000000000000000000, 0.000000000000000000 ) ) ;
#272 = ADVANCED_FACE ( 'NONE', ( #7 ), #249, .T. ) ;
#273 = DIRECTION ( 'NONE',  ( 1.000000000000000000, 0.000000000000000000, -0.000000000000000000 ) ) ;
#274 =( NAMED_UNIT ( * ) SI_UNIT ( $, .STERADIAN. ) SOLID_ANGLE_UNIT ( ) );
#275 = DIRECTION ( 'NONE',  ( 0.000000000000000000, 0.000000000000000000, -1.000000000000000000 ) ) ;
#276 = FILL_AREA_STYLE_COLOUR ( '', #86 ) ;
#277 = DIRECTION ( 'NONE',  ( 1.000000000000000000, 0.000000000000000000, 0.000000000000000000 ) ) ;
#278 = AXIS2_PLACEMENT_3D ( 'NONE', #89, #275, #267 ) ;
#279 = EDGE_CURVE ( 'NONE', #237, #70, #91, .T. ) ;
#280 =( CONVERSION_BASED_UNIT ( 'INCH', #186 ) LENGTH_UNIT ( ) NAMED_UNIT ( #53 ) );
#281 = CONICAL_SURFACE ( 'NONE', #100, 0.04405499999999973326, 0.7853981633974491672 ) ;
#282 = CARTESIAN_POINT ( 'NONE',  ( 0.05899594499999998715, 7.224919520692328148E-18, -7.224919520692328148E-18 ) ) ;
#283 = EDGE_LOOP ( 'NONE', ( #143, #167, #99, #17 ) ) ;
#284 = ORIENTED_EDGE ( 'NONE', *, *, #230, .T. ) ;
#285 = CYLINDRICAL_SURFACE ( 'NONE', #59, 0.05905500000000000332 ) ;
#286 = ORIENTED_EDGE ( 'NONE', *, *, #65, .F. ) ;
#287 = DIRECTION ( 'NONE',  ( -1.224646799147353207E-16, -0.000000000000000000, -1.000000000000000000 ) ) ;
#288 = ORIENTED_EDGE ( 'NONE', *, *, #9, .F. ) ;
#289 = DIRECTION ( 'NONE',  ( -1.000000000000000000, 0.000000000000000000, 0.000000000000000000 ) ) ;
#290 = CARTESIAN_POINT ( 'NONE',  ( 0.000000000000000000, 0.000000000000000000, 0.000000000000000000 ) ) ;
#291 = AXIS2_PLACEMENT_3D ( 'NONE', #292, #177, #207 ) ;
#292 = CARTESIAN_POINT ( 'NONE',  ( 0.000000000000000000, 0.000000000000000000, 1.496062999999999921 ) ) ;
#293 = DIRECTION ( 'NONE',  ( -0.000000000000000000, -0.000000000000000000, -1.000000000000000000 ) ) ;
#294 = EDGE_CURVE ( 'NONE', #253, #194, #133, .T. ) ;
#295 = AXIS2_PLACEMENT_3D ( 'NONE', #250, #287, #48 ) ;
#296 = DIRECTION ( 'NONE',  ( 1.000000000000000000, 0.000000000000000000, 0.000000000000000000 ) ) ;
#297 = ORIENTED_EDGE ( 'NONE', *, *, #130, .F. ) ;
#298 = FACE_OUTER_BOUND ( 'NONE', #191, .T. ) ;
#299 = CARTESIAN_POINT ( 'NONE',  ( 0.000000000000000000, 0.000000000000000000, 1.481062999999999574 ) ) ;
ENDSEC;
END-ISO-10303-21;
