ISO-10303-21;
HEADER;
FILE_DESCRIPTION (( 'STEP AP214' ),
    '1' );
FILE_NAME ('48335.STEP',
    '2023-06-22T21:25:24',
    ( '' ),
    ( '' ),
    'SwSTEP 2.0',
    'SolidWorks 2023',
    '' );
FILE_SCHEMA (( 'AUTOMOTIVE_DESIGN' ));
ENDSEC;

DATA;
#1 = EDGE_CURVE ( 'NONE', #148, #115, #107, .T. ) ;
#2 = DIRECTION ( 'NONE',  ( 0.000000000000000000, 0.000000000000000000, -1.000000000000000000 ) ) ;
#3 = EDGE_CURVE ( 'NONE', #256, #56, #292, .T. ) ;
#4 =( CONVERSION_BASED_UNIT ( 'INCH', #272 ) LENGTH_UNIT ( ) NAMED_UNIT ( #243 ) );
#5 =( LENGTH_UNIT ( ) NAMED_UNIT ( * ) SI_UNIT ( $, .METRE. ) );
#6 = CLOSED_SHELL ( 'NONE', ( #250, #232, #64, #190 ) ) ;
#7 = PRESENTATION_LAYER_ASSIGNMENT (  '', '', ( #133 ) ) ;
#8 = SURFACE_SIDE_STYLE ('',( #298 ) ) ;
#9 = DIRECTION ( 'NONE',  ( -6.531449595452550356E-17, -1.000000000000000000, 0.000000000000000000 ) ) ;
#10 = PRESENTATION_LAYER_ASSIGNMENT (  '', '', ( #160 ) ) ;
#11 = LENGTH_MEASURE_WITH_UNIT ( LENGTH_MEASURE( 0.02539999999999999897 ), #278 );
#12 = FILL_AREA_STYLE_COLOUR ( '', #228 ) ;
#13 = MECHANICAL_DESIGN_GEOMETRIC_PRESENTATION_REPRESENTATION (  '', ( #186 ), #199 ) ;
#14 = EDGE_CURVE ( 'NONE', #148, #210, #305, .T. ) ;
#15 = CARTESIAN_POINT ( 'NONE',  ( 1.224646799147353207E-16, 2.500000000000000000, 0.000000000000000000 ) ) ;
#16 = FILL_AREA_STYLE ('',( #12 ) ) ;
#17 = DIRECTION ( 'NONE',  ( -1.000000000000000000, 0.000000000000000000, 0.000000000000000000 ) ) ;
#18 = LINE ( 'NONE', #111, #95 ) ;
#19 = AXIS2_PLACEMENT_3D ( 'NONE', #196, #295, #170 ) ;
#20 = CARTESIAN_POINT ( 'NONE',  ( 0.000000000000000000, 0.6250000000000000000, 0.000000000000000000 ) ) ;
#21 = FACE_OUTER_BOUND ( 'NONE', #209, .T. ) ;
#22 =( CONVERSION_BASED_UNIT ( 'INCH', #214 ) LENGTH_UNIT ( ) NAMED_UNIT ( #265 ) );
#23 = DIRECTION ( 'NONE',  ( 6.531449595452550356E-17, 1.000000000000000000, -0.000000000000000000 ) ) ;
#24 = FACE_OUTER_BOUND ( 'NONE', #261, .T. ) ;
#25 =( NAMED_UNIT ( * ) PLANE_ANGLE_UNIT ( ) SI_UNIT ( $, .RADIAN. ) );
#26 = SURFACE_SIDE_STYLE ('',( #263 ) ) ;
#27 = EDGE_CURVE ( 'NONE', #115, #223, #67, .T. ) ;
#28 = DIRECTION ( 'NONE',  ( -0.000000000000000000, -1.000000000000000000, -0.000000000000000000 ) ) ;
#29 = DIRECTION ( 'NONE',  ( 0.000000000000000000, -1.000000000000000000, -0.000000000000000000 ) ) ;
#30 = SURFACE_STYLE_USAGE ( .BOTH. , #26 ) ;
#31 = MECHANICAL_DESIGN_GEOMETRIC_PRESENTATION_REPRESENTATION (  '', ( #87 ), #208 ) ;
#32 = SURFACE_STYLE_FILL_AREA ( #57 ) ;
#33 = DIRECTION ( 'NONE',  ( 0.000000000000000000, 0.000000000000000000, -1.000000000000000000 ) ) ;
#34 = FACE_OUTER_BOUND ( 'NONE', #273, .T. ) ;
#35 = AXIS2_PLACEMENT_3D ( 'NONE', #254, #41, #33 ) ;
#36 = SURFACE_SIDE_STYLE ('',( #289 ) ) ;
#37 =( GEOMETRIC_REPRESENTATION_CONTEXT ( 3 ) GLOBAL_UNCERTAINTY_ASSIGNED_CONTEXT ( ( #309 ) ) GLOBAL_UNIT_ASSIGNED_CONTEXT ( ( #4, #74, #51 ) ) REPRESENTATION_CONTEXT ( 'NONE', 'WORKASPACE' ) );
#38 = PRODUCT_DEFINITION_SHAPE ( 'NONE', 'NONE',  #176 ) ;
#39 = DIRECTION ( 'NONE',  ( -0.000000000000000000, -1.000000000000000000, -0.000000000000000000 ) ) ;
#40 = FACE_OUTER_BOUND ( 'NONE', #90, .T. ) ;
#41 = DIRECTION ( 'NONE',  ( -0.000000000000000000, -1.000000000000000000, -0.000000000000000000 ) ) ;
#42 = DIRECTION ( 'NONE',  ( 6.531449595452550356E-17, 1.000000000000000000, -0.000000000000000000 ) ) ;
#43 =( LENGTH_UNIT ( ) NAMED_UNIT ( * ) SI_UNIT ( $, .METRE. ) );
#44 = CLOSED_SHELL ( 'NONE', ( #110, #145, #165, #72 ) ) ;
#45 = CIRCLE ( 'NONE', #282, 0.2499999999999998335 ) ;
#46 = CARTESIAN_POINT ( 'NONE',  ( 0.000000000000000000, 0.000000000000000000, -0.2500000000000000000 ) ) ;
#47 = AXIS2_PLACEMENT_3D ( 'NONE', #91, #59, #134 ) ;
#48 = DIRECTION ( 'NONE',  ( 6.531449595452550356E-17, 1.000000000000000000, -0.000000000000000000 ) ) ;
#49 = PRESENTATION_STYLE_ASSIGNMENT (( #30 ) ) ;
#50 = CARTESIAN_POINT ( 'NONE',  ( 0.000000000000000000, 0.6250000000000000000, -0.2499999999999999722 ) ) ;
#51 =( NAMED_UNIT ( * ) SI_UNIT ( $, .STERADIAN. ) SOLID_ANGLE_UNIT ( ) );
#52 = FILL_AREA_STYLE_COLOUR ( '', #161 ) ;
#53 = ORIENTED_EDGE ( 'NONE', *, *, #54, .T. ) ;
#54 = EDGE_CURVE ( 'NONE', #256, #140, #18, .T. ) ;
#55 = CARTESIAN_POINT ( 'NONE',  ( 0.000000000000000000, 0.000000000000000000, 0.000000000000000000 ) ) ;
#56 = VERTEX_POINT ( 'NONE', #286 ) ;
#57 = FILL_AREA_STYLE ('',( #153 ) ) ;
#58 = ORIENTED_EDGE ( 'NONE', *, *, #80, .F. ) ;
#59 = DIRECTION ( 'NONE',  ( 0.000000000000000000, 0.000000000000000000, 1.000000000000000000 ) ) ;
#60 = COLOUR_RGB ( '',0.7921568627450980005, 0.8196078431372548767, 0.9333333333333333481 ) ;
#61 = ORIENTED_EDGE ( 'NONE', *, *, #1, .T. ) ;
#62 = PRESENTATION_STYLE_ASSIGNMENT (( #88 ) ) ;
#63 = ORIENTED_EDGE ( 'NONE', *, *, #14, .T. ) ;
#64 = ADVANCED_FACE ( 'NONE', ( #120 ), #240, .T. ) ;
#65 =( NAMED_UNIT ( * ) SI_UNIT ( $, .STERADIAN. ) SOLID_ANGLE_UNIT ( ) );
#66 = PRESENTATION_LAYER_ASSIGNMENT (  '', '', ( #207 ) ) ;
#67 = LINE ( 'NONE', #252, #222 ) ;
#68 = DIRECTION ( 'NONE',  ( -1.000000000000000000, 0.000000000000000000, 0.000000000000000000 ) ) ;
#69 = UNCERTAINTY_MEASURE_WITH_UNIT (LENGTH_MEASURE( 1.000000000000000082E-05 ), #22, 'distance_accuracy_value', 'NONE');
#70 =( NAMED_UNIT ( * ) SI_UNIT ( $, .STERADIAN. ) SOLID_ANGLE_UNIT ( ) );
#71 = CIRCLE ( 'NONE', #92, 0.2499999999999999722 ) ;
#72 = ADVANCED_FACE ( 'NONE', ( #121 ), #142, .F. ) ;
#73 = DIRECTION ( 'NONE',  ( -1.000000000000000000, 0.000000000000000000, 0.000000000000000000 ) ) ;
#74 =( NAMED_UNIT ( * ) PLANE_ANGLE_UNIT ( ) SI_UNIT ( $, .RADIAN. ) );
#75 = MECHANICAL_DESIGN_GEOMETRIC_PRESENTATION_REPRESENTATION (  '', ( #160 ), #155 ) ;
#76 = AXIS2_PLACEMENT_3D ( 'NONE', #172, #197, #271 ) ;
#77 = CYLINDRICAL_SURFACE ( 'NONE', #76, 0.2499999999999998890 ) ;
#78 = UNCERTAINTY_MEASURE_WITH_UNIT (LENGTH_MEASURE( 1.000000000000000082E-05 ), #185, 'distance_accuracy_value', 'NONE');
#79 = DIRECTION ( 'NONE',  ( 0.000000000000000000, 0.000000000000000000, -1.000000000000000000 ) ) ;
#80 = EDGE_CURVE ( 'NONE', #56, #256, #71, .T. ) ;
#81 =( NAMED_UNIT ( * ) PLANE_ANGLE_UNIT ( ) SI_UNIT ( $, .RADIAN. ) );
#82 = EDGE_LOOP ( 'NONE', ( #264, #276 ) ) ;
#83 =( LENGTH_UNIT ( ) NAMED_UNIT ( * ) SI_UNIT ( $, .METRE. ) );
#84 = AXIS2_PLACEMENT_3D ( 'NONE', #173, #108, #118 ) ;
#85 = PLANE ( 'NONE',  #84 ) ;
#86 = APPLICATION_PROTOCOL_DEFINITION ( 'draft international standard', 'automotive_design', 1998, #230 ) ;
#87 = STYLED_ITEM ( 'NONE', ( #255 ), #250 ) ;
#88 = SURFACE_STYLE_USAGE ( .BOTH. , #302 ) ;
#89 = LINE ( 'NONE', #158, #102 ) ;
#90 = EDGE_LOOP ( 'NONE', ( #61, #188, #246, #301 ) ) ;
#91 = CARTESIAN_POINT ( 'NONE',  ( 0.000000000000000000, 0.000000000000000000, 0.000000000000000000 ) ) ;
#92 = AXIS2_PLACEMENT_3D ( 'NONE', #103, #296, #73 ) ;
#93 = CARTESIAN_POINT ( 'NONE',  ( 3.061616997868382402E-17, 0.6250000000000000000, 0.2499999999999999722 ) ) ;
#94 = ORIENTED_EDGE ( 'NONE', *, *, #80, .T. ) ;
#95 = VECTOR ( 'NONE', #211, 39.37007874015748143 ) ;
#96 = MANIFOLD_SOLID_BREP ( 'Revolve - Cutting Edge', #6 ) ;
#97 = AXIS2_PLACEMENT_3D ( 'NONE', #194, #48, #306 ) ;
#98 = CARTESIAN_POINT ( 'NONE',  ( 0.000000000000000000, 0.000000000000000000, 0.000000000000000000 ) ) ;
#99 = SURFACE_STYLE_USAGE ( .BOTH. , #8 ) ;
#100 = SURFACE_SIDE_STYLE ('',( #32 ) ) ;
#101 = VECTOR ( 'NONE', #283, 39.37007874015748143 ) ;
#102 = VECTOR ( 'NONE', #23, 39.37007874015748143 ) ;
#103 = CARTESIAN_POINT ( 'NONE',  ( 0.000000000000000000, 0.6250000000000000000, 0.000000000000000000 ) ) ;
#104 = SHAPE_DEFINITION_REPRESENTATION ( #38, #253 ) ;
#105 = SURFACE_STYLE_FILL_AREA ( #16 ) ;
#106 = EDGE_CURVE ( 'NONE', #56, #204, #89, .T. ) ;
#107 = CIRCLE ( 'NONE', #307, 0.2499999999999999722 ) ;
#108 = DIRECTION ( 'NONE',  ( 0.000000000000000000, 1.000000000000000000, 0.000000000000000000 ) ) ;
#109 = LENGTH_MEASURE_WITH_UNIT ( LENGTH_MEASURE( 0.02539999999999999897 ), #5 );
#110 = ADVANCED_FACE ( 'NONE', ( #198 ), #141, .T. ) ;
#111 = CARTESIAN_POINT ( 'NONE',  ( -0.2499999999999997502, 2.500000000000000000, 0.000000000000000000 ) ) ;
#112 =( LENGTH_UNIT ( ) NAMED_UNIT ( * ) SI_UNIT ( $, .METRE. ) );
#113 = CIRCLE ( 'NONE', #248, 0.2499999999999998335 ) ;
#114 = UNCERTAINTY_MEASURE_WITH_UNIT (LENGTH_MEASURE( 1.000000000000000082E-05 ), #168, 'distance_accuracy_value', 'NONE');
#115 = VERTEX_POINT ( 'NONE', #93 ) ;
#116 =( NAMED_UNIT ( * ) PLANE_ANGLE_UNIT ( ) SI_UNIT ( $, .RADIAN. ) );
#117 = PRODUCT_RELATED_PRODUCT_CATEGORY ( 'part', '', ( #277 ) ) ;
#118 = DIRECTION ( 'NONE',  ( 0.000000000000000000, -0.000000000000000000, 1.000000000000000000 ) ) ;
#119 = CIRCLE ( 'NONE', #178, 0.2500000000000000000 ) ;
#120 = FACE_OUTER_BOUND ( 'NONE', #162, .T. ) ;
#121 = FACE_OUTER_BOUND ( 'NONE', #82, .T. ) ;
#122 = ORIENTED_EDGE ( 'NONE', *, *, #3, .F. ) ;
#123 = EDGE_CURVE ( 'NONE', #115, #148, #233, .T. ) ;
#124 =( CONVERSION_BASED_UNIT ( 'INCH', #125 ) LENGTH_UNIT ( ) NAMED_UNIT ( #128 ) );
#125 = LENGTH_MEASURE_WITH_UNIT ( LENGTH_MEASURE( 0.02539999999999999897 ), #219 );
#126 = PRESENTATION_LAYER_ASSIGNMENT (  '', '', ( #87 ) ) ;
#127 = DIRECTION ( 'NONE',  ( 0.000000000000000000, 0.000000000000000000, -1.000000000000000000 ) ) ;
#128 = DIMENSIONAL_EXPONENTS ( 1.000000000000000000, 0.000000000000000000, 0.000000000000000000, 0.000000000000000000, 0.000000000000000000, 0.000000000000000000, 0.000000000000000000 ) ;
#129 = CARTESIAN_POINT ( 'NONE',  ( 3.061616997868383018E-17, 0.000000000000000000, 0.2500000000000000000 ) ) ;
#130 =( NAMED_UNIT ( * ) SI_UNIT ( $, .STERADIAN. ) SOLID_ANGLE_UNIT ( ) );
#131 = ORIENTED_EDGE ( 'NONE', *, *, #202, .F. ) ;
#132 = DIMENSIONAL_EXPONENTS ( 1.000000000000000000, 0.000000000000000000, 0.000000000000000000, 0.000000000000000000, 0.000000000000000000, 0.000000000000000000, 0.000000000000000000 ) ;
#133 = STYLED_ITEM ( 'NONE', ( #297 ), #205 ) ;
#134 = DIRECTION ( 'NONE',  ( 1.000000000000000000, 0.000000000000000000, 0.000000000000000000 ) ) ;
#135 = EDGE_CURVE ( 'NONE', #223, #210, #119, .T. ) ;
#136 = ORIENTED_EDGE ( 'NONE', *, *, #135, .F. ) ;
#137 = SURFACE_STYLE_USAGE ( .BOTH. , #36 ) ;
#138 = PRODUCT_CONTEXT ( 'NONE', #164, 'mechanical' ) ;
#139 = FACE_OUTER_BOUND ( 'NONE', #179, .T. ) ;
#140 = VERTEX_POINT ( 'NONE', #237 ) ;
#141 = CYLINDRICAL_SURFACE ( 'NONE', #97, 0.2499999999999998890 ) ;
#142 = PLANE ( 'NONE',  #275 ) ;
#143 = ORIENTED_EDGE ( 'NONE', *, *, #54, .F. ) ;
#144 = CARTESIAN_POINT ( 'NONE',  ( 1.224646799147353207E-16, 2.500000000000000000, 0.000000000000000000 ) ) ;
#145 = ADVANCED_FACE ( 'NONE', ( #24 ), #258, .F. ) ;
#146 =( GEOMETRIC_REPRESENTATION_CONTEXT ( 3 ) GLOBAL_UNCERTAINTY_ASSIGNED_CONTEXT ( ( #114 ) ) GLOBAL_UNIT_ASSIGNED_CONTEXT ( ( #168, #304, #65 ) ) REPRESENTATION_CONTEXT ( 'NONE', 'WORKASPACE' ) );
#147 = DIRECTION ( 'NONE',  ( -0.000000000000000000, -1.000000000000000000, -0.000000000000000000 ) ) ;
#148 = VERTEX_POINT ( 'NONE', #50 ) ;
#149 =( NAMED_UNIT ( * ) PLANE_ANGLE_UNIT ( ) SI_UNIT ( $, .RADIAN. ) );
#150 = FILL_AREA_STYLE ('',( #52 ) ) ;
#151 = DIMENSIONAL_EXPONENTS ( 1.000000000000000000, 0.000000000000000000, 0.000000000000000000, 0.000000000000000000, 0.000000000000000000, 0.000000000000000000, 0.000000000000000000 ) ;
#152 = AXIS2_PLACEMENT_3D ( 'NONE', #267, #169, #259 ) ;
#153 = FILL_AREA_STYLE_COLOUR ( '', #193 ) ;
#154 =( LENGTH_UNIT ( ) NAMED_UNIT ( * ) SI_UNIT ( $, .METRE. ) );
#155 =( GEOMETRIC_REPRESENTATION_CONTEXT ( 3 ) GLOBAL_UNCERTAINTY_ASSIGNED_CONTEXT ( ( #238 ) ) GLOBAL_UNIT_ASSIGNED_CONTEXT ( ( #124, #149, #201 ) ) REPRESENTATION_CONTEXT ( 'NONE', 'WORKASPACE' ) );
#156 = MECHANICAL_DESIGN_GEOMETRIC_PRESENTATION_REPRESENTATION (  '', ( #207 ), #146 ) ;
#157 = DIMENSIONAL_EXPONENTS ( 1.000000000000000000, 0.000000000000000000, 0.000000000000000000, 0.000000000000000000, 0.000000000000000000, 0.000000000000000000, 0.000000000000000000 ) ;
#158 = CARTESIAN_POINT ( 'NONE',  ( 0.2500000000000000555, 2.500000000000000000, 3.061616997868381785E-17 ) ) ;
#159 = CARTESIAN_POINT ( 'NONE',  ( 0.000000000000000000, 0.6250000000000000000, 0.000000000000000000 ) ) ;
#160 = STYLED_ITEM ( 'NONE', ( #49 ), #64 ) ;
#161 = COLOUR_RGB ( '',0.7921568627450980005, 0.8196078431372548767, 0.9333333333333333481 ) ;
#162 = EDGE_LOOP ( 'NONE', ( #274, #251, #63, #136 ) ) ;
#163 = SURFACE_STYLE_USAGE ( .BOTH. , #294 ) ;
#164 = APPLICATION_CONTEXT ( 'automotive_design' ) ;
#165 = ADVANCED_FACE ( 'NONE', ( #21 ), #77, .T. ) ;
#166 = DIRECTION ( 'NONE',  ( 0.000000000000000000, 0.000000000000000000, -1.000000000000000000 ) ) ;
#167 =( CONVERSION_BASED_UNIT ( 'INCH', #109 ) LENGTH_UNIT ( ) NAMED_UNIT ( #151 ) );
#168 =( CONVERSION_BASED_UNIT ( 'INCH', #308 ) LENGTH_UNIT ( ) NAMED_UNIT ( #132 ) );
#169 = DIRECTION ( 'NONE',  ( -0.000000000000000000, -1.000000000000000000, -0.000000000000000000 ) ) ;
#170 = DIRECTION ( 'NONE',  ( -1.000000000000000000, 6.531449595452550356E-17, 0.000000000000000000 ) ) ;
#171 = PRESENTATION_LAYER_ASSIGNMENT (  '', '', ( #239 ) ) ;
#172 = CARTESIAN_POINT ( 'NONE',  ( 1.224646799147353207E-16, 2.500000000000000000, 0.000000000000000000 ) ) ;
#173 = CARTESIAN_POINT ( 'NONE',  ( 0.000000000000000000, 0.6250000000000000000, 0.000000000000000000 ) ) ;
#174 = FILL_AREA_STYLE ('',( #217 ) ) ;
#175 =( NAMED_UNIT ( * ) SI_UNIT ( $, .STERADIAN. ) SOLID_ANGLE_UNIT ( ) );
#176 = PRODUCT_DEFINITION ( 'UNKNOWN', '', #284, #215 ) ;
#177 = COLOUR_RGB ( '',1.000000000000000000, 0.000000000000000000, 0.000000000000000000 ) ;
#178 = AXIS2_PLACEMENT_3D ( 'NONE', #191, #147, #2 ) ;
#179 = EDGE_LOOP ( 'NONE', ( #189, #281 ) ) ;
#180 = ORIENTED_EDGE ( 'NONE', *, *, #123, .F. ) ;
#181 = CARTESIAN_POINT ( 'NONE',  ( 0.000000000000000000, 0.000000000000000000, 0.000000000000000000 ) ) ;
#182 = CIRCLE ( 'NONE', #293, 0.2500000000000000000 ) ;
#183 =( GEOMETRIC_REPRESENTATION_CONTEXT ( 3 ) GLOBAL_UNCERTAINTY_ASSIGNED_CONTEXT ( ( #78 ) ) GLOBAL_UNIT_ASSIGNED_CONTEXT ( ( #185, #231, #130 ) ) REPRESENTATION_CONTEXT ( 'NONE', 'WORKASPACE' ) );
#184 = DIRECTION ( 'NONE',  ( -1.000000000000000000, 0.000000000000000000, 0.000000000000000000 ) ) ;
#185 =( CONVERSION_BASED_UNIT ( 'INCH', #11 ) LENGTH_UNIT ( ) NAMED_UNIT ( #269 ) );
#186 = STYLED_ITEM ( 'NONE', ( #62 ), #190 ) ;
#187 = PLANE ( 'NONE',  #260 ) ;
#188 = ORIENTED_EDGE ( 'NONE', *, *, #27, .T. ) ;
#189 = ORIENTED_EDGE ( 'NONE', *, *, #226, .T. ) ;
#190 = ADVANCED_FACE ( 'NONE', ( #139 ), #187, .T. ) ;
#191 = CARTESIAN_POINT ( 'NONE',  ( 0.000000000000000000, 0.000000000000000000, 0.000000000000000000 ) ) ;
#192 = FILL_AREA_STYLE ('',( #213 ) ) ;
#193 = COLOUR_RGB ( '',1.000000000000000000, 0.000000000000000000, 0.000000000000000000 ) ;
#194 = CARTESIAN_POINT ( 'NONE',  ( 1.224646799147353207E-16, 2.500000000000000000, 0.000000000000000000 ) ) ;
#195 =( NAMED_UNIT ( * ) SI_UNIT ( $, .STERADIAN. ) SOLID_ANGLE_UNIT ( ) );
#196 = CARTESIAN_POINT ( 'NONE',  ( 5.332479227242159300E-34, 0.6250000000000000000, 0.000000000000000000 ) ) ;
#197 = DIRECTION ( 'NONE',  ( 6.531449595452550356E-17, 1.000000000000000000, -0.000000000000000000 ) ) ;
#198 = FACE_OUTER_BOUND ( 'NONE', #229, .T. ) ;
#199 =( GEOMETRIC_REPRESENTATION_CONTEXT ( 3 ) GLOBAL_UNCERTAINTY_ASSIGNED_CONTEXT ( ( #244 ) ) GLOBAL_UNIT_ASSIGNED_CONTEXT ( ( #280, #116, #195 ) ) REPRESENTATION_CONTEXT ( 'NONE', 'WORKASPACE' ) );
#200 = CARTESIAN_POINT ( 'NONE',  ( 0.000000000000000000, 0.000000000000000000, -0.2500000000000000000 ) ) ;
#201 =( NAMED_UNIT ( * ) SI_UNIT ( $, .STERADIAN. ) SOLID_ANGLE_UNIT ( ) );
#202 = EDGE_CURVE ( 'NONE', #140, #204, #113, .T. ) ;
#203 = PRESENTATION_STYLE_ASSIGNMENT (( #99 ) ) ;
#204 = VERTEX_POINT ( 'NONE', #279 ) ;
#205 = MANIFOLD_SOLID_BREP ( 'Revolve - Tool Body (Straight Shanked)', #44 ) ;
#206 = DIRECTION ( 'NONE',  ( -0.000000000000000000, -1.000000000000000000, -0.000000000000000000 ) ) ;
#207 = STYLED_ITEM ( 'NONE', ( #203 ), #96 ) ;
#208 =( GEOMETRIC_REPRESENTATION_CONTEXT ( 3 ) GLOBAL_UNCERTAINTY_ASSIGNED_CONTEXT ( ( #69 ) ) GLOBAL_UNIT_ASSIGNED_CONTEXT ( ( #22, #25, #70 ) ) REPRESENTATION_CONTEXT ( 'NONE', 'WORKASPACE' ) );
#209 = EDGE_LOOP ( 'NONE', ( #221, #94, #53, #227 ) ) ;
#210 = VERTEX_POINT ( 'NONE', #200 ) ;
#211 = DIRECTION ( 'NONE',  ( 6.531449595452550356E-17, 1.000000000000000000, -0.000000000000000000 ) ) ;
#212 = AXIS2_PLACEMENT_3D ( 'NONE', #159, #234, #17 ) ;
#213 = FILL_AREA_STYLE_COLOUR ( '', #60 ) ;
#214 = LENGTH_MEASURE_WITH_UNIT ( LENGTH_MEASURE( 0.02539999999999999897 ), #43 );
#215 = PRODUCT_DEFINITION_CONTEXT ( 'detailed design', #230, 'design' ) ;
#216 = FILL_AREA_STYLE ('',( #288 ) ) ;
#217 = FILL_AREA_STYLE_COLOUR ( '', #177 ) ;
#218 = PRESENTATION_LAYER_ASSIGNMENT (  '', '', ( #186 ) ) ;
#219 =( LENGTH_UNIT ( ) NAMED_UNIT ( * ) SI_UNIT ( $, .METRE. ) );
#220 = CARTESIAN_POINT ( 'NONE',  ( 0.2499999999999999722, 2.500000000000000000, 0.000000000000000000 ) ) ;
#221 = ORIENTED_EDGE ( 'NONE', *, *, #106, .F. ) ;
#222 = VECTOR ( 'NONE', #39, 39.37007874015748143 ) ;
#223 = VERTEX_POINT ( 'NONE', #129 ) ;
#224 = COLOUR_RGB ( '',1.000000000000000000, 0.000000000000000000, 0.000000000000000000 ) ;
#225 = AXIS2_PLACEMENT_3D ( 'NONE', #98, #28, #127 ) ;
#226 = EDGE_CURVE ( 'NONE', #210, #223, #182, .T. ) ;
#227 = ORIENTED_EDGE ( 'NONE', *, *, #242, .F. ) ;
#228 = COLOUR_RGB ( '',1.000000000000000000, 0.000000000000000000, 0.000000000000000000 ) ;
#229 = EDGE_LOOP ( 'NONE', ( #236, #268, #131, #143 ) ) ;
#230 = APPLICATION_CONTEXT ( 'automotive_design' ) ;
#231 =( NAMED_UNIT ( * ) PLANE_ANGLE_UNIT ( ) SI_UNIT ( $, .RADIAN. ) );
#232 = ADVANCED_FACE ( 'NONE', ( #34 ), #85, .T. ) ;
#233 = CIRCLE ( 'NONE', #35, 0.2499999999999999722 ) ;
#234 = DIRECTION ( 'NONE',  ( 6.531449595452550356E-17, 1.000000000000000000, -0.000000000000000000 ) ) ;
#235 = SURFACE_STYLE_FILL_AREA ( #216 ) ;
#236 = ORIENTED_EDGE ( 'NONE', *, *, #3, .T. ) ;
#237 = CARTESIAN_POINT ( 'NONE',  ( -0.2499999999999996947, 2.500000000000000000, 0.000000000000000000 ) ) ;
#238 = UNCERTAINTY_MEASURE_WITH_UNIT (LENGTH_MEASURE( 1.000000000000000082E-05 ), #124, 'distance_accuracy_value', 'NONE');
#239 = STYLED_ITEM ( 'NONE', ( #299 ), #232 ) ;
#240 = CYLINDRICAL_SURFACE ( 'NONE', #152, 0.2500000000000000000 ) ;
#241 = DIRECTION ( 'NONE',  ( 1.000000000000000000, -6.531449595452550356E-17, 0.000000000000000000 ) ) ;
#242 = EDGE_CURVE ( 'NONE', #204, #140, #45, .T. ) ;
#243 = DIMENSIONAL_EXPONENTS ( 1.000000000000000000, 0.000000000000000000, 0.000000000000000000, 0.000000000000000000, 0.000000000000000000, 0.000000000000000000, 0.000000000000000000 ) ;
#244 = UNCERTAINTY_MEASURE_WITH_UNIT (LENGTH_MEASURE( 1.000000000000000082E-05 ), #280, 'distance_accuracy_value', 'NONE');
#245 = DIRECTION ( 'NONE',  ( 0.000000000000000000, 0.000000000000000000, -1.000000000000000000 ) ) ;
#246 = ORIENTED_EDGE ( 'NONE', *, *, #226, .F. ) ;
#247 = APPLICATION_PROTOCOL_DEFINITION ( 'draft international standard', 'automotive_design', 1998, #164 ) ;
#248 = AXIS2_PLACEMENT_3D ( 'NONE', #15, #42, #184 ) ;
#249 = LENGTH_MEASURE_WITH_UNIT ( LENGTH_MEASURE( 0.02539999999999999897 ), #112 );
#250 = ADVANCED_FACE ( 'NONE', ( #40 ), #290, .T. ) ;
#251 = ORIENTED_EDGE ( 'NONE', *, *, #123, .T. ) ;
#252 = CARTESIAN_POINT ( 'NONE',  ( 3.061616997868383018E-17, 0.000000000000000000, 0.2500000000000000000 ) ) ;
#253 = ADVANCED_BREP_SHAPE_REPRESENTATION ( '48335', ( #96, #205, #47 ), #183 ) ;
#254 = CARTESIAN_POINT ( 'NONE',  ( 0.000000000000000000, 0.6250000000000000000, 0.000000000000000000 ) ) ;
#255 = PRESENTATION_STYLE_ASSIGNMENT (( #163 ) ) ;
#256 = VERTEX_POINT ( 'NONE', #300 ) ;
#257 = MECHANICAL_DESIGN_GEOMETRIC_PRESENTATION_REPRESENTATION (  '', ( #133 ), #270 ) ;
#258 = PLANE ( 'NONE',  #19 ) ;
#259 = DIRECTION ( 'NONE',  ( 0.000000000000000000, 0.000000000000000000, -1.000000000000000000 ) ) ;
#260 = AXIS2_PLACEMENT_3D ( 'NONE', #181, #29, #79 ) ;
#261 = EDGE_LOOP ( 'NONE', ( #122, #58 ) ) ;
#262 = ORIENTED_EDGE ( 'NONE', *, *, #1, .F. ) ;
#263 = SURFACE_STYLE_FILL_AREA ( #174 ) ;
#264 = ORIENTED_EDGE ( 'NONE', *, *, #202, .T. ) ;
#265 = DIMENSIONAL_EXPONENTS ( 1.000000000000000000, 0.000000000000000000, 0.000000000000000000, 0.000000000000000000, 0.000000000000000000, 0.000000000000000000, 0.000000000000000000 ) ;
#266 = SURFACE_STYLE_USAGE ( .BOTH. , #100 ) ;
#267 = CARTESIAN_POINT ( 'NONE',  ( 0.000000000000000000, 0.000000000000000000, 0.000000000000000000 ) ) ;
#268 = ORIENTED_EDGE ( 'NONE', *, *, #106, .T. ) ;
#269 = DIMENSIONAL_EXPONENTS ( 1.000000000000000000, 0.000000000000000000, 0.000000000000000000, 0.000000000000000000, 0.000000000000000000, 0.000000000000000000, 0.000000000000000000 ) ;
#270 =( GEOMETRIC_REPRESENTATION_CONTEXT ( 3 ) GLOBAL_UNCERTAINTY_ASSIGNED_CONTEXT ( ( #287 ) ) GLOBAL_UNIT_ASSIGNED_CONTEXT ( ( #167, #81, #175 ) ) REPRESENTATION_CONTEXT ( 'NONE', 'WORKASPACE' ) );
#271 = DIRECTION ( 'NONE',  ( -1.000000000000000000, 0.000000000000000000, 0.000000000000000000 ) ) ;
#272 = LENGTH_MEASURE_WITH_UNIT ( LENGTH_MEASURE( 0.02539999999999999897 ), #154 );
#273 = EDGE_LOOP ( 'NONE', ( #262, #180 ) ) ;
#274 = ORIENTED_EDGE ( 'NONE', *, *, #27, .F. ) ;
#275 = AXIS2_PLACEMENT_3D ( 'NONE', #220, #9, #241 ) ;
#276 = ORIENTED_EDGE ( 'NONE', *, *, #242, .T. ) ;
#277 = PRODUCT ( '48335', '48335', '', ( #138 ) ) ;
#278 =( LENGTH_UNIT ( ) NAMED_UNIT ( * ) SI_UNIT ( $, .METRE. ) );
#279 = CARTESIAN_POINT ( 'NONE',  ( 0.2500000000000000000, 2.500000000000000000, 3.061616997868382402E-17 ) ) ;
#280 =( CONVERSION_BASED_UNIT ( 'INCH', #249 ) LENGTH_UNIT ( ) NAMED_UNIT ( #157 ) );
#281 = ORIENTED_EDGE ( 'NONE', *, *, #135, .T. ) ;
#282 = AXIS2_PLACEMENT_3D ( 'NONE', #144, #285, #68 ) ;
#283 = DIRECTION ( 'NONE',  ( -0.000000000000000000, -1.000000000000000000, -0.000000000000000000 ) ) ;
#284 = PRODUCT_DEFINITION_FORMATION_WITH_SPECIFIED_SOURCE ( 'ANY', '', #277, .NOT_KNOWN. ) ;
#285 = DIRECTION ( 'NONE',  ( 6.531449595452550356E-17, 1.000000000000000000, -0.000000000000000000 ) ) ;
#286 = CARTESIAN_POINT ( 'NONE',  ( 0.2500000000000000000, 0.6250000000000000000, 3.061616997868382402E-17 ) ) ;
#287 = UNCERTAINTY_MEASURE_WITH_UNIT (LENGTH_MEASURE( 1.000000000000000082E-05 ), #167, 'distance_accuracy_value', 'NONE');
#288 = FILL_AREA_STYLE_COLOUR ( '', #224 ) ;
#289 = SURFACE_STYLE_FILL_AREA ( #192 ) ;
#290 = CYLINDRICAL_SURFACE ( 'NONE', #225, 0.2500000000000000000 ) ;
#291 = DIRECTION ( 'NONE',  ( -0.000000000000000000, -1.000000000000000000, -0.000000000000000000 ) ) ;
#292 = CIRCLE ( 'NONE', #212, 0.2499999999999999722 ) ;
#293 = AXIS2_PLACEMENT_3D ( 'NONE', #55, #206, #245 ) ;
#294 = SURFACE_SIDE_STYLE ('',( #235 ) ) ;
#295 = DIRECTION ( 'NONE',  ( 6.531449595452550356E-17, 1.000000000000000000, -0.000000000000000000 ) ) ;
#296 = DIRECTION ( 'NONE',  ( 6.531449595452550356E-17, 1.000000000000000000, -0.000000000000000000 ) ) ;
#297 = PRESENTATION_STYLE_ASSIGNMENT (( #137 ) ) ;
#298 = SURFACE_STYLE_FILL_AREA ( #150 ) ;
#299 = PRESENTATION_STYLE_ASSIGNMENT (( #266 ) ) ;
#300 = CARTESIAN_POINT ( 'NONE',  ( -0.2499999999999999722, 0.6250000000000000000, 0.000000000000000000 ) ) ;
#301 = ORIENTED_EDGE ( 'NONE', *, *, #14, .F. ) ;
#302 = SURFACE_SIDE_STYLE ('',( #105 ) ) ;
#303 = MECHANICAL_DESIGN_GEOMETRIC_PRESENTATION_REPRESENTATION (  '', ( #239 ), #37 ) ;
#304 =( NAMED_UNIT ( * ) PLANE_ANGLE_UNIT ( ) SI_UNIT ( $, .RADIAN. ) );
#305 = LINE ( 'NONE', #46, #101 ) ;
#306 = DIRECTION ( 'NONE',  ( -1.000000000000000000, 0.000000000000000000, 0.000000000000000000 ) ) ;
#307 = AXIS2_PLACEMENT_3D ( 'NONE', #20, #291, #166 ) ;
#308 = LENGTH_MEASURE_WITH_UNIT ( LENGTH_MEASURE( 0.02539999999999999897 ), #83 );
#309 = UNCERTAINTY_MEASURE_WITH_UNIT (LENGTH_MEASURE( 1.000000000000000082E-05 ), #4, 'distance_accuracy_value', 'NONE');
ENDSEC;
END-ISO-10303-21;
