ISO-10303-21;
HEADER;
FILE_DESCRIPTION (( 'STEP AP214' ),
    '1' );
FILE_NAME ('83864.STEP',
    '2023-07-05T16:23:12',
    ( '' ),
    ( '' ),
    'SwSTEP 2.0',
    'SolidWorks 2023',
    '' );
FILE_SCHEMA (( 'AUTOMOTIVE_DESIGN' ));
ENDSEC;

DATA;
#1 = EDGE_CURVE ( 'NONE', #203, #150, #166, .T. ) ;
#2 =( NAMED_UNIT ( * ) SI_UNIT ( $, .STERADIAN. ) SOLID_ANGLE_UNIT ( ) );
#3 = PRESENTATION_LAYER_ASSIGNMENT (  '', '', ( #239 ) ) ;
#4 = DIRECTION ( 'NONE',  ( -1.000000000000000000, -1.215909390471913142E-16, 0.000000000000000000 ) ) ;
#5 = PRODUCT_RELATED_PRODUCT_CATEGORY ( 'part', '', ( #220 ) ) ;
#6 =( GEOMETRIC_REPRESENTATION_CONTEXT ( 3 ) GLOBAL_UNCERTAINTY_ASSIGNED_CONTEXT ( ( #218 ) ) GLOBAL_UNIT_ASSIGNED_CONTEXT ( ( #252, #83, #55 ) ) REPRESENTATION_CONTEXT ( 'NONE', 'WORKASPACE' ) );
#7 = SURFACE_SIDE_STYLE ('',( #87 ) ) ;
#8 = LINE ( 'NONE', #188, #64 ) ;
#9 = LINE ( 'NONE', #112, #254 ) ;
#10 = DIMENSIONAL_EXPONENTS ( 1.000000000000000000, 0.000000000000000000, 0.000000000000000000, 0.000000000000000000, 0.000000000000000000, 0.000000000000000000, 0.000000000000000000 ) ;
#11 = AXIS2_PLACEMENT_3D ( 'NONE', #228, #142, #262 ) ;
#12 = EDGE_LOOP ( 'NONE', ( #221, #195 ) ) ;
#13 = SHAPE_DEFINITION_REPRESENTATION ( #134, #183 ) ;
#14 = VERTEX_POINT ( 'NONE', #41 ) ;
#15 = CARTESIAN_POINT ( 'NONE',  ( -0.2499999999999999722, 3.000000000000000444, 0.000000000000000000 ) ) ;
#16 = AXIS2_PLACEMENT_3D ( 'NONE', #212, #173, #71 ) ;
#17 = DIMENSIONAL_EXPONENTS ( 1.000000000000000000, 0.000000000000000000, 0.000000000000000000, 0.000000000000000000, 0.000000000000000000, 0.000000000000000000, 0.000000000000000000 ) ;
#18 = VERTEX_POINT ( 'NONE', #118 ) ;
#19 = SURFACE_STYLE_FILL_AREA ( #69 ) ;
#20 = PRESENTATION_STYLE_ASSIGNMENT (( #246 ) ) ;
#21 = STYLED_ITEM ( 'NONE', ( #147 ), #117 ) ;
#22 = EDGE_CURVE ( 'NONE', #203, #191, #217, .T. ) ;
#23 = EDGE_CURVE ( 'NONE', #18, #14, #67, .T. ) ;
#24 = UNCERTAINTY_MEASURE_WITH_UNIT (LENGTH_MEASURE( 1.000000000000000082E-05 ), #265, 'distance_accuracy_value', 'NONE');
#25 = PRESENTATION_STYLE_ASSIGNMENT (( #144 ) ) ;
#26 = DIRECTION ( 'NONE',  ( -1.215909390471913142E-16, 1.000000000000000000, 0.000000000000000000 ) ) ;
#27 = CARTESIAN_POINT ( 'NONE',  ( 2.859903368367275526E-16, 0.1443375672974056556, 0.000000000000000000 ) ) ;
#28 = FACE_OUTER_BOUND ( 'NONE', #29, .T. ) ;
#29 = EDGE_LOOP ( 'NONE', ( #106, #92, #261, #63 ) ) ;
#30 = CARTESIAN_POINT ( 'NONE',  ( -0.2499999999999994449, 0.1443375672974054058, 0.000000000000000000 ) ) ;
#31 =( GEOMETRIC_REPRESENTATION_CONTEXT ( 3 ) GLOBAL_UNCERTAINTY_ASSIGNED_CONTEXT ( ( #24 ) ) GLOBAL_UNIT_ASSIGNED_CONTEXT ( ( #265, #47, #165 ) ) REPRESENTATION_CONTEXT ( 'NONE', 'WORKASPACE' ) );
#32 =( CONVERSION_BASED_UNIT ( 'INCH', #190 ) LENGTH_UNIT ( ) NAMED_UNIT ( #35 ) );
#33 = ADVANCED_FACE ( 'NONE', ( #43 ), #238, .F. ) ;
#34 = DIRECTION ( 'NONE',  ( -0.8660254037844397068, 0.4999999999999979461, 0.000000000000000000 ) ) ;
#35 = DIMENSIONAL_EXPONENTS ( 1.000000000000000000, 0.000000000000000000, 0.000000000000000000, 0.000000000000000000, 0.000000000000000000, 0.000000000000000000, 0.000000000000000000 ) ;
#36 = CARTESIAN_POINT ( 'NONE',  ( 0.000000000000000000, 0.000000000000000000, 0.000000000000000000 ) ) ;
#37 = AXIS2_PLACEMENT_3D ( 'NONE', #249, #88, #131 ) ;
#38 = DIRECTION ( 'NONE',  ( -1.215909390471913142E-16, 1.000000000000000000, -0.000000000000000000 ) ) ;
#39 = EDGE_LOOP ( 'NONE', ( #62, #161, #74 ) ) ;
#40 = MANIFOLD_SOLID_BREP ( 'Revolve - Tool Body (Pointed)', #126 ) ;
#41 = CARTESIAN_POINT ( 'NONE',  ( 0.2500000000000000000, 0.1443375672974056556, 3.061616997868383018E-17 ) ) ;
#42 =( CONVERSION_BASED_UNIT ( 'INCH', #196 ) LENGTH_UNIT ( ) NAMED_UNIT ( #110 ) );
#43 = FACE_OUTER_BOUND ( 'NONE', #153, .T. ) ;
#44 = CONICAL_SURFACE ( 'NONE', #11, 68.19097667594041923, 1.047197551196600074 ) ;
#45 = APPLICATION_CONTEXT ( 'automotive_design' ) ;
#46 = SURFACE_STYLE_FILL_AREA ( #224 ) ;
#47 =( NAMED_UNIT ( * ) PLANE_ANGLE_UNIT ( ) SI_UNIT ( $, .RADIAN. ) );
#48 =( LENGTH_UNIT ( ) NAMED_UNIT ( * ) SI_UNIT ( $, .METRE. ) );
#49 = CARTESIAN_POINT ( 'NONE',  ( 2.859903368367275526E-16, 0.1443375672974054336, 0.000000000000000000 ) ) ;
#50 = COLOUR_RGB ( '',0.7921568627450980005, 0.8196078431372548767, 0.9333333333333333481 ) ;
#51 =( NAMED_UNIT ( * ) PLANE_ANGLE_UNIT ( ) SI_UNIT ( $, .RADIAN. ) );
#52 = VERTEX_POINT ( 'NONE', #36 ) ;
#53 = CYLINDRICAL_SURFACE ( 'NONE', #16, 0.2499999999999998890 ) ;
#54 = COLOUR_RGB ( '',1.000000000000000000, 0.000000000000000000, 0.000000000000000000 ) ;
#55 =( NAMED_UNIT ( * ) SI_UNIT ( $, .STERADIAN. ) SOLID_ANGLE_UNIT ( ) );
#56 = CARTESIAN_POINT ( 'NONE',  ( 0.2500000000000000000, 3.000000000000000444, 0.000000000000000000 ) ) ;
#57 = DIMENSIONAL_EXPONENTS ( 1.000000000000000000, 0.000000000000000000, 0.000000000000000000, 0.000000000000000000, 0.000000000000000000, 0.000000000000000000, 0.000000000000000000 ) ;
#58 = PRODUCT_DEFINITION ( 'UNKNOWN', '', #162, #253 ) ;
#59 = CARTESIAN_POINT ( 'NONE',  ( 2.859903368367275526E-16, 0.1443375672974054336, 0.000000000000000000 ) ) ;
#60 = ORIENTED_EDGE ( 'NONE', *, *, #22, .F. ) ;
#61 =( NAMED_UNIT ( * ) SI_UNIT ( $, .STERADIAN. ) SOLID_ANGLE_UNIT ( ) );
#62 = ORIENTED_EDGE ( 'NONE', *, *, #258, .F. ) ;
#63 = ORIENTED_EDGE ( 'NONE', *, *, #101, .F. ) ;
#64 = VECTOR ( 'NONE', #81, 39.37007874015748854 ) ;
#65 = FILL_AREA_STYLE ('',( #210 ) ) ;
#66 = SURFACE_SIDE_STYLE ('',( #19 ) ) ;
#67 = CIRCLE ( 'NONE', #208, 0.2499999999999999722 ) ;
#68 = MECHANICAL_DESIGN_GEOMETRIC_PRESENTATION_REPRESENTATION (  '', ( #108 ), #223 ) ;
#69 = FILL_AREA_STYLE ('',( #209 ) ) ;
#70 = UNCERTAINTY_MEASURE_WITH_UNIT (LENGTH_MEASURE( 1.000000000000000082E-05 ), #42, 'distance_accuracy_value', 'NONE');
#71 = DIRECTION ( 'NONE',  ( -1.000000000000000000, 0.000000000000000000, 0.000000000000000000 ) ) ;
#72 = VERTEX_POINT ( 'NONE', #109 ) ;
#73 = DIRECTION ( 'NONE',  ( -1.000000000000000000, 1.090527844053722473E-17, 0.000000000000000000 ) ) ;
#74 = ORIENTED_EDGE ( 'NONE', *, *, #164, .T. ) ;
#75 = CIRCLE ( 'NONE', #145, 0.2499999999999997224 ) ;
#76 = DIRECTION ( 'NONE',  ( 1.000000000000000000, 0.000000000000000000, 0.000000000000000000 ) ) ;
#77 = ORIENTED_EDGE ( 'NONE', *, *, #1, .T. ) ;
#78 = ORIENTED_EDGE ( 'NONE', *, *, #232, .F. ) ;
#79 = CYLINDRICAL_SURFACE ( 'NONE', #37, 0.2499999999999998890 ) ;
#80 = VECTOR ( 'NONE', #176, 39.37007874015748143 ) ;
#81 = DIRECTION ( 'NONE',  ( 0.8660254037844397068, 0.4999999999999979461, 1.060575238724908024E-16 ) ) ;
#82 = DIRECTION ( 'NONE',  ( -1.090527844053722473E-17, -1.000000000000000000, -0.000000000000000000 ) ) ;
#83 =( NAMED_UNIT ( * ) PLANE_ANGLE_UNIT ( ) SI_UNIT ( $, .RADIAN. ) );
#84 = STYLED_ITEM ( 'NONE', ( #93 ), #40 ) ;
#85 = AXIS2_PLACEMENT_3D ( 'NONE', #56, #243, #136 ) ;
#86 = CIRCLE ( 'NONE', #180, 0.2500000000000000555 ) ;
#87 = SURFACE_STYLE_FILL_AREA ( #105 ) ;
#88 = DIRECTION ( 'NONE',  ( -1.215909390471913142E-16, 1.000000000000000000, -0.000000000000000000 ) ) ;
#89 =( LENGTH_UNIT ( ) NAMED_UNIT ( * ) SI_UNIT ( $, .METRE. ) );
#90 = APPLICATION_CONTEXT ( 'automotive_design' ) ;
#91 = CARTESIAN_POINT ( 'NONE',  ( 0.2499999999999998335, 3.000000000000000444, 3.061616997868381785E-17 ) ) ;
#92 = ORIENTED_EDGE ( 'NONE', *, *, #222, .T. ) ;
#93 = PRESENTATION_STYLE_ASSIGNMENT (( #159 ) ) ;
#94 = PRESENTATION_LAYER_ASSIGNMENT (  '', '', ( #21 ) ) ;
#95 = EDGE_CURVE ( 'NONE', #150, #72, #199, .T. ) ;
#96 = EDGE_LOOP ( 'NONE', ( #260, #257, #216 ) ) ;
#97 = ADVANCED_FACE ( 'NONE', ( #256 ), #204, .T. ) ;
#98 = COLOUR_RGB ( '',1.000000000000000000, 0.000000000000000000, 0.000000000000000000 ) ;
#99 = LENGTH_MEASURE_WITH_UNIT ( LENGTH_MEASURE( 0.02539999999999999897 ), #225 );
#100 =( CONVERSION_BASED_UNIT ( 'INCH', #226 ) LENGTH_UNIT ( ) NAMED_UNIT ( #10 ) );
#101 = EDGE_CURVE ( 'NONE', #72, #191, #264, .T. ) ;
#102 =( LENGTH_UNIT ( ) NAMED_UNIT ( * ) SI_UNIT ( $, .METRE. ) );
#103 =( GEOMETRIC_REPRESENTATION_CONTEXT ( 3 ) GLOBAL_UNCERTAINTY_ASSIGNED_CONTEXT ( ( #172 ) ) GLOBAL_UNIT_ASSIGNED_CONTEXT ( ( #140, #175, #138 ) ) REPRESENTATION_CONTEXT ( 'NONE', 'WORKASPACE' ) );
#104 = SURFACE_STYLE_USAGE ( .BOTH. , #7 ) ;
#105 = FILL_AREA_STYLE ('',( #130 ) ) ;
#106 = ORIENTED_EDGE ( 'NONE', *, *, #95, .F. ) ;
#107 = VECTOR ( 'NONE', #141, 39.37007874015748143 ) ;
#108 = STYLED_ITEM ( 'NONE', ( #25 ), #97 ) ;
#109 = CARTESIAN_POINT ( 'NONE',  ( 0.2500000000000000000, 3.000000000000000444, 3.061616997868382402E-17 ) ) ;
#110 = DIMENSIONAL_EXPONENTS ( 1.000000000000000000, 0.000000000000000000, 0.000000000000000000, 0.000000000000000000, 0.000000000000000000, 0.000000000000000000, 0.000000000000000000 ) ;
#111 = MECHANICAL_DESIGN_GEOMETRIC_PRESENTATION_REPRESENTATION (  '', ( #21 ), #31 ) ;
#112 = CARTESIAN_POINT ( 'NONE',  ( 0.000000000000000000, 0.000000000000000000, 0.000000000000000000 ) ) ;
#113 = DIRECTION ( 'NONE',  ( -1.215909390471913142E-16, 1.000000000000000000, -0.000000000000000000 ) ) ;
#114 = DIMENSIONAL_EXPONENTS ( 1.000000000000000000, 0.000000000000000000, 0.000000000000000000, 0.000000000000000000, 0.000000000000000000, 0.000000000000000000, 0.000000000000000000 ) ;
#115 = DIRECTION ( 'NONE',  ( -1.000000000000000000, 0.000000000000000000, 0.000000000000000000 ) ) ;
#116 = EDGE_LOOP ( 'NONE', ( #219, #234 ) ) ;
#117 = ADVANCED_FACE ( 'NONE', ( #125 ), #44, .T. ) ;
#118 = CARTESIAN_POINT ( 'NONE',  ( -0.2500000000000000000, 0.1443375672974056556, 0.000000000000000000 ) ) ;
#119 = AXIS2_PLACEMENT_3D ( 'NONE', #148, #82, #169 ) ;
#120 = SURFACE_SIDE_STYLE ('',( #46 ) ) ;
#121 = SURFACE_STYLE_FILL_AREA ( #65 ) ;
#122 = MECHANICAL_DESIGN_GEOMETRIC_PRESENTATION_REPRESENTATION (  '', ( #84 ), #103 ) ;
#123 = MECHANICAL_DESIGN_GEOMETRIC_PRESENTATION_REPRESENTATION (  '', ( #124 ), #132 ) ;
#124 = STYLED_ITEM ( 'NONE', ( #20 ), #128 ) ;
#125 = FACE_OUTER_BOUND ( 'NONE', #96, .T. ) ;
#126 = CLOSED_SHELL ( 'NONE', ( #146, #205, #137, #33 ) ) ;
#127 = ORIENTED_EDGE ( 'NONE', *, *, #232, .T. ) ;
#128 = MANIFOLD_SOLID_BREP ( 'Revolve - Cutting Edge', #192 ) ;
#129 = PLANE ( 'NONE',  #187 ) ;
#130 = FILL_AREA_STYLE_COLOUR ( '', #54 ) ;
#131 = DIRECTION ( 'NONE',  ( -1.000000000000000000, 0.000000000000000000, 0.000000000000000000 ) ) ;
#132 =( GEOMETRIC_REPRESENTATION_CONTEXT ( 3 ) GLOBAL_UNCERTAINTY_ASSIGNED_CONTEXT ( ( #189 ) ) GLOBAL_UNIT_ASSIGNED_CONTEXT ( ( #32, #51, #250 ) ) REPRESENTATION_CONTEXT ( 'NONE', 'WORKASPACE' ) );
#133 = CARTESIAN_POINT ( 'NONE',  ( 0.2500000000000000000, 0.1443375672974054613, 3.061616997868382402E-17 ) ) ;
#134 = PRODUCT_DEFINITION_SHAPE ( 'NONE', 'NONE',  #58 ) ;
#135 = FILL_AREA_STYLE_COLOUR ( '', #207 ) ;
#136 = DIRECTION ( 'NONE',  ( 1.000000000000000000, 1.215909390471913142E-16, 0.000000000000000000 ) ) ;
#137 = ADVANCED_FACE ( 'NONE', ( #28 ), #79, .T. ) ;
#138 =( NAMED_UNIT ( * ) SI_UNIT ( $, .STERADIAN. ) SOLID_ANGLE_UNIT ( ) );
#139 = APPLICATION_PROTOCOL_DEFINITION ( 'draft international standard', 'automotive_design', 1998, #90 ) ;
#140 =( CONVERSION_BASED_UNIT ( 'INCH', #206 ) LENGTH_UNIT ( ) NAMED_UNIT ( #57 ) );
#141 = DIRECTION ( 'NONE',  ( -1.215909390471913142E-16, 1.000000000000000000, -0.000000000000000000 ) ) ;
#142 = DIRECTION ( 'NONE',  ( 1.090527844053722473E-17, 1.000000000000000000, 0.000000000000000000 ) ) ;
#143 = DIRECTION ( 'NONE',  ( -1.000000000000000000, 0.000000000000000000, 0.000000000000000000 ) ) ;
#144 = SURFACE_STYLE_USAGE ( .BOTH. , #168 ) ;
#145 = AXIS2_PLACEMENT_3D ( 'NONE', #49, #177, #241 ) ;
#146 = ADVANCED_FACE ( 'NONE', ( #214 ), #53, .T. ) ;
#147 = PRESENTATION_STYLE_ASSIGNMENT (( #186 ) ) ;
#148 = CARTESIAN_POINT ( 'NONE',  ( 1.574041360807988724E-18, 0.1443375672974056556, 0.000000000000000000 ) ) ;
#149 = MECHANICAL_DESIGN_GEOMETRIC_PRESENTATION_REPRESENTATION (  '', ( #239 ), #6 ) ;
#150 = VERTEX_POINT ( 'NONE', #133 ) ;
#151 = LENGTH_MEASURE_WITH_UNIT ( LENGTH_MEASURE( 0.02539999999999999897 ), #102 );
#152 = DIRECTION ( 'NONE',  ( 1.090527844053722473E-17, 1.000000000000000000, 0.000000000000000000 ) ) ;
#153 = EDGE_LOOP ( 'NONE', ( #127, #197 ) ) ;
#154 = PRODUCT_CONTEXT ( 'NONE', #90, 'mechanical' ) ;
#155 = EDGE_LOOP ( 'NONE', ( #77, #236, #78, #60 ) ) ;
#156 = DIRECTION ( 'NONE',  ( -1.000000000000000000, -1.365923996832133088E-16, 0.000000000000000000 ) ) ;
#157 = SURFACE_STYLE_FILL_AREA ( #201 ) ;
#158 = AXIS2_PLACEMENT_3D ( 'NONE', #263, #244, #248 ) ;
#159 = SURFACE_STYLE_USAGE ( .BOTH. , #178 ) ;
#160 = DIRECTION ( 'NONE',  ( 0.000000000000000000, 0.000000000000000000, 1.000000000000000000 ) ) ;
#161 = ORIENTED_EDGE ( 'NONE', *, *, #213, .T. ) ;
#162 = PRODUCT_DEFINITION_FORMATION_WITH_SPECIFIED_SOURCE ( 'ANY', '', #220, .NOT_KNOWN. ) ;
#163 = FILL_AREA_STYLE_COLOUR ( '', #50 ) ;
#164 = EDGE_CURVE ( 'NONE', #14, #18, #167, .T. ) ;
#165 =( NAMED_UNIT ( * ) SI_UNIT ( $, .STERADIAN. ) SOLID_ANGLE_UNIT ( ) );
#166 = CIRCLE ( 'NONE', #227, 0.2499999999999997224 ) ;
#167 = CIRCLE ( 'NONE', #119, 0.2499999999999999722 ) ;
#168 = SURFACE_SIDE_STYLE ('',( #121 ) ) ;
#169 = DIRECTION ( 'NONE',  ( 1.000000000000000000, 0.000000000000000000, 0.000000000000000000 ) ) ;
#170 = CARTESIAN_POINT ( 'NONE',  ( 1.574041360807988724E-18, 0.1443375672974056556, 0.000000000000000000 ) ) ;
#171 = AXIS2_PLACEMENT_3D ( 'NONE', #27, #26, #4 ) ;
#172 = UNCERTAINTY_MEASURE_WITH_UNIT (LENGTH_MEASURE( 1.000000000000000082E-05 ), #140, 'distance_accuracy_value', 'NONE');
#173 = DIRECTION ( 'NONE',  ( -1.215909390471913142E-16, 1.000000000000000000, -0.000000000000000000 ) ) ;
#174 = PRESENTATION_LAYER_ASSIGNMENT (  '', '', ( #124 ) ) ;
#175 =( NAMED_UNIT ( * ) PLANE_ANGLE_UNIT ( ) SI_UNIT ( $, .RADIAN. ) );
#176 = DIRECTION ( 'NONE',  ( -1.215909390471913142E-16, 1.000000000000000000, -0.000000000000000000 ) ) ;
#177 = DIRECTION ( 'NONE',  ( -1.215909390471913142E-16, 1.000000000000000000, -0.000000000000000000 ) ) ;
#178 = SURFACE_SIDE_STYLE ('',( #157 ) ) ;
#179 = CARTESIAN_POINT ( 'NONE',  ( 1.574041360807988724E-18, 0.1443375672974056556, 0.000000000000000000 ) ) ;
#180 = AXIS2_PLACEMENT_3D ( 'NONE', #255, #38, #115 ) ;
#181 = DIRECTION ( 'NONE',  ( 1.000000000000000000, 0.000000000000000000, 0.000000000000000000 ) ) ;
#182 =( NAMED_UNIT ( * ) PLANE_ANGLE_UNIT ( ) SI_UNIT ( $, .RADIAN. ) );
#183 = ADVANCED_BREP_SHAPE_REPRESENTATION ( '83864', ( #128, #40, #198 ), #245 ) ;
#184 = COLOUR_RGB ( '',1.000000000000000000, 0.000000000000000000, 0.000000000000000000 ) ;
#185 = DIRECTION ( 'NONE',  ( -1.215909390471913142E-16, 1.000000000000000000, -0.000000000000000000 ) ) ;
#186 = SURFACE_STYLE_USAGE ( .BOTH. , #66 ) ;
#187 = AXIS2_PLACEMENT_3D ( 'NONE', #170, #152, #73 ) ;
#188 = CARTESIAN_POINT ( 'NONE',  ( 0.000000000000000000, 0.000000000000000000, 0.000000000000000000 ) ) ;
#189 = UNCERTAINTY_MEASURE_WITH_UNIT (LENGTH_MEASURE( 1.000000000000000082E-05 ), #32, 'distance_accuracy_value', 'NONE');
#190 = LENGTH_MEASURE_WITH_UNIT ( LENGTH_MEASURE( 0.02539999999999999897 ), #247 );
#191 = VERTEX_POINT ( 'NONE', #231 ) ;
#192 = CLOSED_SHELL ( 'NONE', ( #97, #194, #117 ) ) ;
#193 = FACE_OUTER_BOUND ( 'NONE', #116, .T. ) ;
#194 = ADVANCED_FACE ( 'NONE', ( #193 ), #129, .T. ) ;
#195 = ORIENTED_EDGE ( 'NONE', *, *, #222, .F. ) ;
#196 = LENGTH_MEASURE_WITH_UNIT ( LENGTH_MEASURE( 0.02539999999999999897 ), #89 );
#197 = ORIENTED_EDGE ( 'NONE', *, *, #101, .T. ) ;
#198 = AXIS2_PLACEMENT_3D ( 'NONE', #202, #160, #76 ) ;
#199 = LINE ( 'NONE', #91, #80 ) ;
#200 = APPLICATION_PROTOCOL_DEFINITION ( 'draft international standard', 'automotive_design', 1998, #45 ) ;
#201 = FILL_AREA_STYLE ('',( #135 ) ) ;
#202 = CARTESIAN_POINT ( 'NONE',  ( 0.000000000000000000, 0.000000000000000000, 0.000000000000000000 ) ) ;
#203 = VERTEX_POINT ( 'NONE', #30 ) ;
#204 = CONICAL_SURFACE ( 'NONE', #158, 68.19097667594041923, 1.047197551196600074 ) ;
#205 = ADVANCED_FACE ( 'NONE', ( #229 ), #233, .F. ) ;
#206 = LENGTH_MEASURE_WITH_UNIT ( LENGTH_MEASURE( 0.02539999999999999897 ), #242 );
#207 = COLOUR_RGB ( '',0.7921568627450980005, 0.8196078431372548767, 0.9333333333333333481 ) ;
#208 = AXIS2_PLACEMENT_3D ( 'NONE', #179, #237, #181 ) ;
#209 = FILL_AREA_STYLE_COLOUR ( '', #184 ) ;
#210 = FILL_AREA_STYLE_COLOUR ( '', #98 ) ;
#211 = CARTESIAN_POINT ( 'NONE',  ( -6.123233995736772199E-17, 3.000000000000000444, 0.000000000000000000 ) ) ;
#212 = CARTESIAN_POINT ( 'NONE',  ( -6.123233995736772199E-17, 3.000000000000000444, 0.000000000000000000 ) ) ;
#213 = EDGE_CURVE ( 'NONE', #52, #14, #8, .T. ) ;
#214 = FACE_OUTER_BOUND ( 'NONE', #155, .T. ) ;
#215 =( NAMED_UNIT ( * ) PLANE_ANGLE_UNIT ( ) SI_UNIT ( $, .RADIAN. ) );
#216 = ORIENTED_EDGE ( 'NONE', *, *, #23, .T. ) ;
#217 = LINE ( 'NONE', #15, #107 ) ;
#218 = UNCERTAINTY_MEASURE_WITH_UNIT (LENGTH_MEASURE( 1.000000000000000082E-05 ), #252, 'distance_accuracy_value', 'NONE');
#219 = ORIENTED_EDGE ( 'NONE', *, *, #23, .F. ) ;
#220 = PRODUCT ( '83864', '83864', '', ( #154 ) ) ;
#221 = ORIENTED_EDGE ( 'NONE', *, *, #1, .F. ) ;
#222 = EDGE_CURVE ( 'NONE', #150, #203, #75, .T. ) ;
#223 =( GEOMETRIC_REPRESENTATION_CONTEXT ( 3 ) GLOBAL_UNCERTAINTY_ASSIGNED_CONTEXT ( ( #251 ) ) GLOBAL_UNIT_ASSIGNED_CONTEXT ( ( #100, #182, #2 ) ) REPRESENTATION_CONTEXT ( 'NONE', 'WORKASPACE' ) );
#224 = FILL_AREA_STYLE ('',( #163 ) ) ;
#225 =( LENGTH_UNIT ( ) NAMED_UNIT ( * ) SI_UNIT ( $, .METRE. ) );
#226 = LENGTH_MEASURE_WITH_UNIT ( LENGTH_MEASURE( 0.02539999999999999897 ), #48 );
#227 = AXIS2_PLACEMENT_3D ( 'NONE', #59, #113, #156 ) ;
#228 = CARTESIAN_POINT ( 'NONE',  ( 4.293416708872923422E-16, 39.37007874015748143, 0.000000000000000000 ) ) ;
#229 = FACE_OUTER_BOUND ( 'NONE', #12, .T. ) ;
#230 = PRESENTATION_LAYER_ASSIGNMENT (  '', '', ( #108 ) ) ;
#231 = CARTESIAN_POINT ( 'NONE',  ( -0.2500000000000001110, 3.000000000000000444, 0.000000000000000000 ) ) ;
#232 = EDGE_CURVE ( 'NONE', #191, #72, #86, .T. ) ;
#233 = PLANE ( 'NONE',  #171 ) ;
#234 = ORIENTED_EDGE ( 'NONE', *, *, #164, .F. ) ;
#235 = PRESENTATION_STYLE_ASSIGNMENT (( #104 ) ) ;
#236 = ORIENTED_EDGE ( 'NONE', *, *, #95, .T. ) ;
#237 = DIRECTION ( 'NONE',  ( -1.090527844053722473E-17, -1.000000000000000000, -0.000000000000000000 ) ) ;
#238 = PLANE ( 'NONE',  #85 ) ;
#239 = STYLED_ITEM ( 'NONE', ( #235 ), #194 ) ;
#240 = AXIS2_PLACEMENT_3D ( 'NONE', #211, #185, #143 ) ;
#241 = DIRECTION ( 'NONE',  ( -1.000000000000000000, -1.365923996832133088E-16, 0.000000000000000000 ) ) ;
#242 =( LENGTH_UNIT ( ) NAMED_UNIT ( * ) SI_UNIT ( $, .METRE. ) );
#243 = DIRECTION ( 'NONE',  ( 1.215909390471913142E-16, -1.000000000000000000, 0.000000000000000000 ) ) ;
#244 = DIRECTION ( 'NONE',  ( 1.090527844053722473E-17, 1.000000000000000000, 0.000000000000000000 ) ) ;
#245 =( GEOMETRIC_REPRESENTATION_CONTEXT ( 3 ) GLOBAL_UNCERTAINTY_ASSIGNED_CONTEXT ( ( #70 ) ) GLOBAL_UNIT_ASSIGNED_CONTEXT ( ( #42, #215, #61 ) ) REPRESENTATION_CONTEXT ( 'NONE', 'WORKASPACE' ) );
#246 = SURFACE_STYLE_USAGE ( .BOTH. , #120 ) ;
#247 =( LENGTH_UNIT ( ) NAMED_UNIT ( * ) SI_UNIT ( $, .METRE. ) );
#248 = DIRECTION ( 'NONE',  ( -1.000000000000000000, 0.000000000000000000, 0.000000000000000000 ) ) ;
#249 = CARTESIAN_POINT ( 'NONE',  ( -6.123233995736772199E-17, 3.000000000000000444, 0.000000000000000000 ) ) ;
#250 =( NAMED_UNIT ( * ) SI_UNIT ( $, .STERADIAN. ) SOLID_ANGLE_UNIT ( ) );
#251 = UNCERTAINTY_MEASURE_WITH_UNIT (LENGTH_MEASURE( 1.000000000000000082E-05 ), #100, 'distance_accuracy_value', 'NONE');
#252 =( CONVERSION_BASED_UNIT ( 'INCH', #151 ) LENGTH_UNIT ( ) NAMED_UNIT ( #17 ) );
#253 = PRODUCT_DEFINITION_CONTEXT ( 'detailed design', #45, 'design' ) ;
#254 = VECTOR ( 'NONE', #34, 39.37007874015748854 ) ;
#255 = CARTESIAN_POINT ( 'NONE',  ( -6.123233995736772199E-17, 3.000000000000000444, 0.000000000000000000 ) ) ;
#256 = FACE_OUTER_BOUND ( 'NONE', #39, .T. ) ;
#257 = ORIENTED_EDGE ( 'NONE', *, *, #258, .T. ) ;
#258 = EDGE_CURVE ( 'NONE', #52, #18, #9, .T. ) ;
#259 = PRESENTATION_LAYER_ASSIGNMENT (  '', '', ( #84 ) ) ;
#260 = ORIENTED_EDGE ( 'NONE', *, *, #213, .F. ) ;
#261 = ORIENTED_EDGE ( 'NONE', *, *, #22, .T. ) ;
#262 = DIRECTION ( 'NONE',  ( -1.000000000000000000, 0.000000000000000000, 0.000000000000000000 ) ) ;
#263 = CARTESIAN_POINT ( 'NONE',  ( 4.293416708872923422E-16, 39.37007874015748143, 0.000000000000000000 ) ) ;
#264 = CIRCLE ( 'NONE', #240, 0.2500000000000000555 ) ;
#265 =( CONVERSION_BASED_UNIT ( 'INCH', #99 ) LENGTH_UNIT ( ) NAMED_UNIT ( #114 ) );
ENDSEC;
END-ISO-10303-21;
