ISO-10303-21;
HEADER;
FILE_DESCRIPTION (( 'STEP AP214' ),
    '1' );
FILE_NAME ('Micro_GEMM-120-3.STEP',
    '2021-09-01T21:59:44',
    ( '' ),
    ( '' ),
    'SwSTEP 2.0',
    'SolidWorks 2020',
    '' );
FILE_SCHEMA (( 'AUTOMOTIVE_DESIGN' ));
ENDSEC;

DATA;
#1 =( GEOMETRIC_REPRESENTATION_CONTEXT ( 3 ) GLOBAL_UNCERTAINTY_ASSIGNED_CONTEXT ( ( #194 ) ) GLOBAL_UNIT_ASSIGNED_CONTEXT ( ( #77, #116, #76 ) ) REPRESENTATION_CONTEXT ( 'NONE', 'WORKASPACE' ) );
#2 = EDGE_CURVE ( 'NONE', #189, #37, #130, .T. ) ;
#3 = LINE ( 'NONE', #31, #166 ) ;
#4 = DIRECTION ( 'NONE',  ( -1.224646799147353454E-16, -0.0000000000000000000, -1.000000000000000000 ) ) ;
#5 = CARTESIAN_POINT ( 'NONE',  ( -0.2359842794999999493, 2.889973925387694330E-17, 0.8661419999999999675 ) ) ;
#6 = SURFACE_STYLE_USAGE ( .BOTH. , #263 ) ;
#7 = CONICAL_SURFACE ( 'NONE', #170, 0.2359842795000000326, 0.1745329251994338360 ) ;
#8 = PRODUCT_DEFINITION_SHAPE ( 'NONE', 'NONE',  #117 ) ;
#9 = SHAPE_DEFINITION_REPRESENTATION ( #8, #54 ) ;
#10 = VECTOR ( 'NONE', #239, 39.37007874015747433 ) ;
#11 = CARTESIAN_POINT ( 'NONE',  ( -0.2359842795000000049, 0.0000000000000000000, 5.779947850775388659E-17 ) ) ;
#12 = LENGTH_MEASURE_WITH_UNIT ( LENGTH_MEASURE( 0.02539999999999999897 ), #279 );
#13 = CIRCLE ( 'NONE', #266, 0.2362204999999999999 ) ;
#14 = ORIENTED_EDGE ( 'NONE', *, *, #197, .T. ) ;
#15 = VERTEX_POINT ( 'NONE', #187 ) ;
#16 =( NAMED_UNIT ( * ) SI_UNIT ( $, .STERADIAN. ) SOLID_ANGLE_UNIT ( ) );
#17 = DIRECTION ( 'NONE',  ( 0.1736481776669313304, 0.0000000000000000000, 0.9848077530122077983 ) ) ;
#18 = VERTEX_POINT ( 'NONE', #237 ) ;
#19 = CARTESIAN_POINT ( 'NONE',  ( 1.060718027907087028E-16, 0.0000000000000000000, 0.8661419999999999675 ) ) ;
#20 = ADVANCED_FACE ( 'NONE', ( #50 ), #114, .T. ) ;
#21 = ORIENTED_EDGE ( 'NONE', *, *, #86, .T. ) ;
#22 = AXIS2_PLACEMENT_3D ( 'NONE', #135, #152, #293 ) ;
#23 = CARTESIAN_POINT ( 'NONE',  ( 1.062358654191593257E-16, 0.0000000000000000000, 0.8674816730270707987 ) ) ;
#24 = ORIENTED_EDGE ( 'NONE', *, *, #86, .F. ) ;
#25 = ORIENTED_EDGE ( 'NONE', *, *, #139, .F. ) ;
#26 = DIRECTION ( 'NONE',  ( -1.000000000000000000, 0.0000000000000000000, 1.224646799147353454E-16 ) ) ;
#27 = DIMENSIONAL_EXPONENTS ( 1.000000000000000000, 0.0000000000000000000, 0.0000000000000000000, 0.0000000000000000000, 0.0000000000000000000, 0.0000000000000000000, 0.0000000000000000000 ) ;
#28 = DIRECTION ( 'NONE',  ( -1.000000000000000000, 0.0000000000000000000, 1.224646799147353454E-16 ) ) ;
#29 = AXIS2_PLACEMENT_3D ( 'NONE', #213, #281, #143 ) ;
#30 = CONICAL_SURFACE ( 'NONE', #247, 0.2212205000000019295, 0.7853981633974482790 ) ;
#31 = CARTESIAN_POINT ( 'NONE',  ( 0.2212205000000019295, 2.709169772307794108E-17, 3.267717000000000649 ) ) ;
#32 = ORIENTED_EDGE ( 'NONE', *, *, #163, .F. ) ;
#33 = COLOUR_RGB ( '',0.7921568627450980005, 0.8196078431372548767, 0.9333333333333333481 ) ;
#34 = SURFACE_STYLE_FILL_AREA ( #109 ) ;
#35 = APPLICATION_PROTOCOL_DEFINITION ( 'draft international standard', 'automotive_design', 1998, #254 ) ;
#36 = DIRECTION ( 'NONE',  ( 1.000000000000000000, 0.0000000000000000000, 0.0000000000000000000 ) ) ;
#37 = VERTEX_POINT ( 'NONE', #278 ) ;
#38 = CIRCLE ( 'NONE', #118, 0.2359842795000000326 ) ;
#39 = ORIENTED_EDGE ( 'NONE', *, *, #141, .T. ) ;
#40 = PLANE ( 'NONE',  #22 ) ;
#41 = EDGE_CURVE ( 'NONE', #37, #189, #51, .T. ) ;
#42 = EDGE_LOOP ( 'NONE', ( #225, #64 ) ) ;
#43 = FACE_OUTER_BOUND ( 'NONE', #173, .T. ) ;
#44 = DIRECTION ( 'NONE',  ( -1.224646799147353454E-16, -0.0000000000000000000, -1.000000000000000000 ) ) ;
#45 = CARTESIAN_POINT ( 'NONE',  ( -0.2362204999999998889, 0.0000000000000000000, 0.8674816730270707987 ) ) ;
#46 = EDGE_CURVE ( 'NONE', #154, #177, #261, .T. ) ;
#47 = CARTESIAN_POINT ( 'NONE',  ( -0.2212205000000019295, 0.0000000000000000000, 3.267717000000000649 ) ) ;
#48 = DIRECTION ( 'NONE',  ( -1.000000000000000000, 0.0000000000000000000, 0.0000000000000000000 ) ) ;
#49 = ORIENTED_EDGE ( 'NONE', *, *, #120, .F. ) ;
#50 = FACE_OUTER_BOUND ( 'NONE', #286, .T. ) ;
#51 = CIRCLE ( 'NONE', #29, 0.2362204999999999999 ) ;
#52 = DIRECTION ( 'NONE',  ( -1.224646799147353454E-16, -0.0000000000000000000, -1.000000000000000000 ) ) ;
#53 = ORIENTED_EDGE ( 'NONE', *, *, #150, .T. ) ;
#54 = ADVANCED_BREP_SHAPE_REPRESENTATION ( 'Micro_GEMM-120-3', ( #297, #172 ), #62 ) ;
#55 = VECTOR ( 'NONE', #291, 39.37007874015748143 ) ;
#56 = DIRECTION ( 'NONE',  ( -1.000000000000000000, 0.0000000000000000000, 0.0000000000000000000 ) ) ;
#57 = VECTOR ( 'NONE', #17, 39.37007874015748143 ) ;
#58 = AXIS2_PLACEMENT_3D ( 'NONE', #174, #99, #36 ) ;
#59 = ORIENTED_EDGE ( 'NONE', *, *, #163, .T. ) ;
#60 = CARTESIAN_POINT ( 'NONE',  ( 0.0000000000000000000, 0.0000000000000000000, 3.267717000000000649 ) ) ;
#61 = EDGE_CURVE ( 'NONE', #18, #251, #158, .T. ) ;
#62 =( GEOMETRIC_REPRESENTATION_CONTEXT ( 3 ) GLOBAL_UNCERTAINTY_ASSIGNED_CONTEXT ( ( #113 ) ) GLOBAL_UNIT_ASSIGNED_CONTEXT ( ( #227, #205, #179 ) ) REPRESENTATION_CONTEXT ( 'NONE', 'WORKASPACE' ) );
#63 = LINE ( 'NONE', #224, #57 ) ;
#64 = ORIENTED_EDGE ( 'NONE', *, *, #61, .T. ) ;
#65 = VECTOR ( 'NONE', #204, 39.37007874015748854 ) ;
#66 = CARTESIAN_POINT ( 'NONE',  ( 1.062358654191593257E-16, 0.0000000000000000000, 0.8674816730270707987 ) ) ;
#67 = CARTESIAN_POINT ( 'NONE',  ( 0.0000000000000000000, 0.0000000000000000000, 0.0000000000000000000 ) ) ;
#68 = CARTESIAN_POINT ( 'NONE',  ( 3.539197317345352573E-33, 0.0000000000000000000, 2.889973925387694330E-17 ) ) ;
#69 = DIRECTION ( 'NONE',  ( 1.000000000000000000, 0.0000000000000000000, 0.0000000000000000000 ) ) ;
#70 = DIRECTION ( 'NONE',  ( -0.0000000000000000000, -0.0000000000000000000, -1.000000000000000000 ) ) ;
#71 = PRODUCT_RELATED_PRODUCT_CATEGORY ( 'part', '', ( #238 ) ) ;
#72 = DIRECTION ( 'NONE',  ( -1.224646799147353454E-16, -0.0000000000000000000, -1.000000000000000000 ) ) ;
#73 = AXIS2_PLACEMENT_3D ( 'NONE', #265, #232, #230 ) ;
#74 = CARTESIAN_POINT ( 'NONE',  ( -0.2362204999999999999, 0.0000000000000000000, 3.267717000000000649 ) ) ;
#75 = PRODUCT_CONTEXT ( 'NONE', #212, 'mechanical' ) ;
#76 =( NAMED_UNIT ( * ) SI_UNIT ( $, .STERADIAN. ) SOLID_ANGLE_UNIT ( ) );
#77 =( CONVERSION_BASED_UNIT ( 'INCH', #12 ) LENGTH_UNIT ( ) NAMED_UNIT ( #260 ) );
#78 = EDGE_LOOP ( 'NONE', ( #25, #49, #21, #175 ) ) ;
#79 = PRESENTATION_STYLE_ASSIGNMENT (( #155 ) ) ;
#80 = EDGE_CURVE ( 'NONE', #251, #18, #196, .T. ) ;
#81 = ORIENTED_EDGE ( 'NONE', *, *, #146, .F. ) ;
#82 = LENGTH_MEASURE_WITH_UNIT ( LENGTH_MEASURE( 0.02539999999999999897 ), #270 );
#83 = DIRECTION ( 'NONE',  ( -1.224646799147353454E-16, -0.0000000000000000000, -1.000000000000000000 ) ) ;
#84 = AXIS2_PLACEMENT_3D ( 'NONE', #188, #161, #257 ) ;
#85 = CARTESIAN_POINT ( 'NONE',  ( 0.0000000000000000000, 0.0000000000000000000, 3.267717000000000649 ) ) ;
#86 = EDGE_CURVE ( 'NONE', #182, #37, #134, .T. ) ;
#87 = CYLINDRICAL_SURFACE ( 'NONE', #123, 0.2359842795000000326 ) ;
#88 = DIRECTION ( 'NONE',  ( -0.0000000000000000000, -0.0000000000000000000, -1.000000000000000000 ) ) ;
#89 = CARTESIAN_POINT ( 'NONE',  ( -0.2212205000000019295, 0.0000000000000000000, 3.267717000000000649 ) ) ;
#90 = AXIS2_PLACEMENT_3D ( 'NONE', #264, #262, #283 ) ;
#91 = ORIENTED_EDGE ( 'NONE', *, *, #244, .F. ) ;
#92 = PRESENTATION_LAYER_ASSIGNMENT (  '', '', ( #210 ) ) ;
#93 = ADVANCED_FACE ( 'NONE', ( #236 ), #111, .T. ) ;
#94 = ORIENTED_EDGE ( 'NONE', *, *, #146, .T. ) ;
#95 = LINE ( 'NONE', #190, #218 ) ;
#96 = CARTESIAN_POINT ( 'NONE',  ( -0.2359842794999999493, 2.891420358783783796E-17, 0.8661419999999999675 ) ) ;
#97 = DIRECTION ( 'NONE',  ( 0.7071067811865474617, 8.659560562354932858E-17, -0.7071067811865474617 ) ) ;
#98 = VECTOR ( 'NONE', #44, 39.37007874015748143 ) ;
#99 = DIRECTION ( 'NONE',  ( 0.0000000000000000000, 0.0000000000000000000, 1.000000000000000000 ) ) ;
#100 = AXIS2_PLACEMENT_3D ( 'NONE', #193, #140, #184 ) ;
#101 = ORIENTED_EDGE ( 'NONE', *, *, #46, .F. ) ;
#102 = ORIENTED_EDGE ( 'NONE', *, *, #2, .T. ) ;
#103 = DIRECTION ( 'NONE',  ( 1.000000000000000000, 0.0000000000000000000, 0.0000000000000000000 ) ) ;
#104 = ORIENTED_EDGE ( 'NONE', *, *, #216, .T. ) ;
#105 = LENGTH_MEASURE_WITH_UNIT ( LENGTH_MEASURE( 0.02539999999999999897 ), #183 );
#106 = LINE ( 'NONE', #74, #233 ) ;
#107 = FACE_OUTER_BOUND ( 'NONE', #121, .T. ) ;
#108 = ORIENTED_EDGE ( 'NONE', *, *, #216, .F. ) ;
#109 = FILL_AREA_STYLE ('',( #259 ) ) ;
#110 = DIRECTION ( 'NONE',  ( -1.000000000000000000, 0.0000000000000000000, 1.224646799147353454E-16 ) ) ;
#111 = CYLINDRICAL_SURFACE ( 'NONE', #73, 0.2362204999999999999 ) ;
#112 = DIRECTION ( 'NONE',  ( 0.0000000000000000000, 0.0000000000000000000, 1.000000000000000000 ) ) ;
#113 = UNCERTAINTY_MEASURE_WITH_UNIT (LENGTH_MEASURE( 1.000000000000000082E-05 ), #227, 'distance_accuracy_value', 'NONE');
#114 = CONICAL_SURFACE ( 'NONE', #100, 0.2212205000000019295, 0.7853981633974482790 ) ;
#115 = EDGE_CURVE ( 'NONE', #37, #177, #106, .T. ) ;
#116 =( NAMED_UNIT ( * ) PLANE_ANGLE_UNIT ( ) SI_UNIT ( $, .RADIAN. ) );
#117 = PRODUCT_DEFINITION ( 'UNKNOWN', '', #267, #185 ) ;
#118 = AXIS2_PLACEMENT_3D ( 'NONE', #250, #220, #48 ) ;
#119 = FACE_OUTER_BOUND ( 'NONE', #78, .T. ) ;
#120 = EDGE_CURVE ( 'NONE', #182, #292, #178, .T. ) ;
#121 = EDGE_LOOP ( 'NONE', ( #53, #104, #221, #32 ) ) ;
#122 = DIRECTION ( 'NONE',  ( 0.0000000000000000000, 0.0000000000000000000, -1.000000000000000000 ) ) ;
#123 = AXIS2_PLACEMENT_3D ( 'NONE', #229, #83, #186 ) ;
#124 = ORIENTED_EDGE ( 'NONE', *, *, #209, .T. ) ;
#125 =( CONVERSION_BASED_UNIT ( 'INCH', #82 ) LENGTH_UNIT ( ) NAMED_UNIT ( #138 ) );
#126 = VERTEX_POINT ( 'NONE', #211 ) ;
#127 = FILL_AREA_STYLE_COLOUR ( '', #33 ) ;
#128 = FACE_OUTER_BOUND ( 'NONE', #288, .T. ) ;
#129 = ORIENTED_EDGE ( 'NONE', *, *, #120, .T. ) ;
#130 = CIRCLE ( 'NONE', #90, 0.2362204999999999999 ) ;
#131 = CIRCLE ( 'NONE', #58, 0.2212205000000019295 ) ;
#132 = DIRECTION ( 'NONE',  ( -0.0000000000000000000, -0.0000000000000000000, -1.000000000000000000 ) ) ;
#133 = CARTESIAN_POINT ( 'NONE',  ( 1.060718027907087028E-16, 0.0000000000000000000, 0.8661419999999999675 ) ) ;
#134 = LINE ( 'NONE', #47, #65 ) ;
#135 = CARTESIAN_POINT ( 'NONE',  ( 0.0000000000000000000, 0.0000000000000000000, 3.267717000000000649 ) ) ;
#136 = FACE_OUTER_BOUND ( 'NONE', #200, .T. ) ;
#137 = ORIENTED_EDGE ( 'NONE', *, *, #41, .F. ) ;
#138 = DIMENSIONAL_EXPONENTS ( 1.000000000000000000, 0.0000000000000000000, 0.0000000000000000000, 0.0000000000000000000, 0.0000000000000000000, 0.0000000000000000000, 0.0000000000000000000 ) ;
#139 = EDGE_CURVE ( 'NONE', #292, #189, #3, .T. ) ;
#140 = DIRECTION ( 'NONE',  ( 0.0000000000000000000, 0.0000000000000000000, -1.000000000000000000 ) ) ;
#141 = EDGE_CURVE ( 'NONE', #189, #126, #95, .T. ) ;
#142 = DIRECTION ( 'NONE',  ( -1.224646799147353454E-16, -0.0000000000000000000, -1.000000000000000000 ) ) ;
#143 = DIRECTION ( 'NONE',  ( 1.000000000000000000, 0.0000000000000000000, 0.0000000000000000000 ) ) ;
#144 = CIRCLE ( 'NONE', #256, 0.2359842795000000326 ) ;
#145 = EDGE_CURVE ( 'NONE', #15, #154, #144, .T. ) ;
#146 = EDGE_CURVE ( 'NONE', #177, #126, #13, .T. ) ;
#147 = AXIS2_PLACEMENT_3D ( 'NONE', #23, #294, #69 ) ;
#148 = AXIS2_PLACEMENT_3D ( 'NONE', #133, #271, #103 ) ;
#149 = ADVANCED_FACE ( 'NONE', ( #258 ), #240, .T. ) ;
#150 = EDGE_CURVE ( 'NONE', #154, #15, #38, .T. ) ;
#151 = EDGE_LOOP ( 'NONE', ( #272, #102, #201, #226 ) ) ;
#152 = DIRECTION ( 'NONE',  ( 0.0000000000000000000, 0.0000000000000000000, 1.000000000000000000 ) ) ;
#153 = CONICAL_SURFACE ( 'NONE', #148, 0.2359842795000000326, 0.1745329251994338360 ) ;
#154 = VERTEX_POINT ( 'NONE', #96 ) ;
#155 = SURFACE_STYLE_USAGE ( .BOTH. , #290 ) ;
#156 = LINE ( 'NONE', #252, #98 ) ;
#157 = ORIENTED_EDGE ( 'NONE', *, *, #46, .T. ) ;
#158 = CIRCLE ( 'NONE', #169, 0.2359842795000000049 ) ;
#159 = MECHANICAL_DESIGN_GEOMETRIC_PRESENTATION_REPRESENTATION (  '', ( #210 ), #1 ) ;
#160 = DIRECTION ( 'NONE',  ( 1.000000000000000000, 0.0000000000000000000, 0.0000000000000000000 ) ) ;
#161 = DIRECTION ( 'NONE',  ( 0.0000000000000000000, 0.0000000000000000000, 1.000000000000000000 ) ) ;
#162 = CARTESIAN_POINT ( 'NONE',  ( 3.539197317345352573E-33, 0.0000000000000000000, 2.889973925387694330E-17 ) ) ;
#163 = EDGE_CURVE ( 'NONE', #154, #251, #241, .T. ) ;
#164 = DIRECTION ( 'NONE',  ( -1.224646799147353454E-16, -0.0000000000000000000, -1.000000000000000000 ) ) ;
#165 = CARTESIAN_POINT ( 'NONE',  ( 0.0000000000000000000, 0.0000000000000000000, 3.267717000000000649 ) ) ;
#166 = VECTOR ( 'NONE', #97, 39.37007874015748854 ) ;
#167 = DIRECTION ( 'NONE',  ( 1.000000000000000000, 0.0000000000000000000, 0.0000000000000000000 ) ) ;
#168 = CARTESIAN_POINT ( 'NONE',  ( 1.060718027907087028E-16, 0.0000000000000000000, 0.8661419999999999675 ) ) ;
#169 = AXIS2_PLACEMENT_3D ( 'NONE', #68, #4, #28 ) ;
#170 = AXIS2_PLACEMENT_3D ( 'NONE', #19, #171, #268 ) ;
#171 = DIRECTION ( 'NONE',  ( 1.224646799147353454E-16, 0.0000000000000000000, 1.000000000000000000 ) ) ;
#172 = AXIS2_PLACEMENT_3D ( 'NONE', #67, #245, #243 ) ;
#173 = EDGE_LOOP ( 'NONE', ( #129, #280 ) ) ;
#174 = CARTESIAN_POINT ( 'NONE',  ( 0.0000000000000000000, 0.0000000000000000000, 3.267717000000000649 ) ) ;
#175 = ORIENTED_EDGE ( 'NONE', *, *, #2, .F. ) ;
#176 = CLOSED_SHELL ( 'NONE', ( #198, #242, #20, #149, #93, #287, #249, #285, #191, #180 ) ) ;
#177 = VERTEX_POINT ( 'NONE', #45 ) ;
#178 = CIRCLE ( 'NONE', #276, 0.2212205000000019295 ) ;
#179 =( NAMED_UNIT ( * ) SI_UNIT ( $, .STERADIAN. ) SOLID_ANGLE_UNIT ( ) );
#180 = ADVANCED_FACE ( 'NONE', ( #181 ), #208, .F. ) ;
#181 = FACE_OUTER_BOUND ( 'NONE', #42, .T. ) ;
#182 = VERTEX_POINT ( 'NONE', #89 ) ;
#183 =( LENGTH_UNIT ( ) NAMED_UNIT ( * ) SI_UNIT ( $, .METRE. ) );
#184 = DIRECTION ( 'NONE',  ( -1.000000000000000000, 0.0000000000000000000, 0.0000000000000000000 ) ) ;
#185 = PRODUCT_DEFINITION_CONTEXT ( 'detailed design', #254, 'design' ) ;
#186 = DIRECTION ( 'NONE',  ( -1.000000000000000000, 0.0000000000000000000, 1.224646799147353454E-16 ) ) ;
#187 = CARTESIAN_POINT ( 'NONE',  ( 0.2359842795000001436, 0.0000000000000000000, 0.8661419999999999675 ) ) ;
#188 = CARTESIAN_POINT ( 'NONE',  ( 0.0000000000000000000, 0.0000000000000000000, 0.0000000000000000000 ) ) ;
#189 = VERTEX_POINT ( 'NONE', #296 ) ;
#190 = CARTESIAN_POINT ( 'NONE',  ( 0.2362204999999999999, 2.892866792179872647E-17, 3.267717000000000649 ) ) ;
#191 = ADVANCED_FACE ( 'NONE', ( #136 ), #87, .T. ) ;
#192 = MECHANICAL_DESIGN_GEOMETRIC_PRESENTATION_REPRESENTATION (  '', ( #235 ), #234 ) ;
#193 = CARTESIAN_POINT ( 'NONE',  ( 0.0000000000000000000, 0.0000000000000000000, 3.267717000000000649 ) ) ;
#194 = UNCERTAINTY_MEASURE_WITH_UNIT (LENGTH_MEASURE( 1.000000000000000082E-05 ), #77, 'distance_accuracy_value', 'NONE');
#195 = PRESENTATION_STYLE_ASSIGNMENT (( #6 ) ) ;
#196 = CIRCLE ( 'NONE', #299, 0.2359842795000000049 ) ;
#197 = EDGE_CURVE ( 'NONE', #126, #177, #246, .T. ) ;
#198 = ADVANCED_FACE ( 'NONE', ( #107 ), #206, .T. ) ;
#199 = ORIENTED_EDGE ( 'NONE', *, *, #139, .T. ) ;
#200 = EDGE_LOOP ( 'NONE', ( #108, #223, #59, #248 ) ) ;
#201 = ORIENTED_EDGE ( 'NONE', *, *, #115, .T. ) ;
#202 = ORIENTED_EDGE ( 'NONE', *, *, #150, .F. ) ;
#203 = ORIENTED_EDGE ( 'NONE', *, *, #209, .F. ) ;
#204 = DIRECTION ( 'NONE',  ( -0.7071067811865474617, 0.0000000000000000000, -0.7071067811865474617 ) ) ;
#205 =( NAMED_UNIT ( * ) PLANE_ANGLE_UNIT ( ) SI_UNIT ( $, .RADIAN. ) );
#206 = CYLINDRICAL_SURFACE ( 'NONE', #228, 0.2359842795000000326 ) ;
#207 = ORIENTED_EDGE ( 'NONE', *, *, #115, .F. ) ;
#208 = PLANE ( 'NONE',  #84 ) ;
#209 = EDGE_CURVE ( 'NONE', #15, #126, #63, .T. ) ;
#210 = STYLED_ITEM ( 'NONE', ( #195 ), #54 ) ;
#211 = CARTESIAN_POINT ( 'NONE',  ( 0.2362205000000001109, 2.892866792179873879E-17, 0.8674816730270707987 ) ) ;
#212 = APPLICATION_CONTEXT ( 'automotive_design' ) ;
#213 = CARTESIAN_POINT ( 'NONE',  ( 0.0000000000000000000, 0.0000000000000000000, 3.252717000000002301 ) ) ;
#214 = UNCERTAINTY_MEASURE_WITH_UNIT (LENGTH_MEASURE( 1.000000000000000082E-05 ), #125, 'distance_accuracy_value', 'NONE');
#215 = ORIENTED_EDGE ( 'NONE', *, *, #145, .F. ) ;
#216 = EDGE_CURVE ( 'NONE', #15, #18, #156, .T. ) ;
#217 = CARTESIAN_POINT ( 'NONE',  ( -0.2359842795000000326, 0.0000000000000000000, 2.889973925387694330E-17 ) ) ;
#218 = VECTOR ( 'NONE', #88, 39.37007874015748143 ) ;
#219 = DIRECTION ( 'NONE',  ( -1.000000000000000000, 0.0000000000000000000, 0.0000000000000000000 ) ) ;
#220 = DIRECTION ( 'NONE',  ( -1.224646799147353454E-16, -0.0000000000000000000, -1.000000000000000000 ) ) ;
#221 = ORIENTED_EDGE ( 'NONE', *, *, #80, .F. ) ;
#222 = AXIS2_PLACEMENT_3D ( 'NONE', #85, #132, #56 ) ;
#223 = ORIENTED_EDGE ( 'NONE', *, *, #145, .T. ) ;
#224 = CARTESIAN_POINT ( 'NONE',  ( 0.2359842795000001436, 0.0000000000000000000, 0.8661419999999999675 ) ) ;
#225 = ORIENTED_EDGE ( 'NONE', *, *, #80, .T. ) ;
#226 = ORIENTED_EDGE ( 'NONE', *, *, #197, .F. ) ;
#227 =( CONVERSION_BASED_UNIT ( 'INCH', #105 ) LENGTH_UNIT ( ) NAMED_UNIT ( #27 ) );
#228 = AXIS2_PLACEMENT_3D ( 'NONE', #277, #164, #26 ) ;
#229 = CARTESIAN_POINT ( 'NONE',  ( 0.0000000000000000000, 0.0000000000000000000, 0.0000000000000000000 ) ) ;
#230 = DIRECTION ( 'NONE',  ( -1.000000000000000000, 0.0000000000000000000, 0.0000000000000000000 ) ) ;
#231 =( NAMED_UNIT ( * ) PLANE_ANGLE_UNIT ( ) SI_UNIT ( $, .RADIAN. ) );
#232 = DIRECTION ( 'NONE',  ( -0.0000000000000000000, -0.0000000000000000000, -1.000000000000000000 ) ) ;
#233 = VECTOR ( 'NONE', #70, 39.37007874015748143 ) ;
#234 =( GEOMETRIC_REPRESENTATION_CONTEXT ( 3 ) GLOBAL_UNCERTAINTY_ASSIGNED_CONTEXT ( ( #214 ) ) GLOBAL_UNIT_ASSIGNED_CONTEXT ( ( #125, #231, #16 ) ) REPRESENTATION_CONTEXT ( 'NONE', 'WORKASPACE' ) );
#235 = STYLED_ITEM ( 'NONE', ( #79 ), #297 ) ;
#236 = FACE_OUTER_BOUND ( 'NONE', #151, .T. ) ;
#237 = CARTESIAN_POINT ( 'NONE',  ( 0.2359842795000000049, 2.889973925387693713E-17, -3.791200677927629740E-33 ) ) ;
#238 = PRODUCT ( 'Micro_GEMM-120-3', 'Micro_GEMM-120-3', '', ( #75 ) ) ;
#239 = DIRECTION ( 'NONE',  ( -0.1736481776669311639, 2.126576849575782392E-17, 0.9848077530122080203 ) ) ;
#240 = CYLINDRICAL_SURFACE ( 'NONE', #222, 0.2362204999999999999 ) ;
#241 = LINE ( 'NONE', #217, #55 ) ;
#242 = ADVANCED_FACE ( 'NONE', ( #128 ), #7, .T. ) ;
#243 = DIRECTION ( 'NONE',  ( 1.000000000000000000, 0.0000000000000000000, 0.0000000000000000000 ) ) ;
#244 = EDGE_CURVE ( 'NONE', #292, #182, #131, .T. ) ;
#245 = DIRECTION ( 'NONE',  ( 0.0000000000000000000, 0.0000000000000000000, 1.000000000000000000 ) ) ;
#246 = CIRCLE ( 'NONE', #147, 0.2362204999999999999 ) ;
#247 = AXIS2_PLACEMENT_3D ( 'NONE', #60, #122, #219 ) ;
#248 = ORIENTED_EDGE ( 'NONE', *, *, #61, .F. ) ;
#249 = ADVANCED_FACE ( 'NONE', ( #119 ), #30, .T. ) ;
#250 = CARTESIAN_POINT ( 'NONE',  ( 1.060718027907087028E-16, 0.0000000000000000000, 0.8661419999999999675 ) ) ;
#251 = VERTEX_POINT ( 'NONE', #11 ) ;
#252 = CARTESIAN_POINT ( 'NONE',  ( 0.2359842795000000326, 2.889973925387694330E-17, -2.889973925387694330E-17 ) ) ;
#253 = CARTESIAN_POINT ( 'NONE',  ( 0.2212205000000019295, 2.801018282243833685E-17, 3.267717000000000649 ) ) ;
#254 = APPLICATION_CONTEXT ( 'automotive_design' ) ;
#255 = APPLICATION_PROTOCOL_DEFINITION ( 'draft international standard', 'automotive_design', 1998, #212 ) ;
#256 = AXIS2_PLACEMENT_3D ( 'NONE', #168, #72, #274 ) ;
#257 = DIRECTION ( 'NONE',  ( 1.000000000000000000, 0.0000000000000000000, -0.0000000000000000000 ) ) ;
#258 = FACE_OUTER_BOUND ( 'NONE', #295, .T. ) ;
#259 = FILL_AREA_STYLE_COLOUR ( '', #282 ) ;
#260 = DIMENSIONAL_EXPONENTS ( 1.000000000000000000, 0.0000000000000000000, 0.0000000000000000000, 0.0000000000000000000, 0.0000000000000000000, 0.0000000000000000000, 0.0000000000000000000 ) ;
#261 = LINE ( 'NONE', #5, #10 ) ;
#262 = DIRECTION ( 'NONE',  ( 0.0000000000000000000, 0.0000000000000000000, -1.000000000000000000 ) ) ;
#263 = SURFACE_SIDE_STYLE ('',( #34 ) ) ;
#264 = CARTESIAN_POINT ( 'NONE',  ( 0.0000000000000000000, 0.0000000000000000000, 3.252717000000002301 ) ) ;
#265 = CARTESIAN_POINT ( 'NONE',  ( 0.0000000000000000000, 0.0000000000000000000, 3.267717000000000649 ) ) ;
#266 = AXIS2_PLACEMENT_3D ( 'NONE', #66, #142, #160 ) ;
#267 = PRODUCT_DEFINITION_FORMATION_WITH_SPECIFIED_SOURCE ( 'ANY', '', #238, .NOT_KNOWN. ) ;
#268 = DIRECTION ( 'NONE',  ( 1.000000000000000000, 0.0000000000000000000, 0.0000000000000000000 ) ) ;
#269 = ORIENTED_EDGE ( 'NONE', *, *, #41, .T. ) ;
#270 =( LENGTH_UNIT ( ) NAMED_UNIT ( * ) SI_UNIT ( $, .METRE. ) );
#271 = DIRECTION ( 'NONE',  ( 1.224646799147353454E-16, 0.0000000000000000000, 1.000000000000000000 ) ) ;
#272 = ORIENTED_EDGE ( 'NONE', *, *, #141, .F. ) ;
#273 = FILL_AREA_STYLE ('',( #127 ) ) ;
#274 = DIRECTION ( 'NONE',  ( -1.000000000000000000, 0.0000000000000000000, 0.0000000000000000000 ) ) ;
#275 = FACE_OUTER_BOUND ( 'NONE', #298, .T. ) ;
#276 = AXIS2_PLACEMENT_3D ( 'NONE', #165, #112, #167 ) ;
#277 = CARTESIAN_POINT ( 'NONE',  ( 0.0000000000000000000, 0.0000000000000000000, 0.0000000000000000000 ) ) ;
#278 = CARTESIAN_POINT ( 'NONE',  ( -0.2362204999999999999, 0.0000000000000000000, 3.252717000000002301 ) ) ;
#279 =( LENGTH_UNIT ( ) NAMED_UNIT ( * ) SI_UNIT ( $, .METRE. ) );
#280 = ORIENTED_EDGE ( 'NONE', *, *, #244, .T. ) ;
#281 = DIRECTION ( 'NONE',  ( 0.0000000000000000000, 0.0000000000000000000, -1.000000000000000000 ) ) ;
#282 = COLOUR_RGB ( '',0.7921568627450980005, 0.8196078431372548767, 0.9333333333333333481 ) ;
#283 = DIRECTION ( 'NONE',  ( 1.000000000000000000, 0.0000000000000000000, 0.0000000000000000000 ) ) ;
#284 = PRESENTATION_LAYER_ASSIGNMENT (  '', '', ( #235 ) ) ;
#285 = ADVANCED_FACE ( 'NONE', ( #275 ), #153, .T. ) ;
#286 = EDGE_LOOP ( 'NONE', ( #91, #199, #137, #24 ) ) ;
#287 = ADVANCED_FACE ( 'NONE', ( #43 ), #40, .T. ) ;
#288 = EDGE_LOOP ( 'NONE', ( #202, #157, #94, #203 ) ) ;
#289 = SURFACE_STYLE_FILL_AREA ( #273 ) ;
#290 = SURFACE_SIDE_STYLE ('',( #289 ) ) ;
#291 = DIRECTION ( 'NONE',  ( -1.224646799147353454E-16, -0.0000000000000000000, -1.000000000000000000 ) ) ;
#292 = VERTEX_POINT ( 'NONE', #253 ) ;
#293 = DIRECTION ( 'NONE',  ( 1.000000000000000000, 0.0000000000000000000, -0.0000000000000000000 ) ) ;
#294 = DIRECTION ( 'NONE',  ( -1.224646799147353454E-16, -0.0000000000000000000, -1.000000000000000000 ) ) ;
#295 = EDGE_LOOP ( 'NONE', ( #269, #39, #81, #207 ) ) ;
#296 = CARTESIAN_POINT ( 'NONE',  ( 0.2362204999999999999, 2.892866792179872647E-17, 3.252717000000002301 ) ) ;
#297 = MANIFOLD_SOLID_BREP ( 'Cut-Revolve1', #176 ) ;
#298 = EDGE_LOOP ( 'NONE', ( #101, #215, #124, #14 ) ) ;
#299 = AXIS2_PLACEMENT_3D ( 'NONE', #162, #52, #110 ) ;
ENDSEC;
END-ISO-10303-21;
