ISO-10303-21;
HEADER;
FILE_DESCRIPTION (( 'STEP AP214' ),
    '1' );
FILE_NAME ('Micro_GEM-046-4.STEP',
    '2021-09-01T18:55:37',
    ( '' ),
    ( '' ),
    'SwSTEP 2.0',
    'SolidWorks 2020',
    '' );
FILE_SCHEMA (( 'AUTOMOTIVE_DESIGN' ));
ENDSEC;

DATA;
#1 =( CONVERSION_BASED_UNIT ( 'INCH', #42 ) LENGTH_UNIT ( ) NAMED_UNIT ( #99 ) );
#2 = UNCERTAINTY_MEASURE_WITH_UNIT (LENGTH_MEASURE( 1.000000000000000082E-05 ), #88, 'distance_accuracy_value', 'NONE');
#3 = CARTESIAN_POINT ( 'NONE',  ( -0.02342654999999998350, 2.868924947256542179E-18, 0.1089999999999999997 ) ) ;
#4 = DIRECTION ( 'NONE',  ( 0.0000000000000000000, 0.0000000000000000000, -1.000000000000000000 ) ) ;
#5 = ORIENTED_EDGE ( 'NONE', *, *, #204, .T. ) ;
#6 = CIRCLE ( 'NONE', #226, 0.06250000000000002776 ) ;
#7 = DIRECTION ( 'NONE',  ( -1.224646799147353700E-16, -0.0000000000000000000, -1.000000000000000000 ) ) ;
#8 = ORIENTED_EDGE ( 'NONE', *, *, #272, .T. ) ;
#9 = EDGE_LOOP ( 'NONE', ( #267, #74, #68, #196 ) ) ;
#10 =( NAMED_UNIT ( * ) PLANE_ANGLE_UNIT ( ) SI_UNIT ( $, .RADIAN. ) );
#11 = ADVANCED_BREP_SHAPE_REPRESENTATION ( 'Micro_GEM-046-4', ( #213, #249 ), #152 ) ;
#12 = DIRECTION ( 'NONE',  ( 1.000000000000000000, 0.0000000000000000000, 0.0000000000000000000 ) ) ;
#13 = DIRECTION ( 'NONE',  ( 0.1736481776669313859, 0.0000000000000000000, 0.9848077530122077983 ) ) ;
#14 = CARTESIAN_POINT ( 'NONE',  ( 3.513419753651716505E-34, 0.0000000000000000000, 2.868924947256543719E-18 ) ) ;
#15 = FACE_OUTER_BOUND ( 'NONE', #81, .T. ) ;
#16 = PLANE ( 'NONE',  #290 ) ;
#17 = DIRECTION ( 'NONE',  ( -1.000000000000000000, 0.0000000000000000000, 0.0000000000000000000 ) ) ;
#18 = AXIS2_PLACEMENT_3D ( 'NONE', #216, #217, #107 ) ;
#19 = FILL_AREA_STYLE_COLOUR ( '', #261 ) ;
#20 = SURFACE_STYLE_FILL_AREA ( #44 ) ;
#21 = ORIENTED_EDGE ( 'NONE', *, *, #89, .T. ) ;
#22 = CARTESIAN_POINT ( 'NONE',  ( -0.02342655000000000085, 0.0000000000000000000, 5.737849894513087439E-18 ) ) ;
#23 = CONICAL_SURFACE ( 'NONE', #200, 0.02342654999999999391, 0.1745329251994338915 ) ;
#24 = DIRECTION ( 'NONE',  ( 1.000000000000000000, 0.0000000000000000000, 0.0000000000000000000 ) ) ;
#25 = DIRECTION ( 'NONE',  ( 1.000000000000000000, 0.0000000000000000000, 0.0000000000000000000 ) ) ;
#26 = PRODUCT_RELATED_PRODUCT_CATEGORY ( 'part', '', ( #296 ) ) ;
#27 = CARTESIAN_POINT ( 'NONE',  ( 0.0000000000000000000, 0.0000000000000000000, 0.0000000000000000000 ) ) ;
#28 = CARTESIAN_POINT ( 'NONE',  ( 1.334865011070615584E-17, 0.0000000000000000000, 0.1089999999999999997 ) ) ;
#29 =( NAMED_UNIT ( * ) SI_UNIT ( $, .STERADIAN. ) SOLID_ANGLE_UNIT ( ) );
#30 = CARTESIAN_POINT ( 'NONE',  ( 0.0000000000000000000, 0.0000000000000000000, 0.0000000000000000000 ) ) ;
#31 = ORIENTED_EDGE ( 'NONE', *, *, #52, .T. ) ;
#32 =( GEOMETRIC_REPRESENTATION_CONTEXT ( 3 ) GLOBAL_UNCERTAINTY_ASSIGNED_CONTEXT ( ( #2 ) ) GLOBAL_UNIT_ASSIGNED_CONTEXT ( ( #88, #269, #60 ) ) REPRESENTATION_CONTEXT ( 'NONE', 'WORKASPACE' ) );
#33 = CARTESIAN_POINT ( 'NONE',  ( -0.02342654999999998350, 5.261483720963751017E-18, 0.1089999999999999997 ) ) ;
#34 = EDGE_CURVE ( 'NONE', #211, #262, #188, .T. ) ;
#35 = FACE_OUTER_BOUND ( 'NONE', #299, .T. ) ;
#36 = STYLED_ITEM ( 'NONE', ( #228 ), #213 ) ;
#37 = DIRECTION ( 'NONE',  ( 1.000000000000000000, 0.0000000000000000000, 0.0000000000000000000 ) ) ;
#38 = EDGE_CURVE ( 'NONE', #170, #142, #129, .T. ) ;
#39 = CARTESIAN_POINT ( 'NONE',  ( 1.334865011070615584E-17, 0.0000000000000000000, 0.1089999999999999997 ) ) ;
#40 = CIRCLE ( 'NONE', #18, 0.06250000000000002776 ) ;
#41 = CARTESIAN_POINT ( 'NONE',  ( 0.02342655000000000085, 2.868924947256542564E-18, -2.868924947256543719E-18 ) ) ;
#42 = LENGTH_MEASURE_WITH_UNIT ( LENGTH_MEASURE( 0.02539999999999999897 ), #281 );
#43 = VERTEX_POINT ( 'NONE', #153 ) ;
#44 = FILL_AREA_STYLE ('',( #231 ) ) ;
#45 = ORIENTED_EDGE ( 'NONE', *, *, #76, .T. ) ;
#46 = AXIS2_PLACEMENT_3D ( 'NONE', #51, #126, #285 ) ;
#47 = AXIS2_PLACEMENT_3D ( 'NONE', #234, #4, #183 ) ;
#48 = DIRECTION ( 'NONE',  ( -1.224646799147353700E-16, -0.0000000000000000000, -1.000000000000000000 ) ) ;
#49 = AXIS2_PLACEMENT_3D ( 'NONE', #50, #288, #130 ) ;
#50 = CARTESIAN_POINT ( 'NONE',  ( 3.513419753651716505E-34, 0.0000000000000000000, 2.868924947256543719E-18 ) ) ;
#51 = CARTESIAN_POINT ( 'NONE',  ( 1.334865011070615584E-17, 0.0000000000000000000, 0.1089999999999999997 ) ) ;
#52 = EDGE_CURVE ( 'NONE', #142, #279, #6, .T. ) ;
#53 = VERTEX_POINT ( 'NONE', #33 ) ;
#54 = ORIENTED_EDGE ( 'NONE', *, *, #89, .F. ) ;
#55 =( GEOMETRIC_REPRESENTATION_CONTEXT ( 3 ) GLOBAL_UNCERTAINTY_ASSIGNED_CONTEXT ( ( #185 ) ) GLOBAL_UNIT_ASSIGNED_CONTEXT ( ( #148, #10, #29 ) ) REPRESENTATION_CONTEXT ( 'NONE', 'WORKASPACE' ) );
#56 = ORIENTED_EDGE ( 'NONE', *, *, #34, .T. ) ;
#57 = ADVANCED_FACE ( 'NONE', ( #241 ), #85, .T. ) ;
#58 = CARTESIAN_POINT ( 'NONE',  ( 0.0000000000000000000, 0.0000000000000000000, 1.500000000000000222 ) ) ;
#59 = EDGE_CURVE ( 'NONE', #170, #53, #165, .T. ) ;
#60 =( NAMED_UNIT ( * ) SI_UNIT ( $, .STERADIAN. ) SOLID_ANGLE_UNIT ( ) );
#61 = EDGE_CURVE ( 'NONE', #279, #142, #220, .T. ) ;
#62 = CYLINDRICAL_SURFACE ( 'NONE', #132, 0.02342655000000000085 ) ;
#63 = CARTESIAN_POINT ( 'NONE',  ( 0.0000000000000000000, 0.0000000000000000000, 1.500000000000000222 ) ) ;
#64 = DIRECTION ( 'NONE',  ( -0.0000000000000000000, -0.0000000000000000000, -1.000000000000000000 ) ) ;
#65 = VECTOR ( 'NONE', #271, 39.37007874015748143 ) ;
#66 = CIRCLE ( 'NONE', #47, 0.06250000000000002776 ) ;
#67 = LINE ( 'NONE', #41, #258 ) ;
#68 = ORIENTED_EDGE ( 'NONE', *, *, #61, .T. ) ;
#69 = LINE ( 'NONE', #122, #201 ) ;
#70 = PRODUCT_DEFINITION_CONTEXT ( 'detailed design', #134, 'design' ) ;
#71 = VECTOR ( 'NONE', #182, 39.37007874015748143 ) ;
#72 = CIRCLE ( 'NONE', #139, 0.02342654999999999391 ) ;
#73 = CARTESIAN_POINT ( 'NONE',  ( 0.0000000000000000000, 0.0000000000000000000, 0.0000000000000000000 ) ) ;
#74 = ORIENTED_EDGE ( 'NONE', *, *, #263, .T. ) ;
#75 = DIRECTION ( 'NONE',  ( -1.224646799147353700E-16, -0.0000000000000000000, -1.000000000000000000 ) ) ;
#76 = EDGE_CURVE ( 'NONE', #286, #240, #194, .T. ) ;
#77 = ORIENTED_EDGE ( 'NONE', *, *, #219, .F. ) ;
#78 = ORIENTED_EDGE ( 'NONE', *, *, #61, .F. ) ;
#79 = VECTOR ( 'NONE', #223, 39.37007874015748854 ) ;
#80 = EDGE_CURVE ( 'NONE', #262, #211, #233, .T. ) ;
#81 = EDGE_LOOP ( 'NONE', ( #5, #259 ) ) ;
#82 = FILL_AREA_STYLE ('',( #19 ) ) ;
#83 = DIRECTION ( 'NONE',  ( 0.0000000000000000000, 0.0000000000000000000, 1.000000000000000000 ) ) ;
#84 = SURFACE_SIDE_STYLE ('',( #179 ) ) ;
#85 = CONICAL_SURFACE ( 'NONE', #160, 0.02342654999999999391, 0.1745329251994338915 ) ;
#86 = CONICAL_SURFACE ( 'NONE', #205, 0.04750000000000064587, 0.7853981633974466137 ) ;
#87 = CYLINDRICAL_SURFACE ( 'NONE', #284, 0.06250000000000002776 ) ;
#88 =( CONVERSION_BASED_UNIT ( 'INCH', #297 ) LENGTH_UNIT ( ) NAMED_UNIT ( #232 ) );
#89 = EDGE_CURVE ( 'NONE', #43, #240, #40, .T. ) ;
#90 = ORIENTED_EDGE ( 'NONE', *, *, #76, .F. ) ;
#91 = AXIS2_PLACEMENT_3D ( 'NONE', #30, #127, #218 ) ;
#92 = DIRECTION ( 'NONE',  ( -0.7071067811865462405, 0.0000000000000000000, -0.7071067811865486830 ) ) ;
#93 = PRESENTATION_STYLE_ASSIGNMENT (( #116 ) ) ;
#94 = ORIENTED_EDGE ( 'NONE', *, *, #197, .T. ) ;
#95 = CARTESIAN_POINT ( 'NONE',  ( -0.06249999999999997918, 0.0000000000000000000, 0.3305965466147405274 ) ) ;
#96 = EDGE_LOOP ( 'NONE', ( #123, #151, #125, #187 ) ) ;
#97 = CARTESIAN_POINT ( 'NONE',  ( 0.06250000000000002776, 7.654042494670959086E-18, 1.485000000000000764 ) ) ;
#98 = ORIENTED_EDGE ( 'NONE', *, *, #121, .F. ) ;
#99 = DIMENSIONAL_EXPONENTS ( 1.000000000000000000, 0.0000000000000000000, 0.0000000000000000000, 0.0000000000000000000, 0.0000000000000000000, 0.0000000000000000000, 0.0000000000000000000 ) ;
#100 = PRODUCT_CONTEXT ( 'NONE', #164, 'mechanical' ) ;
#101 = DIRECTION ( 'NONE',  ( 1.224646799147353700E-16, 0.0000000000000000000, 1.000000000000000000 ) ) ;
#102 = ADVANCED_FACE ( 'NONE', ( #264 ), #149, .F. ) ;
#103 = AXIS2_PLACEMENT_3D ( 'NONE', #159, #253, #133 ) ;
#104 = APPLICATION_PROTOCOL_DEFINITION ( 'draft international standard', 'automotive_design', 1998, #134 ) ;
#105 = ORIENTED_EDGE ( 'NONE', *, *, #251, .F. ) ;
#106 = CARTESIAN_POINT ( 'NONE',  ( 4.048640026209108604E-17, 0.0000000000000000000, 0.3305965466147405274 ) ) ;
#107 = DIRECTION ( 'NONE',  ( 1.000000000000000000, 0.0000000000000000000, 0.0000000000000000000 ) ) ;
#108 = AXIS2_PLACEMENT_3D ( 'NONE', #225, #83, #291 ) ;
#109 = AXIS2_PLACEMENT_3D ( 'NONE', #73, #48, #145 ) ;
#110 = DIRECTION ( 'NONE',  ( 1.000000000000000000, 0.0000000000000000000, -0.0000000000000000000 ) ) ;
#111 = CYLINDRICAL_SURFACE ( 'NONE', #244, 0.06250000000000002776 ) ;
#112 = ADVANCED_FACE ( 'NONE', ( #181 ), #111, .T. ) ;
#113 = CARTESIAN_POINT ( 'NONE',  ( 0.0000000000000000000, 0.0000000000000000000, 1.500000000000000222 ) ) ;
#114 = CIRCLE ( 'NONE', #280, 0.04750000000000064587 ) ;
#115 = VECTOR ( 'NONE', #214, 39.37007874015747433 ) ;
#116 = SURFACE_STYLE_USAGE ( .BOTH. , #212 ) ;
#117 = ORIENTED_EDGE ( 'NONE', *, *, #263, .F. ) ;
#118 = ORIENTED_EDGE ( 'NONE', *, *, #277, .F. ) ;
#119 = PRESENTATION_LAYER_ASSIGNMENT (  '', '', ( #221 ) ) ;
#120 = CYLINDRICAL_SURFACE ( 'NONE', #109, 0.02342655000000000085 ) ;
#121 = EDGE_CURVE ( 'NONE', #240, #142, #157, .T. ) ;
#122 = CARTESIAN_POINT ( 'NONE',  ( -0.04750000000000064587, 0.0000000000000000000, 1.500000000000000222 ) ) ;
#123 = ORIENTED_EDGE ( 'NONE', *, *, #272, .F. ) ;
#124 = CONICAL_SURFACE ( 'NONE', #103, 0.04750000000000064587, 0.7853981633974466137 ) ;
#125 = ORIENTED_EDGE ( 'NONE', *, *, #251, .T. ) ;
#126 = DIRECTION ( 'NONE',  ( -1.224646799147353700E-16, -0.0000000000000000000, -1.000000000000000000 ) ) ;
#127 = DIRECTION ( 'NONE',  ( 0.0000000000000000000, 0.0000000000000000000, 1.000000000000000000 ) ) ;
#128 = VECTOR ( 'NONE', #13, 39.37007874015748143 ) ;
#129 = LINE ( 'NONE', #147, #128 ) ;
#130 = DIRECTION ( 'NONE',  ( -1.000000000000000000, 0.0000000000000000000, 1.224646799147353700E-16 ) ) ;
#131 = DIRECTION ( 'NONE',  ( -1.000000000000000000, 0.0000000000000000000, 0.0000000000000000000 ) ) ;
#132 = AXIS2_PLACEMENT_3D ( 'NONE', #230, #158, #252 ) ;
#133 = DIRECTION ( 'NONE',  ( -1.000000000000000000, 0.0000000000000000000, 0.0000000000000000000 ) ) ;
#134 = APPLICATION_CONTEXT ( 'automotive_design' ) ;
#135 = FACE_OUTER_BOUND ( 'NONE', #96, .T. ) ;
#136 = AXIS2_PLACEMENT_3D ( 'NONE', #106, #154, #25 ) ;
#137 = DIRECTION ( 'NONE',  ( 1.224646799147353700E-16, 0.0000000000000000000, 1.000000000000000000 ) ) ;
#138 = CLOSED_SHELL ( 'NONE', ( #287, #178, #224, #112, #191, #184, #176, #57, #210, #102 ) ) ;
#139 = AXIS2_PLACEMENT_3D ( 'NONE', #161, #7, #238 ) ;
#140 = ORIENTED_EDGE ( 'NONE', *, *, #38, .T. ) ;
#141 = DIRECTION ( 'NONE',  ( 0.0000000000000000000, 0.0000000000000000000, -1.000000000000000000 ) ) ;
#142 = VERTEX_POINT ( 'NONE', #270 ) ;
#143 = UNCERTAINTY_MEASURE_WITH_UNIT (LENGTH_MEASURE( 1.000000000000000082E-05 ), #1, 'distance_accuracy_value', 'NONE');
#144 = EDGE_LOOP ( 'NONE', ( #289, #56 ) ) ;
#145 = DIRECTION ( 'NONE',  ( -1.000000000000000000, 0.0000000000000000000, 1.224646799147353700E-16 ) ) ;
#146 = ORIENTED_EDGE ( 'NONE', *, *, #80, .F. ) ;
#147 = CARTESIAN_POINT ( 'NONE',  ( 0.02342655000000000778, 0.0000000000000000000, 0.1089999999999999997 ) ) ;
#148 =( CONVERSION_BASED_UNIT ( 'INCH', #171 ) LENGTH_UNIT ( ) NAMED_UNIT ( #256 ) );
#149 = PLANE ( 'NONE',  #91 ) ;
#150 = SHAPE_DEFINITION_REPRESENTATION ( #180, #11 ) ;
#151 = ORIENTED_EDGE ( 'NONE', *, *, #59, .T. ) ;
#152 =( GEOMETRIC_REPRESENTATION_CONTEXT ( 3 ) GLOBAL_UNCERTAINTY_ASSIGNED_CONTEXT ( ( #143 ) ) GLOBAL_UNIT_ASSIGNED_CONTEXT ( ( #1, #254, #236 ) ) REPRESENTATION_CONTEXT ( 'NONE', 'WORKASPACE' ) );
#153 = CARTESIAN_POINT ( 'NONE',  ( -0.06250000000000002776, 0.0000000000000000000, 1.485000000000000764 ) ) ;
#154 = DIRECTION ( 'NONE',  ( -1.224646799147353700E-16, -0.0000000000000000000, -1.000000000000000000 ) ) ;
#155 = DIRECTION ( 'NONE',  ( -0.0000000000000000000, -0.0000000000000000000, -1.000000000000000000 ) ) ;
#156 = PRESENTATION_LAYER_ASSIGNMENT (  '', '', ( #36 ) ) ;
#157 = LINE ( 'NONE', #175, #71 ) ;
#158 = DIRECTION ( 'NONE',  ( -1.224646799147353700E-16, -0.0000000000000000000, -1.000000000000000000 ) ) ;
#159 = CARTESIAN_POINT ( 'NONE',  ( 0.0000000000000000000, 0.0000000000000000000, 1.500000000000000222 ) ) ;
#160 = AXIS2_PLACEMENT_3D ( 'NONE', #28, #101, #242 ) ;
#161 = CARTESIAN_POINT ( 'NONE',  ( 1.334865011070615584E-17, 0.0000000000000000000, 0.1089999999999999997 ) ) ;
#162 = EDGE_LOOP ( 'NONE', ( #265, #8, #146, #105 ) ) ;
#163 = EDGE_CURVE ( 'NONE', #286, #276, #114, .T. ) ;
#164 = APPLICATION_CONTEXT ( 'automotive_design' ) ;
#165 = CIRCLE ( 'NONE', #46, 0.02342654999999999391 ) ;
#166 = COLOUR_RGB ( '',0.7921568627450980005, 0.8196078431372548767, 0.9333333333333333481 ) ;
#167 = PRODUCT_DEFINITION ( 'UNKNOWN', '', #294, #70 ) ;
#168 = EDGE_LOOP ( 'NONE', ( #21, #274, #78, #193 ) ) ;
#169 = DIRECTION ( 'NONE',  ( -1.000000000000000000, 0.0000000000000000000, 1.224646799147353700E-16 ) ) ;
#170 = VERTEX_POINT ( 'NONE', #248 ) ;
#171 = LENGTH_MEASURE_WITH_UNIT ( LENGTH_MEASURE( 0.02539999999999999897 ), #257 );
#172 = ORIENTED_EDGE ( 'NONE', *, *, #52, .F. ) ;
#173 = AXIS2_PLACEMENT_3D ( 'NONE', #14, #75, #169 ) ;
#174 = CARTESIAN_POINT ( 'NONE',  ( 4.048640026209108604E-17, 0.0000000000000000000, 0.3305965466147405274 ) ) ;
#175 = CARTESIAN_POINT ( 'NONE',  ( 0.06250000000000002776, 7.654042494670959086E-18, 1.500000000000000222 ) ) ;
#176 = ADVANCED_FACE ( 'NONE', ( #35 ), #124, .T. ) ;
#177 = CARTESIAN_POINT ( 'NONE',  ( 0.02342655000000000085, 2.868924947256542564E-18, 0.0000000000000000000 ) ) ;
#178 = ADVANCED_FACE ( 'NONE', ( #227 ), #23, .T. ) ;
#179 = SURFACE_STYLE_FILL_AREA ( #82 ) ;
#180 = PRODUCT_DEFINITION_SHAPE ( 'NONE', 'NONE',  #167 ) ;
#181 = FACE_OUTER_BOUND ( 'NONE', #168, .T. ) ;
#182 = DIRECTION ( 'NONE',  ( -0.0000000000000000000, -0.0000000000000000000, -1.000000000000000000 ) ) ;
#183 = DIRECTION ( 'NONE',  ( 1.000000000000000000, 0.0000000000000000000, 0.0000000000000000000 ) ) ;
#184 = ADVANCED_FACE ( 'NONE', ( #15 ), #16, .T. ) ;
#185 = UNCERTAINTY_MEASURE_WITH_UNIT (LENGTH_MEASURE( 1.000000000000000082E-05 ), #148, 'distance_accuracy_value', 'NONE');
#186 = DIRECTION ( 'NONE',  ( -1.000000000000000000, 0.0000000000000000000, 0.0000000000000000000 ) ) ;
#187 = ORIENTED_EDGE ( 'NONE', *, *, #34, .F. ) ;
#188 = CIRCLE ( 'NONE', #49, 0.02342655000000000085 ) ;
#189 = MECHANICAL_DESIGN_GEOMETRIC_PRESENTATION_REPRESENTATION (  '', ( #221 ), #55 ) ;
#190 = DIRECTION ( 'NONE',  ( -1.224646799147353700E-16, -0.0000000000000000000, -1.000000000000000000 ) ) ;
#191 = ADVANCED_FACE ( 'NONE', ( #229 ), #87, .T. ) ;
#192 = DIRECTION ( 'NONE',  ( 0.0000000000000000000, 0.0000000000000000000, 1.000000000000000000 ) ) ;
#193 = ORIENTED_EDGE ( 'NONE', *, *, #197, .F. ) ;
#194 = LINE ( 'NONE', #198, #79 ) ;
#195 = VECTOR ( 'NONE', #273, 39.37007874015748143 ) ;
#196 = ORIENTED_EDGE ( 'NONE', *, *, #38, .F. ) ;
#197 = EDGE_CURVE ( 'NONE', #43, #279, #250, .T. ) ;
#198 = CARTESIAN_POINT ( 'NONE',  ( 0.04750000000000064587, 5.817072295950006528E-18, 1.500000000000000222 ) ) ;
#199 = ORIENTED_EDGE ( 'NONE', *, *, #277, .T. ) ;
#200 = AXIS2_PLACEMENT_3D ( 'NONE', #39, #137, #37 ) ;
#201 = VECTOR ( 'NONE', #92, 39.37007874015748854 ) ;
#202 = CARTESIAN_POINT ( 'NONE',  ( -0.06250000000000002776, 0.0000000000000000000, 1.500000000000000222 ) ) ;
#203 = DIRECTION ( 'NONE',  ( 1.000000000000000000, 0.0000000000000000000, 0.0000000000000000000 ) ) ;
#204 = EDGE_CURVE ( 'NONE', #276, #286, #239, .T. ) ;
#205 = AXIS2_PLACEMENT_3D ( 'NONE', #260, #141, #186 ) ;
#206 = DIRECTION ( 'NONE',  ( 0.0000000000000000000, 0.0000000000000000000, 1.000000000000000000 ) ) ;
#207 =( LENGTH_UNIT ( ) NAMED_UNIT ( * ) SI_UNIT ( $, .METRE. ) );
#208 = LINE ( 'NONE', #298, #195 ) ;
#209 = ORIENTED_EDGE ( 'NONE', *, *, #163, .F. ) ;
#210 = ADVANCED_FACE ( 'NONE', ( #135 ), #62, .T. ) ;
#211 = VERTEX_POINT ( 'NONE', #177 ) ;
#212 = SURFACE_SIDE_STYLE ('',( #20 ) ) ;
#213 = MANIFOLD_SOLID_BREP ( 'Cut-Revolve1', #138 ) ;
#214 = DIRECTION ( 'NONE',  ( -0.1736481776669311916, 2.126576849575783316E-17, 0.9848077530122080203 ) ) ;
#215 = LINE ( 'NONE', #3, #115 ) ;
#216 = CARTESIAN_POINT ( 'NONE',  ( 0.0000000000000000000, 0.0000000000000000000, 1.485000000000000764 ) ) ;
#217 = DIRECTION ( 'NONE',  ( 0.0000000000000000000, 0.0000000000000000000, -1.000000000000000000 ) ) ;
#218 = DIRECTION ( 'NONE',  ( 1.000000000000000000, 0.0000000000000000000, -0.0000000000000000000 ) ) ;
#219 = EDGE_CURVE ( 'NONE', #276, #43, #69, .T. ) ;
#220 = CIRCLE ( 'NONE', #136, 0.06250000000000002776 ) ;
#221 = STYLED_ITEM ( 'NONE', ( #93 ), #11 ) ;
#222 = ORIENTED_EDGE ( 'NONE', *, *, #59, .F. ) ;
#223 = DIRECTION ( 'NONE',  ( 0.7071067811865462405, 8.659560562354916834E-17, -0.7071067811865486830 ) ) ;
#224 = ADVANCED_FACE ( 'NONE', ( #295 ), #86, .T. ) ;
#225 = CARTESIAN_POINT ( 'NONE',  ( 0.0000000000000000000, 0.0000000000000000000, 1.500000000000000222 ) ) ;
#226 = AXIS2_PLACEMENT_3D ( 'NONE', #174, #246, #12 ) ;
#227 = FACE_OUTER_BOUND ( 'NONE', #9, .T. ) ;
#228 = PRESENTATION_STYLE_ASSIGNMENT (( #247 ) ) ;
#229 = FACE_OUTER_BOUND ( 'NONE', #243, .T. ) ;
#230 = CARTESIAN_POINT ( 'NONE',  ( 0.0000000000000000000, 0.0000000000000000000, 0.0000000000000000000 ) ) ;
#231 = FILL_AREA_STYLE_COLOUR ( '', #166 ) ;
#232 = DIMENSIONAL_EXPONENTS ( 1.000000000000000000, 0.0000000000000000000, 0.0000000000000000000, 0.0000000000000000000, 0.0000000000000000000, 0.0000000000000000000, 0.0000000000000000000 ) ;
#233 = CIRCLE ( 'NONE', #173, 0.02342655000000000085 ) ;
#234 = CARTESIAN_POINT ( 'NONE',  ( 0.0000000000000000000, 0.0000000000000000000, 1.485000000000000764 ) ) ;
#235 = EDGE_LOOP ( 'NONE', ( #117, #222, #140, #31 ) ) ;
#236 =( NAMED_UNIT ( * ) SI_UNIT ( $, .STERADIAN. ) SOLID_ANGLE_UNIT ( ) );
#237 = ORIENTED_EDGE ( 'NONE', *, *, #219, .T. ) ;
#238 = DIRECTION ( 'NONE',  ( -1.000000000000000000, 0.0000000000000000000, 0.0000000000000000000 ) ) ;
#239 = CIRCLE ( 'NONE', #108, 0.04750000000000064587 ) ;
#240 = VERTEX_POINT ( 'NONE', #97 ) ;
#241 = FACE_OUTER_BOUND ( 'NONE', #235, .T. ) ;
#242 = DIRECTION ( 'NONE',  ( 1.000000000000000000, 0.0000000000000000000, 0.0000000000000000000 ) ) ;
#243 = EDGE_LOOP ( 'NONE', ( #98, #199, #94, #172 ) ) ;
#244 = AXIS2_PLACEMENT_3D ( 'NONE', #58, #155, #17 ) ;
#245 = MECHANICAL_DESIGN_GEOMETRIC_PRESENTATION_REPRESENTATION (  '', ( #36 ), #32 ) ;
#246 = DIRECTION ( 'NONE',  ( -1.224646799147353700E-16, -0.0000000000000000000, -1.000000000000000000 ) ) ;
#247 = SURFACE_STYLE_USAGE ( .BOTH. , #84 ) ;
#248 = CARTESIAN_POINT ( 'NONE',  ( 0.02342655000000000778, 0.0000000000000000000, 0.1089999999999999997 ) ) ;
#249 = AXIS2_PLACEMENT_3D ( 'NONE', #27, #192, #24 ) ;
#250 = LINE ( 'NONE', #202, #65 ) ;
#251 = EDGE_CURVE ( 'NONE', #53, #262, #208, .T. ) ;
#252 = DIRECTION ( 'NONE',  ( -1.000000000000000000, 0.0000000000000000000, 1.224646799147353700E-16 ) ) ;
#253 = DIRECTION ( 'NONE',  ( 0.0000000000000000000, 0.0000000000000000000, -1.000000000000000000 ) ) ;
#254 =( NAMED_UNIT ( * ) PLANE_ANGLE_UNIT ( ) SI_UNIT ( $, .RADIAN. ) );
#255 = APPLICATION_PROTOCOL_DEFINITION ( 'draft international standard', 'automotive_design', 1998, #164 ) ;
#256 = DIMENSIONAL_EXPONENTS ( 1.000000000000000000, 0.0000000000000000000, 0.0000000000000000000, 0.0000000000000000000, 0.0000000000000000000, 0.0000000000000000000, 0.0000000000000000000 ) ;
#257 =( LENGTH_UNIT ( ) NAMED_UNIT ( * ) SI_UNIT ( $, .METRE. ) );
#258 = VECTOR ( 'NONE', #190, 39.37007874015748143 ) ;
#259 = ORIENTED_EDGE ( 'NONE', *, *, #163, .T. ) ;
#260 = CARTESIAN_POINT ( 'NONE',  ( 0.0000000000000000000, 0.0000000000000000000, 1.500000000000000222 ) ) ;
#261 = COLOUR_RGB ( '',0.7921568627450980005, 0.8196078431372548767, 0.9333333333333333481 ) ;
#262 = VERTEX_POINT ( 'NONE', #22 ) ;
#263 = EDGE_CURVE ( 'NONE', #53, #279, #215, .T. ) ;
#264 = FACE_OUTER_BOUND ( 'NONE', #144, .T. ) ;
#265 = ORIENTED_EDGE ( 'NONE', *, *, #293, .T. ) ;
#266 = EDGE_LOOP ( 'NONE', ( #209, #45, #54, #77 ) ) ;
#267 = ORIENTED_EDGE ( 'NONE', *, *, #293, .F. ) ;
#268 = DIRECTION ( 'NONE',  ( 0.0000000000000000000, 0.0000000000000000000, 1.000000000000000000 ) ) ;
#269 =( NAMED_UNIT ( * ) PLANE_ANGLE_UNIT ( ) SI_UNIT ( $, .RADIAN. ) );
#270 = CARTESIAN_POINT ( 'NONE',  ( 0.06250000000000006939, 7.654042494670963708E-18, 0.3305965466147405274 ) ) ;
#271 = DIRECTION ( 'NONE',  ( -0.0000000000000000000, -0.0000000000000000000, -1.000000000000000000 ) ) ;
#272 = EDGE_CURVE ( 'NONE', #170, #211, #67, .T. ) ;
#273 = DIRECTION ( 'NONE',  ( -1.224646799147353700E-16, -0.0000000000000000000, -1.000000000000000000 ) ) ;
#274 = ORIENTED_EDGE ( 'NONE', *, *, #121, .T. ) ;
#275 = FACE_OUTER_BOUND ( 'NONE', #162, .T. ) ;
#276 = VERTEX_POINT ( 'NONE', #282 ) ;
#277 = EDGE_CURVE ( 'NONE', #240, #43, #66, .T. ) ;
#278 = CARTESIAN_POINT ( 'NONE',  ( 0.04750000000000064587, 6.735557395310483192E-18, 1.500000000000000222 ) ) ;
#279 = VERTEX_POINT ( 'NONE', #95 ) ;
#280 = AXIS2_PLACEMENT_3D ( 'NONE', #63, #268, #203 ) ;
#281 =( LENGTH_UNIT ( ) NAMED_UNIT ( * ) SI_UNIT ( $, .METRE. ) );
#282 = CARTESIAN_POINT ( 'NONE',  ( -0.04750000000000064587, 0.0000000000000000000, 1.500000000000000222 ) ) ;
#283 = ORIENTED_EDGE ( 'NONE', *, *, #204, .F. ) ;
#284 = AXIS2_PLACEMENT_3D ( 'NONE', #113, #64, #131 ) ;
#285 = DIRECTION ( 'NONE',  ( -1.000000000000000000, 0.0000000000000000000, 0.0000000000000000000 ) ) ;
#286 = VERTEX_POINT ( 'NONE', #278 ) ;
#287 = ADVANCED_FACE ( 'NONE', ( #275 ), #120, .T. ) ;
#288 = DIRECTION ( 'NONE',  ( -1.224646799147353700E-16, -0.0000000000000000000, -1.000000000000000000 ) ) ;
#289 = ORIENTED_EDGE ( 'NONE', *, *, #80, .T. ) ;
#290 = AXIS2_PLACEMENT_3D ( 'NONE', #292, #206, #110 ) ;
#291 = DIRECTION ( 'NONE',  ( 1.000000000000000000, 0.0000000000000000000, 0.0000000000000000000 ) ) ;
#292 = CARTESIAN_POINT ( 'NONE',  ( 0.0000000000000000000, 0.0000000000000000000, 1.500000000000000222 ) ) ;
#293 = EDGE_CURVE ( 'NONE', #53, #170, #72, .T. ) ;
#294 = PRODUCT_DEFINITION_FORMATION_WITH_SPECIFIED_SOURCE ( 'ANY', '', #296, .NOT_KNOWN. ) ;
#295 = FACE_OUTER_BOUND ( 'NONE', #266, .T. ) ;
#296 = PRODUCT ( 'Micro_GEM-046-4', 'Micro_GEM-046-4', '', ( #100 ) ) ;
#297 = LENGTH_MEASURE_WITH_UNIT ( LENGTH_MEASURE( 0.02539999999999999897 ), #207 );
#298 = CARTESIAN_POINT ( 'NONE',  ( -0.02342655000000000085, 0.0000000000000000000, 2.868924947256543719E-18 ) ) ;
#299 = EDGE_LOOP ( 'NONE', ( #90, #283, #237, #118 ) ) ;
ENDSEC;
END-ISO-10303-21;
