ISO-10303-21;
HEADER;
FILE_DESCRIPTION (( 'STEP AP214' ),
    '1' );
FILE_NAME ('82457.STEP',
    '2023-06-30T22:40:05',
    ( '' ),
    ( '' ),
    'SwSTEP 2.0',
    'SolidWorks 2023',
    '' );
FILE_SCHEMA (( 'AUTOMOTIVE_DESIGN' ));
ENDSEC;

DATA;
#1 = VERTEX_POINT ( 'NONE', #250 ) ;
#2 = DIRECTION ( 'NONE',  ( -1.000000000000000000, 0.000000000000000000, 0.000000000000000000 ) ) ;
#3 = DIRECTION ( 'NONE',  ( -1.644635498670202785E-16, 1.000000000000000000, -0.000000000000000000 ) ) ;
#4 = FILL_AREA_STYLE ('',( #178 ) ) ;
#5 = STYLED_ITEM ( 'NONE', ( #73 ), #120 ) ;
#6 = DIRECTION ( 'NONE',  ( 1.000000000000000000, 1.644635498670202785E-16, 0.000000000000000000 ) ) ;
#7 = DIRECTION ( 'NONE',  ( 0.000000000000000000, 0.000000000000000000, -1.000000000000000000 ) ) ;
#8 = MECHANICAL_DESIGN_GEOMETRIC_PRESENTATION_REPRESENTATION (  '', ( #5 ), #71 ) ;
#9 = EDGE_CURVE ( 'NONE', #207, #1, #304, .T. ) ;
#10 = CARTESIAN_POINT ( 'NONE',  ( -1.530808498934191509E-17, 0.1250000000000000000, 0.000000000000000000 ) ) ;
#11 = SURFACE_SIDE_STYLE ('',( #287 ) ) ;
#12 = DIRECTION ( 'NONE',  ( -1.000000000000000000, 0.000000000000000000, 0.000000000000000000 ) ) ;
#13 = ADVANCED_FACE ( 'NONE', ( #153 ), #275, .F. ) ;
#14 =( CONVERSION_BASED_UNIT ( 'INCH', #80 ) LENGTH_UNIT ( ) NAMED_UNIT ( #225 ) );
#15 = DIRECTION ( 'NONE',  ( 0.000000000000000000, 0.000000000000000000, -1.000000000000000000 ) ) ;
#16 =( NAMED_UNIT ( * ) PLANE_ANGLE_UNIT ( ) SI_UNIT ( $, .RADIAN. ) );
#17 = UNCERTAINTY_MEASURE_WITH_UNIT (LENGTH_MEASURE( 1.000000000000000082E-05 ), #180, 'distance_accuracy_value', 'NONE');
#18 = SURFACE_STYLE_FILL_AREA ( #288 ) ;
#19 = STYLED_ITEM ( 'NONE', ( #135 ), #81 ) ;
#20 = CIRCLE ( 'NONE', #259, 0.1249999999999998057 ) ;
#21 = PRESENTATION_STYLE_ASSIGNMENT (( #331 ) ) ;
#22 = PRODUCT_DEFINITION_CONTEXT ( 'detailed design', #361, 'design' ) ;
#23 = ORIENTED_EDGE ( 'NONE', *, *, #48, .T. ) ;
#24 = FACE_OUTER_BOUND ( 'NONE', #325, .T. ) ;
#25 = LENGTH_MEASURE_WITH_UNIT ( LENGTH_MEASURE( 0.02539999999999999897 ), #350 );
#26 = ORIENTED_EDGE ( 'NONE', *, *, #139, .T. ) ;
#27 =( NAMED_UNIT ( * ) PLANE_ANGLE_UNIT ( ) SI_UNIT ( $, .RADIAN. ) );
#28 = CARTESIAN_POINT ( 'NONE',  ( 0.000000000000000000, 0.000000000000000000, -0.1249999999999999029 ) ) ;
#29 = LENGTH_MEASURE_WITH_UNIT ( LENGTH_MEASURE( 0.02539999999999999897 ), #242 );
#30 = EDGE_LOOP ( 'NONE', ( #322, #112, #351, #240, #194 ) ) ;
#31 = DIRECTION ( 'NONE',  ( -1.000000000000000000, 0.000000000000000000, 0.000000000000000000 ) ) ;
#32 = DIRECTION ( 'NONE',  ( -0.000000000000000000, -1.000000000000000000, -0.000000000000000000 ) ) ;
#33 = CARTESIAN_POINT ( 'NONE',  ( 1.530808498934190276E-17, 0.000000000000000000, 0.1249999999999999029 ) ) ;
#34 = CLOSED_SHELL ( 'NONE', ( #296, #302, #69, #13 ) ) ;
#35 = AXIS2_PLACEMENT_3D ( 'NONE', #100, #32, #7 ) ;
#36 = EDGE_CURVE ( 'NONE', #95, #145, #311, .T. ) ;
#37 = SURFACE_STYLE_FILL_AREA ( #132 ) ;
#38 = ORIENTED_EDGE ( 'NONE', *, *, #335, .F. ) ;
#39 = SURFACE_STYLE_FILL_AREA ( #41 ) ;
#40 = CARTESIAN_POINT ( 'NONE',  ( 1.854629848431627327E-16, 1.500000000000000222, 0.000000000000000000 ) ) ;
#41 = FILL_AREA_STYLE ('',( #138 ) ) ;
#42 = AXIS2_PLACEMENT_3D ( 'NONE', #365, #228, #15 ) ;
#43 = DIRECTION ( 'NONE',  ( -0.000000000000000000, -1.000000000000000000, -0.000000000000000000 ) ) ;
#44 = COLOUR_RGB ( '',0.7921568627450980005, 0.8196078431372548767, 0.9333333333333333481 ) ;
#45 = CYLINDRICAL_SURFACE ( 'NONE', #42, 0.1249999999999999029 ) ;
#46 = CARTESIAN_POINT ( 'NONE',  ( -6.123233995736772199E-17, 3.000000000000000444, 0.000000000000000000 ) ) ;
#47 =( LENGTH_UNIT ( ) NAMED_UNIT ( * ) SI_UNIT ( $, .METRE. ) );
#48 = EDGE_CURVE ( 'NONE', #95, #1, #116, .T. ) ;
#49 = UNCERTAINTY_MEASURE_WITH_UNIT (LENGTH_MEASURE( 1.000000000000000082E-05 ), #340, 'distance_accuracy_value', 'NONE');
#50 = APPLICATION_CONTEXT ( 'automotive_design' ) ;
#51 = AXIS2_PLACEMENT_3D ( 'NONE', #75, #320, #316 ) ;
#52 =( NAMED_UNIT ( * ) PLANE_ANGLE_UNIT ( ) SI_UNIT ( $, .RADIAN. ) );
#53 = DIRECTION ( 'NONE',  ( 0.000000000000000000, 0.000000000000000000, -1.000000000000000000 ) ) ;
#54 = ORIENTED_EDGE ( 'NONE', *, *, #9, .T. ) ;
#55 = ORIENTED_EDGE ( 'NONE', *, *, #124, .F. ) ;
#56 = CARTESIAN_POINT ( 'NONE',  ( -6.123233995736772199E-17, 3.000000000000000444, 0.000000000000000000 ) ) ;
#57 = FILL_AREA_STYLE ('',( #239 ) ) ;
#58 = EDGE_CURVE ( 'NONE', #244, #179, #343, .T. ) ;
#59 = PRESENTATION_STYLE_ASSIGNMENT (( #125 ) ) ;
#60 = COLOUR_RGB ( '',1.000000000000000000, 0.000000000000000000, 0.000000000000000000 ) ;
#61 = CIRCLE ( 'NONE', #159, 0.1249999999999998612 ) ;
#62 = CARTESIAN_POINT ( 'NONE',  ( 0.000000000000000000, 0.1250000000000000278, -0.1249999999999999584 ) ) ;
#63 = ORIENTED_EDGE ( 'NONE', *, *, #196, .F. ) ;
#64 = DIRECTION ( 'NONE',  ( -0.000000000000000000, -1.000000000000000000, -0.000000000000000000 ) ) ;
#65 = EDGE_LOOP ( 'NONE', ( #276, #54, #295, #348, #55 ) ) ;
#66 = AXIS2_PLACEMENT_3D ( 'NONE', #358, #195, #6 ) ;
#67 = PRESENTATION_LAYER_ASSIGNMENT (  '', '', ( #108 ) ) ;
#68 = VERTEX_POINT ( 'NONE', #166 ) ;
#69 = ADVANCED_FACE ( 'NONE', ( #283 ), #366, .T. ) ;
#70 = EDGE_LOOP ( 'NONE', ( #63, #189, #177, #210 ) ) ;
#71 =( GEOMETRIC_REPRESENTATION_CONTEXT ( 3 ) GLOBAL_UNCERTAINTY_ASSIGNED_CONTEXT ( ( #324 ) ) GLOBAL_UNIT_ASSIGNED_CONTEXT ( ( #174, #115, #88 ) ) REPRESENTATION_CONTEXT ( 'NONE', 'WORKASPACE' ) );
#72 = CARTESIAN_POINT ( 'NONE',  ( 0.000000000000000000, 0.000000000000000000, 0.000000000000000000 ) ) ;
#73 = PRESENTATION_STYLE_ASSIGNMENT (( #338 ) ) ;
#74 = CARTESIAN_POINT ( 'NONE',  ( -0.1249999999999998057, 3.000000000000000444, 0.000000000000000000 ) ) ;
#75 = CARTESIAN_POINT ( 'NONE',  ( -1.530808498934191509E-17, 0.1250000000000000000, 0.000000000000000000 ) ) ;
#76 = EDGE_CURVE ( 'NONE', #312, #145, #367, .T. ) ;
#77 =( NAMED_UNIT ( * ) SI_UNIT ( $, .STERADIAN. ) SOLID_ANGLE_UNIT ( ) );
#78 = DIRECTION ( 'NONE',  ( 1.224646799147353207E-16, -0.000000000000000000, 1.000000000000000000 ) ) ;
#79 = AXIS2_PLACEMENT_3D ( 'NONE', #56, #119, #2 ) ;
#80 = LENGTH_MEASURE_WITH_UNIT ( LENGTH_MEASURE( 0.02539999999999999897 ), #277 );
#81 = ADVANCED_FACE ( 'NONE', ( #163 ), #45, .T. ) ;
#82 = FACE_OUTER_BOUND ( 'NONE', #133, .T. ) ;
#83 = SPHERICAL_SURFACE ( 'NONE', #51, 0.1250000000000000000 ) ;
#84 = EDGE_LOOP ( 'NONE', ( #156, #220 ) ) ;
#85 = CARTESIAN_POINT ( 'NONE',  ( -1.530808498934191509E-17, 0.1250000000000000000, 0.000000000000000000 ) ) ;
#86 = EDGE_LOOP ( 'NONE', ( #212, #371 ) ) ;
#87 =( GEOMETRIC_REPRESENTATION_CONTEXT ( 3 ) GLOBAL_UNCERTAINTY_ASSIGNED_CONTEXT ( ( #286 ) ) GLOBAL_UNIT_ASSIGNED_CONTEXT ( ( #106, #16, #230 ) ) REPRESENTATION_CONTEXT ( 'NONE', 'WORKASPACE' ) );
#88 =( NAMED_UNIT ( * ) SI_UNIT ( $, .STERADIAN. ) SOLID_ANGLE_UNIT ( ) );
#89 = EDGE_LOOP ( 'NONE', ( #218, #219, #308, #23 ) ) ;
#90 =( NAMED_UNIT ( * ) SI_UNIT ( $, .STERADIAN. ) SOLID_ANGLE_UNIT ( ) );
#91 = CARTESIAN_POINT ( 'NONE',  ( 0.000000000000000000, 0.1250000000000000278, 0.000000000000000000 ) ) ;
#92 = EDGE_CURVE ( 'NONE', #244, #96, #137, .T. ) ;
#93 = VERTEX_POINT ( 'NONE', #224 ) ;
#94 = DIMENSIONAL_EXPONENTS ( 1.000000000000000000, 0.000000000000000000, 0.000000000000000000, 0.000000000000000000, 0.000000000000000000, 0.000000000000000000, 0.000000000000000000 ) ;
#95 = VERTEX_POINT ( 'NONE', #364 ) ;
#96 = VERTEX_POINT ( 'NONE', #203 ) ;
#97 = PRESENTATION_LAYER_ASSIGNMENT (  '', '', ( #221 ) ) ;
#98 = EDGE_CURVE ( 'NONE', #1, #312, #126, .T. ) ;
#99 = AXIS2_PLACEMENT_3D ( 'NONE', #151, #208, #31 ) ;
#100 = CARTESIAN_POINT ( 'NONE',  ( 0.000000000000000000, 0.1250000000000000278, 0.000000000000000000 ) ) ;
#101 =( NAMED_UNIT ( * ) SI_UNIT ( $, .STERADIAN. ) SOLID_ANGLE_UNIT ( ) );
#102 =( LENGTH_UNIT ( ) NAMED_UNIT ( * ) SI_UNIT ( $, .METRE. ) );
#103 = AXIS2_PLACEMENT_3D ( 'NONE', #265, #127, #248 ) ;
#104 = DIRECTION ( 'NONE',  ( 0.000000000000000000, 0.000000000000000000, -1.000000000000000000 ) ) ;
#105 = DIRECTION ( 'NONE',  ( -1.644635498670202785E-16, 1.000000000000000000, -0.000000000000000000 ) ) ;
#106 =( CONVERSION_BASED_UNIT ( 'INCH', #204 ) LENGTH_UNIT ( ) NAMED_UNIT ( #253 ) );
#107 = EDGE_CURVE ( 'NONE', #179, #244, #278, .T. ) ;
#108 = STYLED_ITEM ( 'NONE', ( #281 ), #193 ) ;
#109 = LENGTH_MEASURE_WITH_UNIT ( LENGTH_MEASURE( 0.02539999999999999897 ), #102 );
#110 = SURFACE_STYLE_USAGE ( .BOTH. , #214 ) ;
#111 = FACE_OUTER_BOUND ( 'NONE', #333, .T. ) ;
#112 = ORIENTED_EDGE ( 'NONE', *, *, #260, .T. ) ;
#113 = DIRECTION ( 'NONE',  ( -1.644635498670202785E-16, 1.000000000000000000, 0.000000000000000000 ) ) ;
#114 = UNCERTAINTY_MEASURE_WITH_UNIT (LENGTH_MEASURE( 1.000000000000000082E-05 ), #190, 'distance_accuracy_value', 'NONE');
#115 =( NAMED_UNIT ( * ) PLANE_ANGLE_UNIT ( ) SI_UNIT ( $, .RADIAN. ) );
#116 = CIRCLE ( 'NONE', #130, 0.1249999999999999584 ) ;
#117 =( GEOMETRIC_REPRESENTATION_CONTEXT ( 3 ) GLOBAL_UNCERTAINTY_ASSIGNED_CONTEXT ( ( #292 ) ) GLOBAL_UNIT_ASSIGNED_CONTEXT ( ( #181, #263, #238 ) ) REPRESENTATION_CONTEXT ( 'NONE', 'WORKASPACE' ) );
#118 = AXIS2_PLACEMENT_3D ( 'NONE', #85, #123, #272 ) ;
#119 = DIRECTION ( 'NONE',  ( -1.644635498670202785E-16, 1.000000000000000000, -0.000000000000000000 ) ) ;
#120 = MANIFOLD_SOLID_BREP ( 'Revolve - Tool Body (Straight Shanked)', #34 ) ;
#121 = VERTEX_POINT ( 'NONE', #62 ) ;
#122 =( CONVERSION_BASED_UNIT ( 'INCH', #29 ) LENGTH_UNIT ( ) NAMED_UNIT ( #317 ) );
#123 = DIRECTION ( 'NONE',  ( 0.000000000000000000, 0.000000000000000000, 1.000000000000000000 ) ) ;
#124 = EDGE_CURVE ( 'NONE', #68, #121, #234, .T. ) ;
#125 = SURFACE_STYLE_USAGE ( .BOTH. , #372 ) ;
#126 = CIRCLE ( 'NONE', #198, 0.1249999999999999584 ) ;
#127 = DIRECTION ( 'NONE',  ( 0.000000000000000000, 0.000000000000000000, 1.000000000000000000 ) ) ;
#128 = ORIENTED_EDGE ( 'NONE', *, *, #196, .T. ) ;
#129 = APPLICATION_PROTOCOL_DEFINITION ( 'draft international standard', 'automotive_design', 1998, #361 ) ;
#130 = AXIS2_PLACEMENT_3D ( 'NONE', #362, #315, #104 ) ;
#131 =( GEOMETRIC_REPRESENTATION_CONTEXT ( 3 ) GLOBAL_UNCERTAINTY_ASSIGNED_CONTEXT ( ( #114 ) ) GLOBAL_UNIT_ASSIGNED_CONTEXT ( ( #190, #359, #101 ) ) REPRESENTATION_CONTEXT ( 'NONE', 'WORKASPACE' ) );
#132 = FILL_AREA_STYLE ('',( #152 ) ) ;
#133 = EDGE_LOOP ( 'NONE', ( #327, #293, #26, #264 ) ) ;
#134 = ADVANCED_FACE ( 'NONE', ( #187 ), #346, .T. ) ;
#135 = PRESENTATION_STYLE_ASSIGNMENT (( #229 ) ) ;
#136 = AXIS2_PLACEMENT_3D ( 'NONE', #332, #64, #155 ) ;
#137 = LINE ( 'NONE', #74, #209 ) ;
#138 = FILL_AREA_STYLE_COLOUR ( '', #60 ) ;
#139 = EDGE_CURVE ( 'NONE', #121, #95, #368, .T. ) ;
#140 = AXIS2_PLACEMENT_3D ( 'NONE', #10, #78, #342 ) ;
#141 = STYLED_ITEM ( 'NONE', ( #21 ), #134 ) ;
#142 = CARTESIAN_POINT ( 'NONE',  ( 0.1249999999999998057, 1.500000000000000222, 1.530808498934189044E-17 ) ) ;
#143 =( NAMED_UNIT ( * ) SI_UNIT ( $, .STERADIAN. ) SOLID_ANGLE_UNIT ( ) );
#144 = LENGTH_MEASURE_WITH_UNIT ( LENGTH_MEASURE( 0.02539999999999999897 ), #150 );
#145 = VERTEX_POINT ( 'NONE', #147 ) ;
#146 = PLANE ( 'NONE',  #353 ) ;
#147 = CARTESIAN_POINT ( 'NONE',  ( -7.654042494670957545E-18, 0.000000000000000000, 0.000000000000000000 ) ) ;
#148 = PRESENTATION_LAYER_ASSIGNMENT (  '', '', ( #205 ) ) ;
#149 = STYLED_ITEM ( 'NONE', ( #59 ), #369 ) ;
#150 =( LENGTH_UNIT ( ) NAMED_UNIT ( * ) SI_UNIT ( $, .METRE. ) );
#151 = CARTESIAN_POINT ( 'NONE',  ( -6.123233995736772199E-17, 3.000000000000000444, 0.000000000000000000 ) ) ;
#152 = FILL_AREA_STYLE_COLOUR ( '', #167 ) ;
#153 = FACE_OUTER_BOUND ( 'NONE', #84, .T. ) ;
#154 = AXIS2_PLACEMENT_3D ( 'NONE', #235, #233, #237 ) ;
#155 = DIRECTION ( 'NONE',  ( 0.000000000000000000, 0.000000000000000000, -1.000000000000000000 ) ) ;
#156 = ORIENTED_EDGE ( 'NONE', *, *, #335, .T. ) ;
#157 = DIRECTION ( 'NONE',  ( -0.000000000000000000, -1.000000000000000000, -0.000000000000000000 ) ) ;
#158 = CLOSED_SHELL ( 'NONE', ( #134, #271, #193, #81, #185 ) ) ;
#159 = AXIS2_PLACEMENT_3D ( 'NONE', #274, #273, #349 ) ;
#160 = FACE_OUTER_BOUND ( 'NONE', #65, .T. ) ;
#161 = EDGE_CURVE ( 'NONE', #68, #207, #20, .T. ) ;
#162 = DIRECTION ( 'NONE',  ( 0.000000000000000000, 0.000000000000000000, -1.000000000000000000 ) ) ;
#163 = FACE_OUTER_BOUND ( 'NONE', #30, .T. ) ;
#164 = SURFACE_STYLE_USAGE ( .BOTH. , #341 ) ;
#165 = DIMENSIONAL_EXPONENTS ( 1.000000000000000000, 0.000000000000000000, 0.000000000000000000, 0.000000000000000000, 0.000000000000000000, 0.000000000000000000, 0.000000000000000000 ) ;
#166 = CARTESIAN_POINT ( 'NONE',  ( 0.000000000000000000, 1.500000000000000222, -0.1249999999999998057 ) ) ;
#167 = COLOUR_RGB ( '',1.000000000000000000, 0.000000000000000000, 0.000000000000000000 ) ;
#168 =( GEOMETRIC_REPRESENTATION_CONTEXT ( 3 ) GLOBAL_UNCERTAINTY_ASSIGNED_CONTEXT ( ( #175 ) ) GLOBAL_UNIT_ASSIGNED_CONTEXT ( ( #122, #52, #211 ) ) REPRESENTATION_CONTEXT ( 'NONE', 'WORKASPACE' ) );
#169 = DIRECTION ( 'NONE',  ( 0.000000000000000000, 0.000000000000000000, -1.000000000000000000 ) ) ;
#170 = UNCERTAINTY_MEASURE_WITH_UNIT (LENGTH_MEASURE( 1.000000000000000082E-05 ), #14, 'distance_accuracy_value', 'NONE');
#171 = PRODUCT_DEFINITION_SHAPE ( 'NONE', 'NONE',  #231 ) ;
#172 = PLANE ( 'NONE',  #154 ) ;
#173 = AXIS2_PLACEMENT_3D ( 'NONE', #46, #339, #201 ) ;
#174 =( CONVERSION_BASED_UNIT ( 'INCH', #25 ) LENGTH_UNIT ( ) NAMED_UNIT ( #249 ) );
#175 = UNCERTAINTY_MEASURE_WITH_UNIT (LENGTH_MEASURE( 1.000000000000000082E-05 ), #122, 'distance_accuracy_value', 'NONE');
#176 = FILL_AREA_STYLE_COLOUR ( '', #254 ) ;
#177 = ORIENTED_EDGE ( 'NONE', *, *, #92, .T. ) ;
#178 = FILL_AREA_STYLE_COLOUR ( '', #44 ) ;
#179 = VERTEX_POINT ( 'NONE', #142 ) ;
#180 =( CONVERSION_BASED_UNIT ( 'INCH', #345 ) LENGTH_UNIT ( ) NAMED_UNIT ( #336 ) );
#181 =( CONVERSION_BASED_UNIT ( 'INCH', #144 ) LENGTH_UNIT ( ) NAMED_UNIT ( #199 ) );
#182 = AXIS2_PLACEMENT_3D ( 'NONE', #40, #105, #12 ) ;
#183 = PRESENTATION_LAYER_ASSIGNMENT (  '', '', ( #141 ) ) ;
#184 = LINE ( 'NONE', #299, #318 ) ;
#185 = ADVANCED_FACE ( 'NONE', ( #82 ), #83, .T. ) ;
#186 = DIRECTION ( 'NONE',  ( -1.000000000000000000, -1.644635498670202785E-16, 0.000000000000000000 ) ) ;
#187 = FACE_OUTER_BOUND ( 'NONE', #89, .T. ) ;
#188 =( LENGTH_UNIT ( ) NAMED_UNIT ( * ) SI_UNIT ( $, .METRE. ) );
#189 = ORIENTED_EDGE ( 'NONE', *, *, #107, .T. ) ;
#190 =( CONVERSION_BASED_UNIT ( 'INCH', #217 ) LENGTH_UNIT ( ) NAMED_UNIT ( #165 ) );
#191 = CARTESIAN_POINT ( 'NONE',  ( -1.530808498934191509E-17, 0.1250000000000000000, 0.000000000000000000 ) ) ;
#192 = AXIS2_PLACEMENT_3D ( 'NONE', #206, #285, #256 ) ;
#193 = ADVANCED_FACE ( 'NONE', ( #111 ), #172, .T. ) ;
#194 = ORIENTED_EDGE ( 'NONE', *, *, #98, .F. ) ;
#195 = DIRECTION ( 'NONE',  ( 1.644635498670202785E-16, -1.000000000000000000, 0.000000000000000000 ) ) ;
#196 = EDGE_CURVE ( 'NONE', #179, #93, #184, .T. ) ;
#197 = COLOUR_RGB ( '',1.000000000000000000, 0.000000000000000000, 0.000000000000000000 ) ;
#198 = AXIS2_PLACEMENT_3D ( 'NONE', #314, #43, #169 ) ;
#199 = DIMENSIONAL_EXPONENTS ( 1.000000000000000000, 0.000000000000000000, 0.000000000000000000, 0.000000000000000000, 0.000000000000000000, 0.000000000000000000, 0.000000000000000000 ) ;
#200 = DIRECTION ( 'NONE',  ( -0.000000000000000000, -1.000000000000000000, -0.000000000000000000 ) ) ;
#201 = DIRECTION ( 'NONE',  ( -1.000000000000000000, 0.000000000000000000, 0.000000000000000000 ) ) ;
#202 =( NAMED_UNIT ( * ) PLANE_ANGLE_UNIT ( ) SI_UNIT ( $, .RADIAN. ) );
#203 = CARTESIAN_POINT ( 'NONE',  ( -0.1249999999999999306, 3.000000000000000444, 0.000000000000000000 ) ) ;
#204 = LENGTH_MEASURE_WITH_UNIT ( LENGTH_MEASURE( 0.02539999999999999897 ), #47 );
#205 = STYLED_ITEM ( 'NONE', ( #236 ), #185 ) ;
#206 = CARTESIAN_POINT ( 'NONE',  ( 1.854629848431627327E-16, 1.500000000000000222, 0.000000000000000000 ) ) ;
#207 = VERTEX_POINT ( 'NONE', #310 ) ;
#208 = DIRECTION ( 'NONE',  ( -1.644635498670202785E-16, 1.000000000000000000, -0.000000000000000000 ) ) ;
#209 = VECTOR ( 'NONE', #252, 39.37007874015748143 ) ;
#210 = ORIENTED_EDGE ( 'NONE', *, *, #347, .F. ) ;
#211 =( NAMED_UNIT ( * ) SI_UNIT ( $, .STERADIAN. ) SOLID_ANGLE_UNIT ( ) );
#212 = ORIENTED_EDGE ( 'NONE', *, *, #58, .F. ) ;
#213 = CARTESIAN_POINT ( 'NONE',  ( -0.1250000000000000000, 0.1250000000000000278, 1.530808498934191201E-17 ) ) ;
#214 = SURFACE_SIDE_STYLE ('',( #241 ) ) ;
#215 = VECTOR ( 'NONE', #266, 39.37007874015748143 ) ;
#216 = APPLICATION_PROTOCOL_DEFINITION ( 'draft international standard', 'automotive_design', 1998, #50 ) ;
#217 = LENGTH_MEASURE_WITH_UNIT ( LENGTH_MEASURE( 0.02539999999999999897 ), #309 );
#218 = ORIENTED_EDGE ( 'NONE', *, *, #98, .T. ) ;
#219 = ORIENTED_EDGE ( 'NONE', *, *, #76, .T. ) ;
#220 = ORIENTED_EDGE ( 'NONE', *, *, #347, .T. ) ;
#221 = STYLED_ITEM ( 'NONE', ( #251 ), #271 ) ;
#222 = CIRCLE ( 'NONE', #99, 0.1249999999999998612 ) ;
#223 = PRODUCT_CONTEXT ( 'NONE', #50, 'mechanical' ) ;
#224 = CARTESIAN_POINT ( 'NONE',  ( 0.1249999999999997780, 3.000000000000000444, 1.530808498934189044E-17 ) ) ;
#225 = DIMENSIONAL_EXPONENTS ( 1.000000000000000000, 0.000000000000000000, 0.000000000000000000, 0.000000000000000000, 0.000000000000000000, 0.000000000000000000, 0.000000000000000000 ) ;
#226 = MECHANICAL_DESIGN_GEOMETRIC_PRESENTATION_REPRESENTATION (  '', ( #19 ), #268 ) ;
#227 = COLOUR_RGB ( '',1.000000000000000000, 0.000000000000000000, 0.000000000000000000 ) ;
#228 = DIRECTION ( 'NONE',  ( -0.000000000000000000, -1.000000000000000000, -0.000000000000000000 ) ) ;
#229 = SURFACE_STYLE_USAGE ( .BOTH. , #11 ) ;
#230 =( NAMED_UNIT ( * ) SI_UNIT ( $, .STERADIAN. ) SOLID_ANGLE_UNIT ( ) );
#231 = PRODUCT_DEFINITION ( 'UNKNOWN', '', #298, #22 ) ;
#232 = FILL_AREA_STYLE ('',( #280 ) ) ;
#233 = DIRECTION ( 'NONE',  ( 0.000000000000000000, 1.000000000000000000, 0.000000000000000000 ) ) ;
#234 = LINE ( 'NONE', #28, #215 ) ;
#235 = CARTESIAN_POINT ( 'NONE',  ( 0.000000000000000000, 1.500000000000000222, 0.000000000000000000 ) ) ;
#236 = PRESENTATION_STYLE_ASSIGNMENT (( #110 ) ) ;
#237 = DIRECTION ( 'NONE',  ( 0.000000000000000000, -0.000000000000000000, 1.000000000000000000 ) ) ;
#238 =( NAMED_UNIT ( * ) SI_UNIT ( $, .STERADIAN. ) SOLID_ANGLE_UNIT ( ) );
#239 = FILL_AREA_STYLE_COLOUR ( '', #227 ) ;
#240 = ORIENTED_EDGE ( 'NONE', *, *, #246, .F. ) ;
#241 = SURFACE_STYLE_FILL_AREA ( #57 ) ;
#242 =( LENGTH_UNIT ( ) NAMED_UNIT ( * ) SI_UNIT ( $, .METRE. ) );
#243 = COLOUR_RGB ( '',0.7921568627450980005, 0.8196078431372548767, 0.9333333333333333481 ) ;
#244 = VERTEX_POINT ( 'NONE', #307 ) ;
#245 = AXIS2_PLACEMENT_3D ( 'NONE', #72, #200, #162 ) ;
#246 = EDGE_CURVE ( 'NONE', #312, #121, #363, .T. ) ;
#247 = ORIENTED_EDGE ( 'NONE', *, *, #92, .F. ) ;
#248 = DIRECTION ( 'NONE',  ( 1.000000000000000000, 0.000000000000000000, 0.000000000000000000 ) ) ;
#249 = DIMENSIONAL_EXPONENTS ( 1.000000000000000000, 0.000000000000000000, 0.000000000000000000, 0.000000000000000000, 0.000000000000000000, 0.000000000000000000, 0.000000000000000000 ) ;
#250 = CARTESIAN_POINT ( 'NONE',  ( 1.530808498934190893E-17, 0.1250000000000000278, 0.1249999999999999445 ) ) ;
#251 = PRESENTATION_STYLE_ASSIGNMENT (( #306 ) ) ;
#252 = DIRECTION ( 'NONE',  ( -1.644635498670202785E-16, 1.000000000000000000, -0.000000000000000000 ) ) ;
#253 = DIMENSIONAL_EXPONENTS ( 1.000000000000000000, 0.000000000000000000, 0.000000000000000000, 0.000000000000000000, 0.000000000000000000, 0.000000000000000000, 0.000000000000000000 ) ;
#254 = COLOUR_RGB ( '',1.000000000000000000, 0.000000000000000000, 0.000000000000000000 ) ;
#255 =( NAMED_UNIT ( * ) PLANE_ANGLE_UNIT ( ) SI_UNIT ( $, .RADIAN. ) );
#256 = DIRECTION ( 'NONE',  ( -1.000000000000000000, 0.000000000000000000, 0.000000000000000000 ) ) ;
#257 = DIRECTION ( 'NONE',  ( 0.000000000000000000, 0.000000000000000000, -1.000000000000000000 ) ) ;
#258 = ADVANCED_BREP_SHAPE_REPRESENTATION ( '82457', ( #369, #120, #103 ), #168 ) ;
#259 = AXIS2_PLACEMENT_3D ( 'NONE', #269, #370, #373 ) ;
#260 = EDGE_CURVE ( 'NONE', #207, #68, #305, .T. ) ;
#261 = FILL_AREA_STYLE ('',( #176 ) ) ;
#262 = PRODUCT ( '82457', '82457', '', ( #223 ) ) ;
#263 =( NAMED_UNIT ( * ) PLANE_ANGLE_UNIT ( ) SI_UNIT ( $, .RADIAN. ) );
#264 = ORIENTED_EDGE ( 'NONE', *, *, #36, .T. ) ;
#265 = CARTESIAN_POINT ( 'NONE',  ( 0.000000000000000000, 0.000000000000000000, 0.000000000000000000 ) ) ;
#266 = DIRECTION ( 'NONE',  ( -0.000000000000000000, -1.000000000000000000, -0.000000000000000000 ) ) ;
#267 = SURFACE_STYLE_FILL_AREA ( #4 ) ;
#268 =( GEOMETRIC_REPRESENTATION_CONTEXT ( 3 ) GLOBAL_UNCERTAINTY_ASSIGNED_CONTEXT ( ( #49 ) ) GLOBAL_UNIT_ASSIGNED_CONTEXT ( ( #340, #255, #77 ) ) REPRESENTATION_CONTEXT ( 'NONE', 'WORKASPACE' ) );
#269 = CARTESIAN_POINT ( 'NONE',  ( 0.000000000000000000, 1.500000000000000222, 0.000000000000000000 ) ) ;
#270 = ORIENTED_EDGE ( 'NONE', *, *, #260, .F. ) ;
#271 = ADVANCED_FACE ( 'NONE', ( #160 ), #357, .T. ) ;
#272 = DIRECTION ( 'NONE',  ( 1.000000000000000000, 0.000000000000000000, 0.000000000000000000 ) ) ;
#273 = DIRECTION ( 'NONE',  ( -1.644635498670202785E-16, 1.000000000000000000, -0.000000000000000000 ) ) ;
#274 = CARTESIAN_POINT ( 'NONE',  ( -6.123233995736772199E-17, 3.000000000000000444, 0.000000000000000000 ) ) ;
#275 = PLANE ( 'NONE',  #66 ) ;
#276 = ORIENTED_EDGE ( 'NONE', *, *, #161, .T. ) ;
#277 =( LENGTH_UNIT ( ) NAMED_UNIT ( * ) SI_UNIT ( $, .METRE. ) );
#278 = CIRCLE ( 'NONE', #192, 0.1249999999999996392 ) ;
#279 =( GEOMETRIC_REPRESENTATION_CONTEXT ( 3 ) GLOBAL_UNCERTAINTY_ASSIGNED_CONTEXT ( ( #17 ) ) GLOBAL_UNIT_ASSIGNED_CONTEXT ( ( #180, #27, #90 ) ) REPRESENTATION_CONTEXT ( 'NONE', 'WORKASPACE' ) );
#280 = FILL_AREA_STYLE_COLOUR ( '', #197 ) ;
#281 = PRESENTATION_STYLE_ASSIGNMENT (( #164 ) ) ;
#282 = PRODUCT_RELATED_PRODUCT_CATEGORY ( 'part', '', ( #262 ) ) ;
#283 = FACE_OUTER_BOUND ( 'NONE', #70, .T. ) ;
#284 = AXIS2_PLACEMENT_3D ( 'NONE', #191, #257, #319 ) ;
#285 = DIRECTION ( 'NONE',  ( -1.644635498670202785E-16, 1.000000000000000000, -0.000000000000000000 ) ) ;
#286 = UNCERTAINTY_MEASURE_WITH_UNIT (LENGTH_MEASURE( 1.000000000000000082E-05 ), #106, 'distance_accuracy_value', 'NONE');
#287 = SURFACE_STYLE_FILL_AREA ( #232 ) ;
#288 = FILL_AREA_STYLE ('',( #344 ) ) ;
#289 = PRESENTATION_LAYER_ASSIGNMENT (  '', '', ( #19 ) ) ;
#290 = MECHANICAL_DESIGN_GEOMETRIC_PRESENTATION_REPRESENTATION (  '', ( #205 ), #313 ) ;
#291 = PRESENTATION_LAYER_ASSIGNMENT (  '', '', ( #149 ) ) ;
#292 = UNCERTAINTY_MEASURE_WITH_UNIT (LENGTH_MEASURE( 1.000000000000000082E-05 ), #181, 'distance_accuracy_value', 'NONE');
#293 = ORIENTED_EDGE ( 'NONE', *, *, #246, .T. ) ;
#294 = SURFACE_SIDE_STYLE ('',( #300 ) ) ;
#295 = ORIENTED_EDGE ( 'NONE', *, *, #48, .F. ) ;
#296 = ADVANCED_FACE ( 'NONE', ( #24 ), #328, .T. ) ;
#297 = ORIENTED_EDGE ( 'NONE', *, *, #161, .F. ) ;
#298 = PRODUCT_DEFINITION_FORMATION_WITH_SPECIFIED_SOURCE ( 'ANY', '', #262, .NOT_KNOWN. ) ;
#299 = CARTESIAN_POINT ( 'NONE',  ( 0.1249999999999996808, 3.000000000000000444, 1.530808498934188427E-17 ) ) ;
#300 = SURFACE_STYLE_FILL_AREA ( #261 ) ;
#301 = FACE_OUTER_BOUND ( 'NONE', #86, .T. ) ;
#302 = ADVANCED_FACE ( 'NONE', ( #301 ), #146, .F. ) ;
#303 = SURFACE_SIDE_STYLE ('',( #37 ) ) ;
#304 = LINE ( 'NONE', #33, #337 ) ;
#305 = CIRCLE ( 'NONE', #136, 0.1249999999999998057 ) ;
#306 = SURFACE_STYLE_USAGE ( .BOTH. , #303 ) ;
#307 = CARTESIAN_POINT ( 'NONE',  ( -0.1249999999999994588, 1.500000000000000222, 0.000000000000000000 ) ) ;
#308 = ORIENTED_EDGE ( 'NONE', *, *, #36, .F. ) ;
#309 =( LENGTH_UNIT ( ) NAMED_UNIT ( * ) SI_UNIT ( $, .METRE. ) );
#310 = CARTESIAN_POINT ( 'NONE',  ( 1.530808498934189352E-17, 1.500000000000000222, 0.1249999999999998057 ) ) ;
#311 = CIRCLE ( 'NONE', #284, 0.1250000000000000000 ) ;
#312 = VERTEX_POINT ( 'NONE', #213 ) ;
#313 =( GEOMETRIC_REPRESENTATION_CONTEXT ( 3 ) GLOBAL_UNCERTAINTY_ASSIGNED_CONTEXT ( ( #170 ) ) GLOBAL_UNIT_ASSIGNED_CONTEXT ( ( #14, #202, #143 ) ) REPRESENTATION_CONTEXT ( 'NONE', 'WORKASPACE' ) );
#314 = CARTESIAN_POINT ( 'NONE',  ( 0.000000000000000000, 0.1250000000000000278, 0.000000000000000000 ) ) ;
#315 = DIRECTION ( 'NONE',  ( -0.000000000000000000, -1.000000000000000000, -0.000000000000000000 ) ) ;
#316 = DIRECTION ( 'NONE',  ( 1.000000000000000000, 0.000000000000000000, 0.000000000000000000 ) ) ;
#317 = DIMENSIONAL_EXPONENTS ( 1.000000000000000000, 0.000000000000000000, 0.000000000000000000, 0.000000000000000000, 0.000000000000000000, 0.000000000000000000, 0.000000000000000000 ) ;
#318 = VECTOR ( 'NONE', #3, 39.37007874015748143 ) ;
#319 = DIRECTION ( 'NONE',  ( -1.000000000000000000, 0.000000000000000000, 0.000000000000000000 ) ) ;
#320 = DIRECTION ( 'NONE',  ( 0.000000000000000000, 0.000000000000000000, 1.000000000000000000 ) ) ;
#321 = DIRECTION ( 'NONE',  ( -0.000000000000000000, -1.000000000000000000, -0.000000000000000000 ) ) ;
#322 = ORIENTED_EDGE ( 'NONE', *, *, #9, .F. ) ;
#323 = AXIS2_PLACEMENT_3D ( 'NONE', #91, #321, #53 ) ;
#324 = UNCERTAINTY_MEASURE_WITH_UNIT (LENGTH_MEASURE( 1.000000000000000082E-05 ), #174, 'distance_accuracy_value', 'NONE');
#325 = EDGE_LOOP ( 'NONE', ( #354, #128, #38, #247 ) ) ;
#326 = CARTESIAN_POINT ( 'NONE',  ( 1.854629848431626834E-16, 1.500000000000000222, 0.000000000000000000 ) ) ;
#327 = ORIENTED_EDGE ( 'NONE', *, *, #76, .F. ) ;
#328 = CYLINDRICAL_SURFACE ( 'NONE', #79, 0.1249999999999997363 ) ;
#329 = MECHANICAL_DESIGN_GEOMETRIC_PRESENTATION_REPRESENTATION (  '', ( #108 ), #87 ) ;
#330 = MECHANICAL_DESIGN_GEOMETRIC_PRESENTATION_REPRESENTATION (  '', ( #149 ), #279 ) ;
#331 = SURFACE_STYLE_USAGE ( .BOTH. , #294 ) ;
#332 = CARTESIAN_POINT ( 'NONE',  ( 0.000000000000000000, 1.500000000000000222, 0.000000000000000000 ) ) ;
#333 = EDGE_LOOP ( 'NONE', ( #297, #270 ) ) ;
#334 = PRESENTATION_LAYER_ASSIGNMENT (  '', '', ( #5 ) ) ;
#335 = EDGE_CURVE ( 'NONE', #96, #93, #222, .T. ) ;
#336 = DIMENSIONAL_EXPONENTS ( 1.000000000000000000, 0.000000000000000000, 0.000000000000000000, 0.000000000000000000, 0.000000000000000000, 0.000000000000000000, 0.000000000000000000 ) ;
#337 = VECTOR ( 'NONE', #157, 39.37007874015748143 ) ;
#338 = SURFACE_STYLE_USAGE ( .BOTH. , #360 ) ;
#339 = DIRECTION ( 'NONE',  ( -1.644635498670202785E-16, 1.000000000000000000, -0.000000000000000000 ) ) ;
#340 =( CONVERSION_BASED_UNIT ( 'INCH', #109 ) LENGTH_UNIT ( ) NAMED_UNIT ( #94 ) );
#341 = SURFACE_SIDE_STYLE ('',( #39 ) ) ;
#342 = DIRECTION ( 'NONE',  ( 1.000000000000000000, 0.000000000000000000, -1.224646799147353207E-16 ) ) ;
#343 = CIRCLE ( 'NONE', #182, 0.1249999999999996392 ) ;
#344 = FILL_AREA_STYLE_COLOUR ( '', #243 ) ;
#345 = LENGTH_MEASURE_WITH_UNIT ( LENGTH_MEASURE( 0.02539999999999999897 ), #188 );
#346 = SPHERICAL_SURFACE ( 'NONE', #118, 0.1250000000000000000 ) ;
#347 = EDGE_CURVE ( 'NONE', #93, #96, #61, .T. ) ;
#348 = ORIENTED_EDGE ( 'NONE', *, *, #139, .F. ) ;
#349 = DIRECTION ( 'NONE',  ( -1.000000000000000000, 0.000000000000000000, 0.000000000000000000 ) ) ;
#350 =( LENGTH_UNIT ( ) NAMED_UNIT ( * ) SI_UNIT ( $, .METRE. ) );
#351 = ORIENTED_EDGE ( 'NONE', *, *, #124, .T. ) ;
#352 = MECHANICAL_DESIGN_GEOMETRIC_PRESENTATION_REPRESENTATION (  '', ( #141 ), #117 ) ;
#353 = AXIS2_PLACEMENT_3D ( 'NONE', #326, #113, #186 ) ;
#354 = ORIENTED_EDGE ( 'NONE', *, *, #58, .T. ) ;
#355 = SHAPE_DEFINITION_REPRESENTATION ( #171, #258 ) ;
#356 = MECHANICAL_DESIGN_GEOMETRIC_PRESENTATION_REPRESENTATION (  '', ( #221 ), #131 ) ;
#357 = CYLINDRICAL_SURFACE ( 'NONE', #245, 0.1249999999999999029 ) ;
#358 = CARTESIAN_POINT ( 'NONE',  ( 0.1249999999999997918, 3.000000000000000444, 0.000000000000000000 ) ) ;
#359 =( NAMED_UNIT ( * ) PLANE_ANGLE_UNIT ( ) SI_UNIT ( $, .RADIAN. ) );
#360 = SURFACE_SIDE_STYLE ('',( #18 ) ) ;
#361 = APPLICATION_CONTEXT ( 'automotive_design' ) ;
#362 = CARTESIAN_POINT ( 'NONE',  ( 0.000000000000000000, 0.1250000000000000278, 0.000000000000000000 ) ) ;
#363 = CIRCLE ( 'NONE', #35, 0.1249999999999999584 ) ;
#364 = CARTESIAN_POINT ( 'NONE',  ( 0.1249999999999999584, 0.1250000000000000278, 0.000000000000000000 ) ) ;
#365 = CARTESIAN_POINT ( 'NONE',  ( 0.000000000000000000, 0.000000000000000000, 0.000000000000000000 ) ) ;
#366 = CYLINDRICAL_SURFACE ( 'NONE', #173, 0.1249999999999997363 ) ;
#367 = CIRCLE ( 'NONE', #140, 0.1250000000000000000 ) ;
#368 = CIRCLE ( 'NONE', #323, 0.1249999999999999584 ) ;
#369 = MANIFOLD_SOLID_BREP ( 'Revolve - Cutting Edge', #158 ) ;
#370 = DIRECTION ( 'NONE',  ( -0.000000000000000000, -1.000000000000000000, -0.000000000000000000 ) ) ;
#371 = ORIENTED_EDGE ( 'NONE', *, *, #107, .F. ) ;
#372 = SURFACE_SIDE_STYLE ('',( #267 ) ) ;
#373 = DIRECTION ( 'NONE',  ( 0.000000000000000000, 0.000000000000000000, -1.000000000000000000 ) ) ;
ENDSEC;
END-ISO-10303-21;
