ISO-10303-21;
HEADER;
FILE_DESCRIPTION (( 'STEP AP214' ),
    '1' );
FILE_NAME ('59613.STEP',
    '2023-07-24T15:15:25',
    ( '' ),
    ( '' ),
    'SwSTEP 2.0',
    'SolidWorks 2023',
    '' );
FILE_SCHEMA (( 'AUTOMOTIVE_DESIGN' ));
ENDSEC;

DATA;
#1 = VERTEX_POINT ( 'NONE', #142 ) ;
#2 =( GEOMETRIC_REPRESENTATION_CONTEXT ( 3 ) GLOBAL_UNCERTAINTY_ASSIGNED_CONTEXT ( ( #305 ) ) GLOBAL_UNIT_ASSIGNED_CONTEXT ( ( #347, #57, #5 ) ) REPRESENTATION_CONTEXT ( 'NONE', 'WORKASPACE' ) );
#3 = MECHANICAL_DESIGN_GEOMETRIC_PRESENTATION_REPRESENTATION (  '', ( #328 ), #207 ) ;
#4 = DIRECTION ( 'NONE',  ( -0.000000000000000000, -1.000000000000000000, -0.000000000000000000 ) ) ;
#5 =( NAMED_UNIT ( * ) SI_UNIT ( $, .STERADIAN. ) SOLID_ANGLE_UNIT ( ) );
#6 = PRODUCT_DEFINITION ( 'UNKNOWN', '', #58, #152 ) ;
#7 = DIRECTION ( 'NONE',  ( -0.000000000000000000, -1.000000000000000000, -0.000000000000000000 ) ) ;
#8 = DIRECTION ( 'NONE',  ( -1.203966067220177465E-16, 1.000000000000000000, -0.000000000000000000 ) ) ;
#9 = SURFACE_STYLE_FILL_AREA ( #297 ) ;
#10 = CARTESIAN_POINT ( 'NONE',  ( 0.000000000000000000, 0.000000000000000000, -5.000000000000000888 ) ) ;
#11 = COLOUR_RGB ( '',0.7921568627450980005, 0.8196078431372548767, 0.9333333333333333481 ) ;
#12 = SURFACE_STYLE_FILL_AREA ( #179 ) ;
#13 = DIRECTION ( 'NONE',  ( -1.203966067220177465E-16, 1.000000000000000000, -0.000000000000000000 ) ) ;
#14 = CARTESIAN_POINT ( 'NONE',  ( -4.999999999999987566, 75.00000000000000000, 0.000000000000000000 ) ) ;
#15 =( GEOMETRIC_REPRESENTATION_CONTEXT ( 3 ) GLOBAL_UNCERTAINTY_ASSIGNED_CONTEXT ( ( #126 ) ) GLOBAL_UNIT_ASSIGNED_CONTEXT ( ( #127, #361, #227 ) ) REPRESENTATION_CONTEXT ( 'NONE', 'WORKASPACE' ) );
#16 = CARTESIAN_POINT ( 'NONE',  ( 0.000000000000000000, 0.000000000000000000, 0.000000000000000000 ) ) ;
#17 = CARTESIAN_POINT ( 'NONE',  ( 0.000000000000000000, 25.00000000000000000, 0.000000000000000000 ) ) ;
#18 =( LENGTH_UNIT ( ) NAMED_UNIT ( * ) SI_UNIT ( .MILLI., .METRE. ) );
#19 = ADVANCED_FACE ( 'NONE', ( #146 ), #267, .T. ) ;
#20 = EDGE_CURVE ( 'NONE', #366, #338, #288, .T. ) ;
#21 = COLOUR_RGB ( '',1.000000000000000000, 0.000000000000000000, 0.000000000000000000 ) ;
#22 = AXIS2_PLACEMENT_3D ( 'NONE', #91, #61, #276 ) ;
#23 =( NAMED_UNIT ( * ) SI_UNIT ( $, .STERADIAN. ) SOLID_ANGLE_UNIT ( ) );
#24 = EDGE_LOOP ( 'NONE', ( #78, #221, #246, #27 ) ) ;
#25 = CYLINDRICAL_SURFACE ( 'NONE', #99, 5.000000000000000888 ) ;
#26 = VERTEX_POINT ( 'NONE', #34 ) ;
#27 = ORIENTED_EDGE ( 'NONE', *, *, #245, .F. ) ;
#28 = CIRCLE ( 'NONE', #289, 4.999999999999987566 ) ;
#29 = CIRCLE ( 'NONE', #255, 0.5000000000000004441 ) ;
#30 = MANIFOLD_SOLID_BREP ( 'Revolve - Cutting Edge', #209 ) ;
#31 = CARTESIAN_POINT ( 'NONE',  ( 4.999999999999996447, 75.00000000000000000, 6.123233995736754449E-16 ) ) ;
#32 = EDGE_CURVE ( 'NONE', #366, #304, #28, .T. ) ;
#33 = UNCERTAINTY_MEASURE_WITH_UNIT (LENGTH_MEASURE( 1.000000000000000082E-05 ), #293, 'distance_accuracy_value', 'NONE');
#34 = CARTESIAN_POINT ( 'NONE',  ( 5.817072295949928412E-16, 0.000000000000000000, 4.500000000000000888 ) ) ;
#35 = CARTESIAN_POINT ( 'NONE',  ( 0.000000000000000000, 0.5000000000000000000, -4.500000000000000888 ) ) ;
#36 = SURFACE_STYLE_USAGE ( .BOTH. , #111 ) ;
#37 = SURFACE_STYLE_USAGE ( .BOTH. , #174 ) ;
#38 = SURFACE_SIDE_STYLE ('',( #210 ) ) ;
#39 = EDGE_CURVE ( 'NONE', #54, #311, #279, .T. ) ;
#40 = AXIS2_PLACEMENT_3D ( 'NONE', #277, #128, #218 ) ;
#41 = PRESENTATION_STYLE_ASSIGNMENT (( #37 ) ) ;
#42 = DIRECTION ( 'NONE',  ( 1.000000000000000000, 0.000000000000000000, -1.224646799147353207E-16 ) ) ;
#43 = CARTESIAN_POINT ( 'NONE',  ( 0.000000000000000000, 25.00000000000000000, 0.000000000000000000 ) ) ;
#44 = DIRECTION ( 'NONE',  ( -0.000000000000000000, -1.000000000000000000, -0.000000000000000000 ) ) ;
#45 = FACE_OUTER_BOUND ( 'NONE', #24, .T. ) ;
#46 = COLOUR_RGB ( '',1.000000000000000000, 0.000000000000000000, 0.000000000000000000 ) ;
#47 = ADVANCED_FACE ( 'NONE', ( #292 ), #339, .T. ) ;
#48 = SURFACE_STYLE_FILL_AREA ( #284 ) ;
#49 = ORIENTED_EDGE ( 'NONE', *, *, #94, .T. ) ;
#50 = VERTEX_POINT ( 'NONE', #228 ) ;
#51 =( LENGTH_UNIT ( ) NAMED_UNIT ( * ) SI_UNIT ( .MILLI., .METRE. ) );
#52 = STYLED_ITEM ( 'NONE', ( #231 ), #269 ) ;
#53 = DIRECTION ( 'NONE',  ( -1.000000000000000000, 0.000000000000000000, 0.000000000000000000 ) ) ;
#54 = VERTEX_POINT ( 'NONE', #171 ) ;
#55 = APPLICATION_PROTOCOL_DEFINITION ( 'draft international standard', 'automotive_design', 1998, #196 ) ;
#56 = EDGE_LOOP ( 'NONE', ( #313, #216 ) ) ;
#57 =( NAMED_UNIT ( * ) PLANE_ANGLE_UNIT ( ) SI_UNIT ( $, .RADIAN. ) );
#58 = PRODUCT_DEFINITION_FORMATION_WITH_SPECIFIED_SOURCE ( 'ANY', '', #359, .NOT_KNOWN. ) ;
#59 = STYLED_ITEM ( 'NONE', ( #192 ), #47 ) ;
#60 = AXIS2_PLACEMENT_3D ( 'NONE', #118, #212, #358 ) ;
#61 = DIRECTION ( 'NONE',  ( 0.000000000000000000, -1.000000000000000000, -0.000000000000000000 ) ) ;
#62 =( LENGTH_UNIT ( ) NAMED_UNIT ( * ) SI_UNIT ( .MILLI., .METRE. ) );
#63 = FILL_AREA_STYLE_COLOUR ( '', #137 ) ;
#64 =( GEOMETRIC_REPRESENTATION_CONTEXT ( 3 ) GLOBAL_UNCERTAINTY_ASSIGNED_CONTEXT ( ( #197 ) ) GLOBAL_UNIT_ASSIGNED_CONTEXT ( ( #51, #167, #290 ) ) REPRESENTATION_CONTEXT ( 'NONE', 'WORKASPACE' ) );
#65 = DIRECTION ( 'NONE',  ( -0.000000000000000000, -1.000000000000000000, -0.000000000000000000 ) ) ;
#66 = PRESENTATION_STYLE_ASSIGNMENT (( #150 ) ) ;
#67 = FACE_OUTER_BOUND ( 'NONE', #186, .T. ) ;
#68 = AXIS2_PLACEMENT_3D ( 'NONE', #195, #343, #108 ) ;
#69 = PRESENTATION_LAYER_ASSIGNMENT (  '', '', ( #254 ) ) ;
#70 =( GEOMETRIC_REPRESENTATION_CONTEXT ( 3 ) GLOBAL_UNCERTAINTY_ASSIGNED_CONTEXT ( ( #263 ) ) GLOBAL_UNIT_ASSIGNED_CONTEXT ( ( #323, #203, #320 ) ) REPRESENTATION_CONTEXT ( 'NONE', 'WORKASPACE' ) );
#71 = ORIENTED_EDGE ( 'NONE', *, *, #156, .T. ) ;
#72 = UNCERTAINTY_MEASURE_WITH_UNIT (LENGTH_MEASURE( 1.000000000000000082E-05 ), #181, 'distance_accuracy_value', 'NONE');
#73 = CARTESIAN_POINT ( 'NONE',  ( 6.123233995736762930E-15, 75.00000000000000000, 0.000000000000000000 ) ) ;
#74 = DIRECTION ( 'NONE',  ( -0.000000000000000000, -1.000000000000000000, -0.000000000000000000 ) ) ;
#75 = LINE ( 'NONE', #97, #335 ) ;
#76 = CARTESIAN_POINT ( 'NONE',  ( -4.999999999999976019, 25.00000000000000000, 0.000000000000000000 ) ) ;
#77 = COLOUR_RGB ( '',0.7921568627450980005, 0.8196078431372548767, 0.9333333333333333481 ) ;
#78 = ORIENTED_EDGE ( 'NONE', *, *, #20, .F. ) ;
#79 = ORIENTED_EDGE ( 'NONE', *, *, #169, .F. ) ;
#80 = ORIENTED_EDGE ( 'NONE', *, *, #321, .T. ) ;
#81 = SURFACE_SIDE_STYLE ('',( #229 ) ) ;
#82 = PRESENTATION_LAYER_ASSIGNMENT (  '', '', ( #208 ) ) ;
#83 = EDGE_CURVE ( 'NONE', #54, #312, #233, .T. ) ;
#84 = CIRCLE ( 'NONE', #155, 4.999999999999987566 ) ;
#85 = PRODUCT_DEFINITION_SHAPE ( 'NONE', 'NONE',  #6 ) ;
#86 = UNCERTAINTY_MEASURE_WITH_UNIT (LENGTH_MEASURE( 1.000000000000000082E-05 ), #18, 'distance_accuracy_value', 'NONE');
#87 = SURFACE_SIDE_STYLE ('',( #344 ) ) ;
#88 = CARTESIAN_POINT ( 'NONE',  ( 0.000000000000000000, 0.5000000000000000000, 0.000000000000000000 ) ) ;
#89 = PRESENTATION_LAYER_ASSIGNMENT (  '', '', ( #234 ) ) ;
#90 = DIRECTION ( 'NONE',  ( 0.000000000000000000, 0.000000000000000000, -1.000000000000000000 ) ) ;
#91 = CARTESIAN_POINT ( 'NONE',  ( 0.000000000000000000, 0.000000000000000000, 0.000000000000000000 ) ) ;
#92 =( NAMED_UNIT ( * ) SI_UNIT ( $, .STERADIAN. ) SOLID_ANGLE_UNIT ( ) );
#93 = CARTESIAN_POINT ( 'NONE',  ( 6.123233995736762930E-15, 75.00000000000000000, 0.000000000000000000 ) ) ;
#94 = EDGE_CURVE ( 'NONE', #1, #311, #336, .T. ) ;
#95 = AXIS2_PLACEMENT_3D ( 'NONE', #329, #13, #178 ) ;
#96 =( NAMED_UNIT ( * ) PLANE_ANGLE_UNIT ( ) SI_UNIT ( $, .RADIAN. ) );
#97 = CARTESIAN_POINT ( 'NONE',  ( -4.999999999999984901, 75.00000000000000000, 0.000000000000000000 ) ) ;
#98 = ORIENTED_EDGE ( 'NONE', *, *, #94, .F. ) ;
#99 = AXIS2_PLACEMENT_3D ( 'NONE', #222, #340, #180 ) ;
#100 = STYLED_ITEM ( 'NONE', ( #41 ), #19 ) ;
#101 = EDGE_CURVE ( 'NONE', #107, #338, #153, .T. ) ;
#102 =( NAMED_UNIT ( * ) SI_UNIT ( $, .STERADIAN. ) SOLID_ANGLE_UNIT ( ) );
#103 = ORIENTED_EDGE ( 'NONE', *, *, #345, .T. ) ;
#104 = CARTESIAN_POINT ( 'NONE',  ( 0.000000000000000000, 25.00000000000000000, 0.000000000000000000 ) ) ;
#105 = EDGE_LOOP ( 'NONE', ( #71, #49, #342, #163 ) ) ;
#106 = CIRCLE ( 'NONE', #319, 5.000000000000000888 ) ;
#107 = VERTEX_POINT ( 'NONE', #14 ) ;
#108 = DIRECTION ( 'NONE',  ( 1.000000000000000000, 0.000000000000000000, 0.000000000000000000 ) ) ;
#109 = AXIS2_PLACEMENT_3D ( 'NONE', #261, #316, #161 ) ;
#110 = TOROIDAL_SURFACE ( 'NONE', #346, 4.500000000000000888, 0.5000000000000002220 ) ;
#111 = SURFACE_SIDE_STYLE ('',( #204 ) ) ;
#112 = MECHANICAL_DESIGN_GEOMETRIC_PRESENTATION_REPRESENTATION (  '', ( #254 ), #182 ) ;
#113 = PRESENTATION_LAYER_ASSIGNMENT (  '', '', ( #52 ) ) ;
#114 =( NAMED_UNIT ( * ) PLANE_ANGLE_UNIT ( ) SI_UNIT ( $, .RADIAN. ) );
#115 = SURFACE_SIDE_STYLE ('',( #148 ) ) ;
#116 = DIRECTION ( 'NONE',  ( -1.224646799147353454E-16, 0.000000000000000000, -1.000000000000000000 ) ) ;
#117 = ADVANCED_FACE ( 'NONE', ( #67 ), #110, .T. ) ;
#118 = CARTESIAN_POINT ( 'NONE',  ( 6.123233995736762930E-15, 75.00000000000000000, 0.000000000000000000 ) ) ;
#119 = CARTESIAN_POINT ( 'NONE',  ( 0.000000000000000000, 0.5000000000000000000, 0.000000000000000000 ) ) ;
#120 = DIRECTION ( 'NONE',  ( 0.000000000000000000, 1.000000000000000000, 0.000000000000000000 ) ) ;
#121 = PRODUCT_RELATED_PRODUCT_CATEGORY ( 'part', '', ( #359 ) ) ;
#122 = DIRECTION ( 'NONE',  ( 0.000000000000000000, 0.000000000000000000, -1.000000000000000000 ) ) ;
#123 = SURFACE_STYLE_USAGE ( .BOTH. , #115 ) ;
#124 = SURFACE_STYLE_USAGE ( .BOTH. , #184 ) ;
#125 = DIRECTION ( 'NONE',  ( 0.000000000000000000, 0.000000000000000000, -1.000000000000000000 ) ) ;
#126 = UNCERTAINTY_MEASURE_WITH_UNIT (LENGTH_MEASURE( 1.000000000000000082E-05 ), #127, 'distance_accuracy_value', 'NONE');
#127 =( LENGTH_UNIT ( ) NAMED_UNIT ( * ) SI_UNIT ( .MILLI., .METRE. ) );
#128 = DIRECTION ( 'NONE',  ( 1.203966067220177465E-16, -1.000000000000000000, 0.000000000000000000 ) ) ;
#129 = MECHANICAL_DESIGN_GEOMETRIC_PRESENTATION_REPRESENTATION (  '', ( #208 ), #64 ) ;
#130 = AXIS2_PLACEMENT_3D ( 'NONE', #271, #356, #122 ) ;
#131 = EDGE_LOOP ( 'NONE', ( #285, #214 ) ) ;
#132 =( NAMED_UNIT ( * ) SI_UNIT ( $, .STERADIAN. ) SOLID_ANGLE_UNIT ( ) );
#133 = DIRECTION ( 'NONE',  ( 0.000000000000000000, 0.000000000000000000, -1.000000000000000000 ) ) ;
#134 = ORIENTED_EDGE ( 'NONE', *, *, #39, .T. ) ;
#135 = ORIENTED_EDGE ( 'NONE', *, *, #185, .F. ) ;
#136 = ORIENTED_EDGE ( 'NONE', *, *, #166, .F. ) ;
#137 = COLOUR_RGB ( '',1.000000000000000000, 0.000000000000000000, 0.000000000000000000 ) ;
#138 = DIRECTION ( 'NONE',  ( -1.203966067220177465E-16, 1.000000000000000000, -0.000000000000000000 ) ) ;
#139 = PRESENTATION_STYLE_ASSIGNMENT (( #315 ) ) ;
#140 = MECHANICAL_DESIGN_GEOMETRIC_PRESENTATION_REPRESENTATION (  '', ( #100 ), #334 ) ;
#141 = CIRCLE ( 'NONE', #60, 4.999999999999993783 ) ;
#142 = CARTESIAN_POINT ( 'NONE',  ( 6.123233995736766282E-16, 25.00000000000000000, 5.000000000000000000 ) ) ;
#143 = LINE ( 'NONE', #10, #274 ) ;
#144 = DIRECTION ( 'NONE',  ( -1.000000000000000000, 0.000000000000000000, 0.000000000000000000 ) ) ;
#145 = FACE_OUTER_BOUND ( 'NONE', #224, .T. ) ;
#146 = FACE_OUTER_BOUND ( 'NONE', #56, .T. ) ;
#147 = CIRCLE ( 'NONE', #193, 5.000000000000000000 ) ;
#148 = SURFACE_STYLE_FILL_AREA ( #151 ) ;
#149 = ADVANCED_FACE ( 'NONE', ( #145 ), #176, .T. ) ;
#150 = SURFACE_STYLE_USAGE ( .BOTH. , #38 ) ;
#151 = FILL_AREA_STYLE ('',( #239 ) ) ;
#152 = PRODUCT_DEFINITION_CONTEXT ( 'detailed design', #196, 'design' ) ;
#153 = CIRCLE ( 'NONE', #369, 4.999999999999993783 ) ;
#154 = CARTESIAN_POINT ( 'NONE',  ( 6.123233995736766282E-16, 0.5000000000000000000, 5.000000000000000888 ) ) ;
#155 = AXIS2_PLACEMENT_3D ( 'NONE', #244, #365, #250 ) ;
#156 = EDGE_CURVE ( 'NONE', #50, #1, #303, .T. ) ;
#157 = DIRECTION ( 'NONE',  ( 0.000000000000000000, 0.000000000000000000, -1.000000000000000000 ) ) ;
#158 = MECHANICAL_DESIGN_GEOMETRIC_PRESENTATION_REPRESENTATION (  '', ( #59 ), #2 ) ;
#159 = PRESENTATION_LAYER_ASSIGNMENT (  '', '', ( #328 ) ) ;
#160 = EDGE_LOOP ( 'NONE', ( #341, #190 ) ) ;
#161 = DIRECTION ( 'NONE',  ( 0.000000000000000000, 0.000000000000000000, -1.000000000000000000 ) ) ;
#162 = ORIENTED_EDGE ( 'NONE', *, *, #324, .F. ) ;
#163 = ORIENTED_EDGE ( 'NONE', *, *, #198, .F. ) ;
#164 = COLOUR_RGB ( '',1.000000000000000000, 0.000000000000000000, 0.000000000000000000 ) ;
#165 = AXIS2_PLACEMENT_3D ( 'NONE', #172, #7, #351 ) ;
#166 = EDGE_CURVE ( 'NONE', #304, #107, #75, .T. ) ;
#167 =( NAMED_UNIT ( * ) PLANE_ANGLE_UNIT ( ) SI_UNIT ( $, .RADIAN. ) );
#168 = SHAPE_DEFINITION_REPRESENTATION ( #85, #243 ) ;
#169 = EDGE_CURVE ( 'NONE', #311, #26, #29, .T. ) ;
#170 = AXIS2_PLACEMENT_3D ( 'NONE', #295, #237, #238 ) ;
#171 = CARTESIAN_POINT ( 'NONE',  ( 0.000000000000000000, 0.5000000000000000000, -5.000000000000000888 ) ) ;
#172 = CARTESIAN_POINT ( 'NONE',  ( 0.000000000000000000, 0.000000000000000000, 0.000000000000000000 ) ) ;
#173 = DIRECTION ( 'NONE',  ( -1.000000000000000000, 0.000000000000000000, 0.000000000000000000 ) ) ;
#174 = SURFACE_SIDE_STYLE ('',( #9 ) ) ;
#175 = ADVANCED_FACE ( 'NONE', ( #325 ), #272, .F. ) ;
#176 = PLANE ( 'NONE',  #22 ) ;
#177 = MECHANICAL_DESIGN_GEOMETRIC_PRESENTATION_REPRESENTATION (  '', ( #234 ), #291 ) ;
#178 = DIRECTION ( 'NONE',  ( -1.000000000000000000, 0.000000000000000000, 0.000000000000000000 ) ) ;
#179 = FILL_AREA_STYLE ('',( #330 ) ) ;
#180 = DIRECTION ( 'NONE',  ( 0.000000000000000000, 0.000000000000000000, -1.000000000000000000 ) ) ;
#181 =( LENGTH_UNIT ( ) NAMED_UNIT ( * ) SI_UNIT ( .MILLI., .METRE. ) );
#182 =( GEOMETRIC_REPRESENTATION_CONTEXT ( 3 ) GLOBAL_UNCERTAINTY_ASSIGNED_CONTEXT ( ( #247 ) ) GLOBAL_UNIT_ASSIGNED_CONTEXT ( ( #211, #294, #236 ) ) REPRESENTATION_CONTEXT ( 'NONE', 'WORKASPACE' ) );
#183 = DIRECTION ( 'NONE',  ( 0.000000000000000000, 0.000000000000000000, -1.000000000000000000 ) ) ;
#184 = SURFACE_SIDE_STYLE ('',( #48 ) ) ;
#185 = EDGE_CURVE ( 'NONE', #26, #312, #230, .T. ) ;
#186 = EDGE_LOOP ( 'NONE', ( #134, #333, #308, #282 ) ) ;
#187 = FACE_OUTER_BOUND ( 'NONE', #160, .T. ) ;
#188 = PRESENTATION_LAYER_ASSIGNMENT (  '', '', ( #309 ) ) ;
#189 = ORIENTED_EDGE ( 'NONE', *, *, #185, .T. ) ;
#190 = ORIENTED_EDGE ( 'NONE', *, *, #245, .T. ) ;
#191 = ORIENTED_EDGE ( 'NONE', *, *, #287, .T. ) ;
#192 = PRESENTATION_STYLE_ASSIGNMENT (( #258 ) ) ;
#193 = AXIS2_PLACEMENT_3D ( 'NONE', #104, #74, #133 ) ;
#194 = PRODUCT_CONTEXT ( 'NONE', #260, 'mechanical' ) ;
#195 = CARTESIAN_POINT ( 'NONE',  ( 0.000000000000000000, 0.000000000000000000, 0.000000000000000000 ) ) ;
#196 = APPLICATION_CONTEXT ( 'automotive_design' ) ;
#197 = UNCERTAINTY_MEASURE_WITH_UNIT (LENGTH_MEASURE( 1.000000000000000082E-05 ), #51, 'distance_accuracy_value', 'NONE');
#198 = EDGE_CURVE ( 'NONE', #50, #54, #143, .T. ) ;
#199 = DIRECTION ( 'NONE',  ( 0.000000000000000000, 0.000000000000000000, -1.000000000000000000 ) ) ;
#200 = AXIS2_PLACEMENT_3D ( 'NONE', #43, #120, #241 ) ;
#201 = AXIS2_PLACEMENT_3D ( 'NONE', #17, #232, #125 ) ;
#202 = FACE_OUTER_BOUND ( 'NONE', #226, .T. ) ;
#203 =( NAMED_UNIT ( * ) PLANE_ANGLE_UNIT ( ) SI_UNIT ( $, .RADIAN. ) );
#204 = SURFACE_STYLE_FILL_AREA ( #353 ) ;
#205 = PRESENTATION_STYLE_ASSIGNMENT (( #123 ) ) ;
#206 = DIRECTION ( 'NONE',  ( -1.203966067220177465E-16, 1.000000000000000000, -0.000000000000000000 ) ) ;
#207 =( GEOMETRIC_REPRESENTATION_CONTEXT ( 3 ) GLOBAL_UNCERTAINTY_ASSIGNED_CONTEXT ( ( #86 ) ) GLOBAL_UNIT_ASSIGNED_CONTEXT ( ( #18, #307, #102 ) ) REPRESENTATION_CONTEXT ( 'NONE', 'WORKASPACE' ) );
#208 = STYLED_ITEM ( 'NONE', ( #139 ), #30 ) ;
#209 = CLOSED_SHELL ( 'NONE', ( #355, #117, #149, #47, #259, #19 ) ) ;
#210 = SURFACE_STYLE_FILL_AREA ( #322 ) ;
#211 =( LENGTH_UNIT ( ) NAMED_UNIT ( * ) SI_UNIT ( .MILLI., .METRE. ) );
#212 = DIRECTION ( 'NONE',  ( -1.203966067220177465E-16, 1.000000000000000000, -0.000000000000000000 ) ) ;
#213 = CARTESIAN_POINT ( 'NONE',  ( 0.000000000000000000, 0.000000000000000000, -4.500000000000000888 ) ) ;
#214 = ORIENTED_EDGE ( 'NONE', *, *, #32, .F. ) ;
#215 = AXIS2_PLACEMENT_3D ( 'NONE', #35, #144, #266 ) ;
#216 = ORIENTED_EDGE ( 'NONE', *, *, #321, .F. ) ;
#217 = ADVANCED_FACE ( 'NONE', ( #360 ), #270, .T. ) ;
#218 = DIRECTION ( 'NONE',  ( 1.000000000000000000, 1.203966067220177465E-16, 0.000000000000000000 ) ) ;
#219 = UNCERTAINTY_MEASURE_WITH_UNIT (LENGTH_MEASURE( 1.000000000000000082E-05 ), #62, 'distance_accuracy_value', 'NONE');
#220 = PRESENTATION_STYLE_ASSIGNMENT (( #124 ) ) ;
#221 = ORIENTED_EDGE ( 'NONE', *, *, #32, .T. ) ;
#222 = CARTESIAN_POINT ( 'NONE',  ( 0.000000000000000000, 0.000000000000000000, 0.000000000000000000 ) ) ;
#223 = MECHANICAL_DESIGN_GEOMETRIC_PRESENTATION_REPRESENTATION (  '', ( #309 ), #70 ) ;
#224 = EDGE_LOOP ( 'NONE', ( #191, #189 ) ) ;
#225 = APPLICATION_PROTOCOL_DEFINITION ( 'draft international standard', 'automotive_design', 1998, #260 ) ;
#226 = EDGE_LOOP ( 'NONE', ( #98, #80, #368, #162 ) ) ;
#227 =( NAMED_UNIT ( * ) SI_UNIT ( $, .STERADIAN. ) SOLID_ANGLE_UNIT ( ) );
#228 = CARTESIAN_POINT ( 'NONE',  ( 0.000000000000000000, 25.00000000000000000, -5.000000000000000000 ) ) ;
#229 = SURFACE_STYLE_FILL_AREA ( #350 ) ;
#230 = CIRCLE ( 'NONE', #130, 4.500000000000000888 ) ;
#231 = PRESENTATION_STYLE_ASSIGNMENT (( #36 ) ) ;
#232 = DIRECTION ( 'NONE',  ( -0.000000000000000000, -1.000000000000000000, -0.000000000000000000 ) ) ;
#233 = CIRCLE ( 'NONE', #215, 0.5000000000000004441 ) ;
#234 = STYLED_ITEM ( 'NONE', ( #66 ), #259 ) ;
#235 = FILL_AREA_STYLE_COLOUR ( '', #11 ) ;
#236 =( NAMED_UNIT ( * ) SI_UNIT ( $, .STERADIAN. ) SOLID_ANGLE_UNIT ( ) );
#237 = DIRECTION ( 'NONE',  ( -1.203966067220177465E-16, 1.000000000000000000, 0.000000000000000000 ) ) ;
#238 = DIRECTION ( 'NONE',  ( -1.000000000000000000, -1.203966067220177465E-16, 0.000000000000000000 ) ) ;
#239 = FILL_AREA_STYLE_COLOUR ( '', #249 ) ;
#240 = VECTOR ( 'NONE', #8, 1000.000000000000000 ) ;
#241 = DIRECTION ( 'NONE',  ( 0.000000000000000000, -0.000000000000000000, 1.000000000000000000 ) ) ;
#242 = DIRECTION ( 'NONE',  ( -0.000000000000000000, -1.000000000000000000, -0.000000000000000000 ) ) ;
#243 = ADVANCED_BREP_SHAPE_REPRESENTATION ( '59613', ( #30, #269, #68 ), #15 ) ;
#244 = CARTESIAN_POINT ( 'NONE',  ( 1.214306433183764966E-14, 25.00000000000000000, 0.000000000000000000 ) ) ;
#245 = EDGE_CURVE ( 'NONE', #338, #107, #141, .T. ) ;
#246 = ORIENTED_EDGE ( 'NONE', *, *, #166, .T. ) ;
#247 = UNCERTAINTY_MEASURE_WITH_UNIT (LENGTH_MEASURE( 1.000000000000000082E-05 ), #211, 'distance_accuracy_value', 'NONE');
#248 = FILL_AREA_STYLE_COLOUR ( '', #296 ) ;
#249 = COLOUR_RGB ( '',1.000000000000000000, 0.000000000000000000, 0.000000000000000000 ) ;
#250 = DIRECTION ( 'NONE',  ( -1.000000000000000000, 0.000000000000000000, 0.000000000000000000 ) ) ;
#251 = ORIENTED_EDGE ( 'NONE', *, *, #83, .T. ) ;
#252 = DIRECTION ( 'NONE',  ( -1.203966067220177465E-16, 1.000000000000000000, -0.000000000000000000 ) ) ;
#253 = EDGE_LOOP ( 'NONE', ( #79, #364, #251, #135 ) ) ;
#254 = STYLED_ITEM ( 'NONE', ( #326 ), #117 ) ;
#255 = AXIS2_PLACEMENT_3D ( 'NONE', #299, #42, #116 ) ;
#256 = ORIENTED_EDGE ( 'NONE', *, *, #101, .F. ) ;
#257 = FILL_AREA_STYLE_COLOUR ( '', #77 ) ;
#258 = SURFACE_STYLE_USAGE ( .BOTH. , #87 ) ;
#259 = ADVANCED_FACE ( 'NONE', ( #202 ), #265, .T. ) ;
#260 = APPLICATION_CONTEXT ( 'automotive_design' ) ;
#261 = CARTESIAN_POINT ( 'NONE',  ( 0.000000000000000000, 0.5000000000000000000, 0.000000000000000000 ) ) ;
#262 = AXIS2_PLACEMENT_3D ( 'NONE', #16, #367, #157 ) ;
#263 = UNCERTAINTY_MEASURE_WITH_UNIT (LENGTH_MEASURE( 1.000000000000000082E-05 ), #323, 'distance_accuracy_value', 'NONE');
#264 = FILL_AREA_STYLE_COLOUR ( '', #164 ) ;
#265 = CYLINDRICAL_SURFACE ( 'NONE', #165, 5.000000000000000888 ) ;
#266 = DIRECTION ( 'NONE',  ( 0.000000000000000000, 0.000000000000000000, 1.000000000000000000 ) ) ;
#267 = PLANE ( 'NONE',  #200 ) ;
#268 = MECHANICAL_DESIGN_GEOMETRIC_PRESENTATION_REPRESENTATION (  '', ( #52 ), #314 ) ;
#269 = MANIFOLD_SOLID_BREP ( 'Revolve - Tool Body (Straight Shanked)', #302 ) ;
#270 = CYLINDRICAL_SURFACE ( 'NONE', #95, 4.999999999999990230 ) ;
#271 = CARTESIAN_POINT ( 'NONE',  ( 0.000000000000000000, 0.000000000000000000, 0.000000000000000000 ) ) ;
#272 = PLANE ( 'NONE',  #170 ) ;
#273 = AXIS2_PLACEMENT_3D ( 'NONE', #88, #4, #199 ) ;
#274 = VECTOR ( 'NONE', #242, 1000.000000000000000 ) ;
#275 = PLANE ( 'NONE',  #40 ) ;
#276 = DIRECTION ( 'NONE',  ( 0.000000000000000000, 0.000000000000000000, -1.000000000000000000 ) ) ;
#277 = CARTESIAN_POINT ( 'NONE',  ( 5.000000000000000000, 75.00000000000000000, 0.000000000000000000 ) ) ;
#278 = ADVANCED_FACE ( 'NONE', ( #45 ), #298, .T. ) ;
#279 = CIRCLE ( 'NONE', #109, 5.000000000000000888 ) ;
#280 = CARTESIAN_POINT ( 'NONE',  ( 0.000000000000000000, 0.5000000000000000000, 0.000000000000000000 ) ) ;
#281 = CIRCLE ( 'NONE', #262, 4.500000000000000888 ) ;
#282 = ORIENTED_EDGE ( 'NONE', *, *, #83, .F. ) ;
#283 = DIRECTION ( 'NONE',  ( -1.000000000000000000, 0.000000000000000000, 0.000000000000000000 ) ) ;
#284 = FILL_AREA_STYLE ('',( #248 ) ) ;
#285 = ORIENTED_EDGE ( 'NONE', *, *, #345, .F. ) ;
#286 = ORIENTED_EDGE ( 'NONE', *, *, #20, .T. ) ;
#287 = EDGE_CURVE ( 'NONE', #312, #26, #281, .T. ) ;
#288 = LINE ( 'NONE', #31, #240 ) ;
#289 = AXIS2_PLACEMENT_3D ( 'NONE', #318, #138, #283 ) ;
#290 =( NAMED_UNIT ( * ) SI_UNIT ( $, .STERADIAN. ) SOLID_ANGLE_UNIT ( ) );
#291 =( GEOMETRIC_REPRESENTATION_CONTEXT ( 3 ) GLOBAL_UNCERTAINTY_ASSIGNED_CONTEXT ( ( #33 ) ) GLOBAL_UNIT_ASSIGNED_CONTEXT ( ( #293, #114, #92 ) ) REPRESENTATION_CONTEXT ( 'NONE', 'WORKASPACE' ) );
#292 = FACE_OUTER_BOUND ( 'NONE', #253, .T. ) ;
#293 =( LENGTH_UNIT ( ) NAMED_UNIT ( * ) SI_UNIT ( .MILLI., .METRE. ) );
#294 =( NAMED_UNIT ( * ) PLANE_ANGLE_UNIT ( ) SI_UNIT ( $, .RADIAN. ) );
#295 = CARTESIAN_POINT ( 'NONE',  ( 1.214306433183764966E-14, 25.00000000000000000, 0.000000000000000000 ) ) ;
#296 = COLOUR_RGB ( '',1.000000000000000000, 0.000000000000000000, 0.000000000000000000 ) ;
#297 = FILL_AREA_STYLE ('',( #349 ) ) ;
#298 = CYLINDRICAL_SURFACE ( 'NONE', #370, 4.999999999999990230 ) ;
#299 = CARTESIAN_POINT ( 'NONE',  ( 5.510910596163089556E-16, 0.5000000000000000000, 4.500000000000000888 ) ) ;
#300 = SURFACE_SIDE_STYLE ('',( #12 ) ) ;
#301 = CARTESIAN_POINT ( 'NONE',  ( 5.000000000000000888, 25.00000000000000000, 6.123233995736757408E-16 ) ) ;
#302 = CLOSED_SHELL ( 'NONE', ( #217, #175, #278, #337 ) ) ;
#303 = CIRCLE ( 'NONE', #201, 5.000000000000000000 ) ;
#304 = VERTEX_POINT ( 'NONE', #76 ) ;
#305 = UNCERTAINTY_MEASURE_WITH_UNIT (LENGTH_MEASURE( 1.000000000000000082E-05 ), #347, 'distance_accuracy_value', 'NONE');
#306 = CARTESIAN_POINT ( 'NONE',  ( 5.000000000000000888, 75.00000000000000000, 6.123233995736757408E-16 ) ) ;
#307 =( NAMED_UNIT ( * ) PLANE_ANGLE_UNIT ( ) SI_UNIT ( $, .RADIAN. ) );
#308 = ORIENTED_EDGE ( 'NONE', *, *, #287, .F. ) ;
#309 = STYLED_ITEM ( 'NONE', ( #205 ), #149 ) ;
#310 = FACE_OUTER_BOUND ( 'NONE', #105, .T. ) ;
#311 = VERTEX_POINT ( 'NONE', #154 ) ;
#312 = VERTEX_POINT ( 'NONE', #213 ) ;
#313 = ORIENTED_EDGE ( 'NONE', *, *, #156, .F. ) ;
#314 =( GEOMETRIC_REPRESENTATION_CONTEXT ( 3 ) GLOBAL_UNCERTAINTY_ASSIGNED_CONTEXT ( ( #219 ) ) GLOBAL_UNIT_ASSIGNED_CONTEXT ( ( #62, #96, #23 ) ) REPRESENTATION_CONTEXT ( 'NONE', 'WORKASPACE' ) );
#315 = SURFACE_STYLE_USAGE ( .BOTH. , #81 ) ;
#316 = DIRECTION ( 'NONE',  ( -0.000000000000000000, -1.000000000000000000, -0.000000000000000000 ) ) ;
#317 = VECTOR ( 'NONE', #65, 1000.000000000000000 ) ;
#318 = CARTESIAN_POINT ( 'NONE',  ( 1.214306433183764966E-14, 25.00000000000000000, 0.000000000000000000 ) ) ;
#319 = AXIS2_PLACEMENT_3D ( 'NONE', #280, #332, #183 ) ;
#320 =( NAMED_UNIT ( * ) SI_UNIT ( $, .STERADIAN. ) SOLID_ANGLE_UNIT ( ) );
#321 = EDGE_CURVE ( 'NONE', #1, #50, #147, .T. ) ;
#322 = FILL_AREA_STYLE ('',( #63 ) ) ;
#323 =( LENGTH_UNIT ( ) NAMED_UNIT ( * ) SI_UNIT ( .MILLI., .METRE. ) );
#324 = EDGE_CURVE ( 'NONE', #311, #54, #106, .T. ) ;
#325 = FACE_OUTER_BOUND ( 'NONE', #131, .T. ) ;
#326 = PRESENTATION_STYLE_ASSIGNMENT (( #354 ) ) ;
#327 = PRESENTATION_LAYER_ASSIGNMENT (  '', '', ( #59 ) ) ;
#328 = STYLED_ITEM ( 'NONE', ( #220 ), #355 ) ;
#329 = CARTESIAN_POINT ( 'NONE',  ( 6.123233995736762930E-15, 75.00000000000000000, 0.000000000000000000 ) ) ;
#330 = FILL_AREA_STYLE_COLOUR ( '', #46 ) ;
#331 =( NAMED_UNIT ( * ) PLANE_ANGLE_UNIT ( ) SI_UNIT ( $, .RADIAN. ) );
#332 = DIRECTION ( 'NONE',  ( -0.000000000000000000, -1.000000000000000000, -0.000000000000000000 ) ) ;
#333 = ORIENTED_EDGE ( 'NONE', *, *, #169, .T. ) ;
#334 =( GEOMETRIC_REPRESENTATION_CONTEXT ( 3 ) GLOBAL_UNCERTAINTY_ASSIGNED_CONTEXT ( ( #72 ) ) GLOBAL_UNIT_ASSIGNED_CONTEXT ( ( #181, #331, #132 ) ) REPRESENTATION_CONTEXT ( 'NONE', 'WORKASPACE' ) );
#335 = VECTOR ( 'NONE', #362, 1000.000000000000000 ) ;
#336 = LINE ( 'NONE', #357, #317 ) ;
#337 = ADVANCED_FACE ( 'NONE', ( #187 ), #275, .F. ) ;
#338 = VERTEX_POINT ( 'NONE', #306 ) ;
#339 = TOROIDAL_SURFACE ( 'NONE', #273, 4.500000000000000888, 0.5000000000000002220 ) ;
#340 = DIRECTION ( 'NONE',  ( -0.000000000000000000, -1.000000000000000000, -0.000000000000000000 ) ) ;
#341 = ORIENTED_EDGE ( 'NONE', *, *, #101, .T. ) ;
#342 = ORIENTED_EDGE ( 'NONE', *, *, #39, .F. ) ;
#343 = DIRECTION ( 'NONE',  ( 0.000000000000000000, 0.000000000000000000, 1.000000000000000000 ) ) ;
#344 = SURFACE_STYLE_FILL_AREA ( #348 ) ;
#345 = EDGE_CURVE ( 'NONE', #304, #366, #84, .T. ) ;
#346 = AXIS2_PLACEMENT_3D ( 'NONE', #119, #44, #90 ) ;
#347 =( LENGTH_UNIT ( ) NAMED_UNIT ( * ) SI_UNIT ( .MILLI., .METRE. ) );
#348 = FILL_AREA_STYLE ('',( #264 ) ) ;
#349 = FILL_AREA_STYLE_COLOUR ( '', #21 ) ;
#350 = FILL_AREA_STYLE ('',( #257 ) ) ;
#351 = DIRECTION ( 'NONE',  ( 0.000000000000000000, 0.000000000000000000, -1.000000000000000000 ) ) ;
#352 = PRESENTATION_LAYER_ASSIGNMENT (  '', '', ( #100 ) ) ;
#353 = FILL_AREA_STYLE ('',( #235 ) ) ;
#354 = SURFACE_STYLE_USAGE ( .BOTH. , #300 ) ;
#355 = ADVANCED_FACE ( 'NONE', ( #310 ), #25, .T. ) ;
#356 = DIRECTION ( 'NONE',  ( -0.000000000000000000, -1.000000000000000000, -0.000000000000000000 ) ) ;
#357 = CARTESIAN_POINT ( 'NONE',  ( 6.123233995736767268E-16, 0.000000000000000000, 5.000000000000000888 ) ) ;
#358 = DIRECTION ( 'NONE',  ( -1.000000000000000000, 0.000000000000000000, 0.000000000000000000 ) ) ;
#359 = PRODUCT ( '59613', '59613', '', ( #194 ) ) ;
#360 = FACE_OUTER_BOUND ( 'NONE', #363, .T. ) ;
#361 =( NAMED_UNIT ( * ) PLANE_ANGLE_UNIT ( ) SI_UNIT ( $, .RADIAN. ) );
#362 = DIRECTION ( 'NONE',  ( -1.203966067220177465E-16, 1.000000000000000000, -0.000000000000000000 ) ) ;
#363 = EDGE_LOOP ( 'NONE', ( #103, #286, #256, #136 ) ) ;
#364 = ORIENTED_EDGE ( 'NONE', *, *, #324, .T. ) ;
#365 = DIRECTION ( 'NONE',  ( -1.203966067220177465E-16, 1.000000000000000000, -0.000000000000000000 ) ) ;
#366 = VERTEX_POINT ( 'NONE', #301 ) ;
#367 = DIRECTION ( 'NONE',  ( -0.000000000000000000, -1.000000000000000000, -0.000000000000000000 ) ) ;
#368 = ORIENTED_EDGE ( 'NONE', *, *, #198, .T. ) ;
#369 = AXIS2_PLACEMENT_3D ( 'NONE', #93, #206, #173 ) ;
#370 = AXIS2_PLACEMENT_3D ( 'NONE', #73, #252, #53 ) ;
ENDSEC;
END-ISO-10303-21;
