ISO-10303-21;
HEADER;
FILE_DESCRIPTION (( 'STEP AP214' ),
    '1' );
FILE_NAME ('Micro_RMEM-012-2X.STEP',
    '2021-09-01T23:58:37',
    ( '' ),
    ( '' ),
    'SwSTEP 2.0',
    'SolidWorks 2020',
    '' );
FILE_SCHEMA (( 'AUTOMOTIVE_DESIGN' ));
ENDSEC;

DATA;
#1 = CARTESIAN_POINT ( 'NONE',  ( -0.02359837799999998584, 5.061059740320813803E-18, 0.1496059999999999890 ) ) ;
#2 =( NAMED_UNIT ( * ) SI_UNIT ( $, .STERADIAN. ) SOLID_ANGLE_UNIT ( ) );
#3 = ORIENTED_EDGE ( 'NONE', *, *, #146, .F. ) ;
#4 = PRESENTATION_LAYER_ASSIGNMENT (  '', '', ( #25 ) ) ;
#5 = DIRECTION ( 'NONE',  ( 1.000000000000000000, 0.0000000000000000000, 0.0000000000000000000 ) ) ;
#6 = UNCERTAINTY_MEASURE_WITH_UNIT (LENGTH_MEASURE( 1.000000000000000082E-05 ), #243, 'distance_accuracy_value', 'NONE');
#7 = ORIENTED_EDGE ( 'NONE', *, *, #273, .T. ) ;
#8 = ORIENTED_EDGE ( 'NONE', *, *, #180, .F. ) ;
#9 = EDGE_LOOP ( 'NONE', ( #193, #48, #87, #281 ) ) ;
#10 = AXIS2_PLACEMENT_3D ( 'NONE', #70, #103, #227 ) ;
#11 = DIRECTION ( 'NONE',  ( -0.0000000000000000000, -0.0000000000000000000, -1.000000000000000000 ) ) ;
#12 = DIRECTION ( 'NONE',  ( 0.0000000000000000000, 0.0000000000000000000, -1.000000000000000000 ) ) ;
#13 = DIRECTION ( 'NONE',  ( -1.224646799147353207E-16, -0.0000000000000000000, -1.000000000000000000 ) ) ;
#14 = AXIS2_PLACEMENT_3D ( 'NONE', #236, #211, #5 ) ;
#15 = DIRECTION ( 'NONE',  ( 1.000000000000000000, 0.0000000000000000000, -0.0000000000000000000 ) ) ;
#16 = CONICAL_SURFACE ( 'NONE', #224, 0.02359837799999999972, 0.1745329251994338360 ) ;
#17 = MECHANICAL_DESIGN_GEOMETRIC_PRESENTATION_REPRESENTATION (  '', ( #280 ), #252 ) ;
#18 = EDGE_LOOP ( 'NONE', ( #8, #95, #216, #239 ) ) ;
#19 =( NAMED_UNIT ( * ) SI_UNIT ( $, .STERADIAN. ) SOLID_ANGLE_UNIT ( ) );
#20 = EDGE_CURVE ( 'NONE', #250, #126, #125, .T. ) ;
#21 = AXIS2_PLACEMENT_3D ( 'NONE', #207, #204, #115 ) ;
#22 = SURFACE_STYLE_FILL_AREA ( #104 ) ;
#23 = VERTEX_POINT ( 'NONE', #240 ) ;
#24 = ADVANCED_FACE ( 'NONE', ( #287 ), #38, .T. ) ;
#25 = STYLED_ITEM ( 'NONE', ( #62 ), #184 ) ;
#26 = UNCERTAINTY_MEASURE_WITH_UNIT (LENGTH_MEASURE( 1.000000000000000082E-05 ), #68, 'distance_accuracy_value', 'NONE');
#27 = ORIENTED_EDGE ( 'NONE', *, *, #202, .F. ) ;
#28 = PRODUCT ( 'Micro_RMEM-012-2X', 'Micro_RMEM-012-2X', '', ( #259 ) ) ;
#29 = EDGE_LOOP ( 'NONE', ( #50, #256, #277, #166 ) ) ;
#30 = ADVANCED_FACE ( 'NONE', ( #97 ), #31, .F. ) ;
#31 = PLANE ( 'NONE',  #237 ) ;
#32 = CIRCLE ( 'NONE', #284, 0.02359837799999999972 ) ;
#33 = PLANE ( 'NONE',  #108 ) ;
#34 = DIRECTION ( 'NONE',  ( 1.000000000000000000, 0.0000000000000000000, 0.0000000000000000000 ) ) ;
#35 = EDGE_CURVE ( 'NONE', #163, #250, #150, .T. ) ;
#36 = CIRCLE ( 'NONE', #271, 0.05905500000000000332 ) ;
#37 = ADVANCED_FACE ( 'NONE', ( #96 ), #155, .T. ) ;
#38 = CYLINDRICAL_SURFACE ( 'NONE', #58, 0.02359837799999999972 ) ;
#39 = CARTESIAN_POINT ( 'NONE',  ( 0.0000000000000000000, 0.0000000000000000000, 1.481062999999999574 ) ) ;
#40 = AXIS2_PLACEMENT_3D ( 'NONE', #47, #276, #129 ) ;
#41 = DIRECTION ( 'NONE',  ( 0.1736481776669313304, 0.0000000000000000000, 0.9848077530122077983 ) ) ;
#42 = FILL_AREA_STYLE_COLOUR ( '', #285 ) ;
#43 = EDGE_LOOP ( 'NONE', ( #282, #7, #161, #51 ) ) ;
#44 = CIRCLE ( 'NONE', #221, 0.05905500000000000332 ) ;
#45 = LENGTH_MEASURE_WITH_UNIT ( LENGTH_MEASURE( 0.02539999999999999897 ), #179 );
#46 = ORIENTED_EDGE ( 'NONE', *, *, #170, .F. ) ;
#47 = CARTESIAN_POINT ( 'NONE',  ( 1.832145090332389117E-17, 0.0000000000000000000, 0.1496059999999999890 ) ) ;
#48 = ORIENTED_EDGE ( 'NONE', *, *, #296, .F. ) ;
#49 = DIRECTION ( 'NONE',  ( -1.224646799147353207E-16, -0.0000000000000000000, -1.000000000000000000 ) ) ;
#50 = ORIENTED_EDGE ( 'NONE', *, *, #194, .F. ) ;
#51 = ORIENTED_EDGE ( 'NONE', *, *, #86, .F. ) ;
#52 = EDGE_CURVE ( 'NONE', #283, #126, #36, .T. ) ;
#53 = DIRECTION ( 'NONE',  ( 1.000000000000000000, 0.0000000000000000000, 0.0000000000000000000 ) ) ;
#54 = DIRECTION ( 'NONE',  ( 0.7071067811865482389, 8.659560562354941486E-17, -0.7071067811865469066 ) ) ;
#55 = AXIS2_PLACEMENT_3D ( 'NONE', #228, #154, #203 ) ;
#56 = LINE ( 'NONE', #200, #199 ) ;
#57 = CARTESIAN_POINT ( 'NONE',  ( 0.0000000000000000000, 0.0000000000000000000, 1.496062999999999921 ) ) ;
#58 = AXIS2_PLACEMENT_3D ( 'NONE', #223, #13, #127 ) ;
#59 = APPLICATION_CONTEXT ( 'automotive_design' ) ;
#60 = VECTOR ( 'NONE', #149, 39.37007874015748143 ) ;
#61 = DIRECTION ( 'NONE',  ( -1.224646799147353207E-16, -0.0000000000000000000, -1.000000000000000000 ) ) ;
#62 = PRESENTATION_STYLE_ASSIGNMENT (( #85 ) ) ;
#63 = PRODUCT_DEFINITION ( 'UNKNOWN', '', #181, #141 ) ;
#64 = CARTESIAN_POINT ( 'NONE',  ( -0.04405499999999973326, 0.0000000000000000000, 1.496062999999999921 ) ) ;
#65 =( NAMED_UNIT ( * ) PLANE_ANGLE_UNIT ( ) SI_UNIT ( $, .RADIAN. ) );
#66 = CARTESIAN_POINT ( 'NONE',  ( -0.05905500000000000332, 0.0000000000000000000, 1.481062999999999574 ) ) ;
#67 = ORIENTED_EDGE ( 'NONE', *, *, #296, .T. ) ;
#68 =( CONVERSION_BASED_UNIT ( 'INCH', #45 ) LENGTH_UNIT ( ) NAMED_UNIT ( #167 ) );
#69 = EDGE_CURVE ( 'NONE', #214, #250, #80, .T. ) ;
#70 = CARTESIAN_POINT ( 'NONE',  ( 1.832145090332389117E-17, 0.0000000000000000000, 0.1496059999999999890 ) ) ;
#71 = ORIENTED_EDGE ( 'NONE', *, *, #269, .T. ) ;
#72 = APPLICATION_PROTOCOL_DEFINITION ( 'draft international standard', 'automotive_design', 1998, #270 ) ;
#73 = CIRCLE ( 'NONE', #117, 0.05905500000000000332 ) ;
#74 = DIRECTION ( 'NONE',  ( 1.000000000000000000, 0.0000000000000000000, 0.0000000000000000000 ) ) ;
#75 = CARTESIAN_POINT ( 'NONE',  ( 0.04405499999999973326, 5.395181473643630390E-18, 1.496062999999999921 ) ) ;
#76 = ORIENTED_EDGE ( 'NONE', *, *, #170, .T. ) ;
#77 = CONICAL_SURFACE ( 'NONE', #187, 0.04405499999999973326, 0.7853981633974491672 ) ;
#78 = CARTESIAN_POINT ( 'NONE',  ( 0.0000000000000000000, 0.0000000000000000000, 1.496062999999999921 ) ) ;
#79 = ADVANCED_FACE ( 'NONE', ( #244 ), #272, .T. ) ;
#80 = CIRCLE ( 'NONE', #107, 0.05905500000000000332 ) ;
#81 = FACE_OUTER_BOUND ( 'NONE', #18, .T. ) ;
#82 = LINE ( 'NONE', #178, #278 ) ;
#83 = SURFACE_SIDE_STYLE ('',( #131 ) ) ;
#84 = DIRECTION ( 'NONE',  ( -0.1736481776669311639, 2.126576849575782392E-17, 0.9848077530122080203 ) ) ;
#85 = SURFACE_STYLE_USAGE ( .BOTH. , #83 ) ;
#86 = EDGE_CURVE ( 'NONE', #238, #23, #56, .T. ) ;
#87 = ORIENTED_EDGE ( 'NONE', *, *, #202, .T. ) ;
#88 = CARTESIAN_POINT ( 'NONE',  ( 0.05905500000000000332, 7.232151672364695422E-18, 1.481062999999999574 ) ) ;
#89 = DIMENSIONAL_EXPONENTS ( 1.000000000000000000, 0.0000000000000000000, 0.0000000000000000000, 0.0000000000000000000, 0.0000000000000000000, 0.0000000000000000000, 0.0000000000000000000 ) ;
#90 = CIRCLE ( 'NONE', #10, 0.02359837799999999972 ) ;
#91 = CYLINDRICAL_SURFACE ( 'NONE', #151, 0.02359837799999999972 ) ;
#92 =( LENGTH_UNIT ( ) NAMED_UNIT ( * ) SI_UNIT ( $, .METRE. ) );
#93 = ORIENTED_EDGE ( 'NONE', *, *, #20, .F. ) ;
#94 = VECTOR ( 'NONE', #54, 39.37007874015748143 ) ;
#95 = ORIENTED_EDGE ( 'NONE', *, *, #194, .T. ) ;
#96 = FACE_OUTER_BOUND ( 'NONE', #9, .T. ) ;
#97 = FACE_OUTER_BOUND ( 'NONE', #185, .T. ) ;
#98 = VECTOR ( 'NONE', #160, 39.37007874015748143 ) ;
#99 = DIRECTION ( 'NONE',  ( -1.000000000000000000, 0.0000000000000000000, 0.0000000000000000000 ) ) ;
#100 = CIRCLE ( 'NONE', #40, 0.02359837799999999972 ) ;
#101 = PRESENTATION_LAYER_ASSIGNMENT (  '', '', ( #280 ) ) ;
#102 = DIRECTION ( 'NONE',  ( -1.224646799147353207E-16, -0.0000000000000000000, -1.000000000000000000 ) ) ;
#103 = DIRECTION ( 'NONE',  ( -1.224646799147353207E-16, -0.0000000000000000000, -1.000000000000000000 ) ) ;
#104 = FILL_AREA_STYLE ('',( #297 ) ) ;
#105 = FILL_AREA_STYLE ('',( #42 ) ) ;
#106 = DIMENSIONAL_EXPONENTS ( 1.000000000000000000, 0.0000000000000000000, 0.0000000000000000000, 0.0000000000000000000, 0.0000000000000000000, 0.0000000000000000000, 0.0000000000000000000 ) ;
#107 = AXIS2_PLACEMENT_3D ( 'NONE', #218, #220, #198 ) ;
#108 = AXIS2_PLACEMENT_3D ( 'NONE', #124, #219, #162 ) ;
#109 = APPLICATION_PROTOCOL_DEFINITION ( 'draft international standard', 'automotive_design', 1998, #59 ) ;
#110 = LINE ( 'NONE', #295, #241 ) ;
#111 = ADVANCED_FACE ( 'NONE', ( #147 ), #16, .T. ) ;
#112 = ORIENTED_EDGE ( 'NONE', *, *, #273, .F. ) ;
#113 = CARTESIAN_POINT ( 'NONE',  ( 0.0000000000000000000, 0.0000000000000000000, 1.496062999999999921 ) ) ;
#114 = CARTESIAN_POINT ( 'NONE',  ( 0.0000000000000000000, 0.0000000000000000000, 0.0000000000000000000 ) ) ;
#115 = DIRECTION ( 'NONE',  ( 1.000000000000000000, 0.0000000000000000000, 0.0000000000000000000 ) ) ;
#116 = ORIENTED_EDGE ( 'NONE', *, *, #69, .F. ) ;
#117 = AXIS2_PLACEMENT_3D ( 'NONE', #39, #286, #169 ) ;
#118 = ORIENTED_EDGE ( 'NONE', *, *, #52, .F. ) ;
#119 = CARTESIAN_POINT ( 'NONE',  ( 0.0000000000000000000, 0.0000000000000000000, 0.0000000000000000000 ) ) ;
#120 = AXIS2_PLACEMENT_3D ( 'NONE', #226, #133, #136 ) ;
#121 = COLOUR_RGB ( '',0.7921568627450980005, 0.8196078431372548767, 0.9333333333333333481 ) ;
#122 = LENGTH_MEASURE_WITH_UNIT ( LENGTH_MEASURE( 0.02539999999999999897 ), #164 );
#123 = ADVANCED_FACE ( 'NONE', ( #267 ), #77, .T. ) ;
#124 = CARTESIAN_POINT ( 'NONE',  ( 0.0000000000000000000, 0.0000000000000000000, 1.496062999999999921 ) ) ;
#125 = LINE ( 'NONE', #246, #60 ) ;
#126 = VERTEX_POINT ( 'NONE', #225 ) ;
#127 = DIRECTION ( 'NONE',  ( -1.000000000000000000, 0.0000000000000000000, 1.224646799147353454E-16 ) ) ;
#128 =( GEOMETRIC_REPRESENTATION_CONTEXT ( 3 ) GLOBAL_UNCERTAINTY_ASSIGNED_CONTEXT ( ( #26 ) ) GLOBAL_UNIT_ASSIGNED_CONTEXT ( ( #68, #249, #255 ) ) REPRESENTATION_CONTEXT ( 'NONE', 'WORKASPACE' ) );
#129 = DIRECTION ( 'NONE',  ( -1.000000000000000000, 0.0000000000000000000, 0.0000000000000000000 ) ) ;
#130 = ADVANCED_BREP_SHAPE_REPRESENTATION ( 'Micro_RMEM-012-2X', ( #184, #21 ), #261 ) ;
#131 = SURFACE_STYLE_FILL_AREA ( #105 ) ;
#132 = ADVANCED_FACE ( 'NONE', ( #81 ), #134, .T. ) ;
#133 = DIRECTION ( 'NONE',  ( -1.224646799147353207E-16, -0.0000000000000000000, -1.000000000000000000 ) ) ;
#134 = CONICAL_SURFACE ( 'NONE', #294, 0.02359837799999999972, 0.1745329251994338360 ) ;
#135 = VERTEX_POINT ( 'NONE', #247 ) ;
#136 = DIRECTION ( 'NONE',  ( -1.000000000000000000, 0.0000000000000000000, 1.224646799147353454E-16 ) ) ;
#137 = CARTESIAN_POINT ( 'NONE',  ( 3.539189826045236673E-34, 0.0000000000000000000, 2.889967808276932184E-18 ) ) ;
#138 = EDGE_CURVE ( 'NONE', #250, #214, #73, .T. ) ;
#139 = EDGE_LOOP ( 'NONE', ( #112, #144, #159, #254 ) ) ;
#140 = DIRECTION ( 'NONE',  ( -1.000000000000000000, 0.0000000000000000000, 1.224646799147353454E-16 ) ) ;
#141 = PRODUCT_DEFINITION_CONTEXT ( 'detailed design', #59, 'design' ) ;
#142 = ORIENTED_EDGE ( 'NONE', *, *, #138, .T. ) ;
#143 = CIRCLE ( 'NONE', #14, 0.04405499999999973326 ) ;
#144 = ORIENTED_EDGE ( 'NONE', *, *, #265, .T. ) ;
#145 = FACE_OUTER_BOUND ( 'NONE', #192, .T. ) ;
#146 = EDGE_CURVE ( 'NONE', #126, #283, #44, .T. ) ;
#147 = FACE_OUTER_BOUND ( 'NONE', #29, .T. ) ;
#148 = AXIS2_PLACEMENT_3D ( 'NONE', #78, #11, #172 ) ;
#149 = DIRECTION ( 'NONE',  ( -0.0000000000000000000, -0.0000000000000000000, -1.000000000000000000 ) ) ;
#150 = LINE ( 'NONE', #75, #94 ) ;
#151 = AXIS2_PLACEMENT_3D ( 'NONE', #114, #49, #140 ) ;
#152 = ADVANCED_FACE ( 'NONE', ( #145 ), #33, .T. ) ;
#153 = CARTESIAN_POINT ( 'NONE',  ( 4.294719930916207473E-17, 0.0000000000000000000, 0.3506904957336562934 ) ) ;
#154 = DIRECTION ( 'NONE',  ( -0.0000000000000000000, -0.0000000000000000000, -1.000000000000000000 ) ) ;
#155 = CONICAL_SURFACE ( 'NONE', #195, 0.04405499999999973326, 0.7853981633974491672 ) ;
#156 = DIRECTION ( 'NONE',  ( -0.7071067811865482389, 0.0000000000000000000, -0.7071067811865469066 ) ) ;
#157 = SHAPE_DEFINITION_REPRESENTATION ( #231, #130 ) ;
#158 = FACE_OUTER_BOUND ( 'NONE', #299, .T. ) ;
#159 = ORIENTED_EDGE ( 'NONE', *, *, #86, .T. ) ;
#160 = DIRECTION ( 'NONE',  ( -0.0000000000000000000, -0.0000000000000000000, -1.000000000000000000 ) ) ;
#161 = ORIENTED_EDGE ( 'NONE', *, *, #269, .F. ) ;
#162 = DIRECTION ( 'NONE',  ( 1.000000000000000000, 0.0000000000000000000, -0.0000000000000000000 ) ) ;
#163 = VERTEX_POINT ( 'NONE', #293 ) ;
#164 =( LENGTH_UNIT ( ) NAMED_UNIT ( * ) SI_UNIT ( $, .METRE. ) );
#165 = ADVANCED_FACE ( 'NONE', ( #158 ), #186, .T. ) ;
#166 = ORIENTED_EDGE ( 'NONE', *, *, #146, .T. ) ;
#167 = DIMENSIONAL_EXPONENTS ( 1.000000000000000000, 0.0000000000000000000, 0.0000000000000000000, 0.0000000000000000000, 0.0000000000000000000, 0.0000000000000000000, 0.0000000000000000000 ) ;
#168 = ORIENTED_EDGE ( 'NONE', *, *, #210, .T. ) ;
#169 = DIRECTION ( 'NONE',  ( 1.000000000000000000, 0.0000000000000000000, 0.0000000000000000000 ) ) ;
#170 = EDGE_CURVE ( 'NONE', #214, #283, #279, .T. ) ;
#171 = CLOSED_SHELL ( 'NONE', ( #24, #132, #123, #165, #79, #152, #37, #111, #288, #30 ) ) ;
#172 = DIRECTION ( 'NONE',  ( -1.000000000000000000, 0.0000000000000000000, 0.0000000000000000000 ) ) ;
#173 = CARTESIAN_POINT ( 'NONE',  ( 1.832145090332389117E-17, 0.0000000000000000000, 0.1496059999999999890 ) ) ;
#174 = AXIS2_PLACEMENT_3D ( 'NONE', #113, #248, #209 ) ;
#175 = EDGE_LOOP ( 'NONE', ( #93, #142, #76, #3 ) ) ;
#176 = VECTOR ( 'NONE', #156, 39.37007874015748143 ) ;
#177 = DIRECTION ( 'NONE',  ( 0.0000000000000000000, 0.0000000000000000000, 1.000000000000000000 ) ) ;
#178 = CARTESIAN_POINT ( 'NONE',  ( 0.02359837799999999972, 2.889967808276932184E-18, -2.889967808276932184E-18 ) ) ;
#179 =( LENGTH_UNIT ( ) NAMED_UNIT ( * ) SI_UNIT ( $, .METRE. ) );
#180 = EDGE_CURVE ( 'NONE', #238, #235, #90, .T. ) ;
#181 = PRODUCT_DEFINITION_FORMATION_WITH_SPECIFIED_SOURCE ( 'ANY', '', #28, .NOT_KNOWN. ) ;
#182 = LINE ( 'NONE', #64, #176 ) ;
#183 = CARTESIAN_POINT ( 'NONE',  ( -0.04405499999999973326, 0.0000000000000000000, 1.496062999999999921 ) ) ;
#184 = MANIFOLD_SOLID_BREP ( 'Cut-Revolve1', #171 ) ;
#185 = EDGE_LOOP ( 'NONE', ( #71, #208 ) ) ;
#186 = CYLINDRICAL_SURFACE ( 'NONE', #55, 0.05905500000000000332 ) ;
#187 = AXIS2_PLACEMENT_3D ( 'NONE', #57, #12, #291 ) ;
#188 =( CONVERSION_BASED_UNIT ( 'INCH', #275 ) LENGTH_UNIT ( ) NAMED_UNIT ( #89 ) );
#189 = ORIENTED_EDGE ( 'NONE', *, *, #69, .T. ) ;
#190 = CARTESIAN_POINT ( 'NONE',  ( -0.05905499999999996169, 0.0000000000000000000, 0.3506904957336562934 ) ) ;
#191 = UNCERTAINTY_MEASURE_WITH_UNIT (LENGTH_MEASURE( 1.000000000000000082E-05 ), #188, 'distance_accuracy_value', 'NONE');
#192 = EDGE_LOOP ( 'NONE', ( #67, #168 ) ) ;
#193 = ORIENTED_EDGE ( 'NONE', *, *, #35, .F. ) ;
#194 = EDGE_CURVE ( 'NONE', #238, #283, #110, .T. ) ;
#195 = AXIS2_PLACEMENT_3D ( 'NONE', #290, #242, #99 ) ;
#196 = CARTESIAN_POINT ( 'NONE',  ( 4.294719930916207473E-17, 0.0000000000000000000, 0.3506904957336562934 ) ) ;
#197 = DIRECTION ( 'NONE',  ( 1.000000000000000000, 0.0000000000000000000, 0.0000000000000000000 ) ) ;
#198 = DIRECTION ( 'NONE',  ( 1.000000000000000000, 0.0000000000000000000, 0.0000000000000000000 ) ) ;
#199 = VECTOR ( 'NONE', #61, 39.37007874015748143 ) ;
#200 = CARTESIAN_POINT ( 'NONE',  ( -0.02359837799999999972, 0.0000000000000000000, 2.889967808276932184E-18 ) ) ;
#201 = CARTESIAN_POINT ( 'NONE',  ( 0.02359837800000001706, 0.0000000000000000000, 0.1496059999999999890 ) ) ;
#202 = EDGE_CURVE ( 'NONE', #260, #214, #182, .T. ) ;
#203 = DIRECTION ( 'NONE',  ( -1.000000000000000000, 0.0000000000000000000, 0.0000000000000000000 ) ) ;
#204 = DIRECTION ( 'NONE',  ( 0.0000000000000000000, 0.0000000000000000000, 1.000000000000000000 ) ) ;
#205 = SURFACE_STYLE_USAGE ( .BOTH. , #253 ) ;
#206 = LINE ( 'NONE', #298, #245 ) ;
#207 = CARTESIAN_POINT ( 'NONE',  ( 0.0000000000000000000, 0.0000000000000000000, 0.0000000000000000000 ) ) ;
#208 = ORIENTED_EDGE ( 'NONE', *, *, #222, .T. ) ;
#209 = DIRECTION ( 'NONE',  ( 1.000000000000000000, 0.0000000000000000000, 0.0000000000000000000 ) ) ;
#210 = EDGE_CURVE ( 'NONE', #163, #260, #217, .T. ) ;
#211 = DIRECTION ( 'NONE',  ( 0.0000000000000000000, 0.0000000000000000000, 1.000000000000000000 ) ) ;
#212 =( NAMED_UNIT ( * ) PLANE_ANGLE_UNIT ( ) SI_UNIT ( $, .RADIAN. ) );
#213 = EDGE_LOOP ( 'NONE', ( #229, #262, #116, #27 ) ) ;
#214 = VERTEX_POINT ( 'NONE', #66 ) ;
#215 = PRODUCT_RELATED_PRODUCT_CATEGORY ( 'part', '', ( #28 ) ) ;
#216 = ORIENTED_EDGE ( 'NONE', *, *, #52, .T. ) ;
#217 = CIRCLE ( 'NONE', #174, 0.04405499999999973326 ) ;
#218 = CARTESIAN_POINT ( 'NONE',  ( 0.0000000000000000000, 0.0000000000000000000, 1.481062999999999574 ) ) ;
#219 = DIRECTION ( 'NONE',  ( 0.0000000000000000000, 0.0000000000000000000, 1.000000000000000000 ) ) ;
#220 = DIRECTION ( 'NONE',  ( 0.0000000000000000000, 0.0000000000000000000, -1.000000000000000000 ) ) ;
#221 = AXIS2_PLACEMENT_3D ( 'NONE', #196, #263, #53 ) ;
#222 = EDGE_CURVE ( 'NONE', #135, #23, #251, .T. ) ;
#223 = CARTESIAN_POINT ( 'NONE',  ( 0.0000000000000000000, 0.0000000000000000000, 0.0000000000000000000 ) ) ;
#224 = AXIS2_PLACEMENT_3D ( 'NONE', #173, #268, #74 ) ;
#225 = CARTESIAN_POINT ( 'NONE',  ( 0.05905500000000004496, 7.232151672364700045E-18, 0.3506904957336562934 ) ) ;
#226 = CARTESIAN_POINT ( 'NONE',  ( 3.539189826045236673E-34, 0.0000000000000000000, 2.889967808276932184E-18 ) ) ;
#227 = DIRECTION ( 'NONE',  ( -1.000000000000000000, 0.0000000000000000000, 0.0000000000000000000 ) ) ;
#228 = CARTESIAN_POINT ( 'NONE',  ( 0.0000000000000000000, 0.0000000000000000000, 1.496062999999999921 ) ) ;
#229 = ORIENTED_EDGE ( 'NONE', *, *, #210, .F. ) ;
#230 = CARTESIAN_POINT ( 'NONE',  ( -0.05905500000000000332, 0.0000000000000000000, 1.496062999999999921 ) ) ;
#231 = PRODUCT_DEFINITION_SHAPE ( 'NONE', 'NONE',  #63 ) ;
#232 = ORIENTED_EDGE ( 'NONE', *, *, #20, .T. ) ;
#233 = DIRECTION ( 'NONE',  ( -1.224646799147353207E-16, -0.0000000000000000000, -1.000000000000000000 ) ) ;
#234 = PRESENTATION_STYLE_ASSIGNMENT (( #205 ) ) ;
#235 = VERTEX_POINT ( 'NONE', #201 ) ;
#236 = CARTESIAN_POINT ( 'NONE',  ( 0.0000000000000000000, 0.0000000000000000000, 1.496062999999999921 ) ) ;
#237 = AXIS2_PLACEMENT_3D ( 'NONE', #119, #177, #15 ) ;
#238 = VERTEX_POINT ( 'NONE', #1 ) ;
#239 = ORIENTED_EDGE ( 'NONE', *, *, #258, .F. ) ;
#240 = CARTESIAN_POINT ( 'NONE',  ( -0.02359837799999999972, 0.0000000000000000000, 5.779935616553864367E-18 ) ) ;
#241 = VECTOR ( 'NONE', #84, 39.37007874015747433 ) ;
#242 = DIRECTION ( 'NONE',  ( 0.0000000000000000000, 0.0000000000000000000, -1.000000000000000000 ) ) ;
#243 =( CONVERSION_BASED_UNIT ( 'INCH', #122 ) LENGTH_UNIT ( ) NAMED_UNIT ( #106 ) );
#244 = FACE_OUTER_BOUND ( 'NONE', #175, .T. ) ;
#245 = VECTOR ( 'NONE', #41, 39.37007874015748143 ) ;
#246 = CARTESIAN_POINT ( 'NONE',  ( 0.05905500000000000332, 7.232151672364695422E-18, 1.496062999999999921 ) ) ;
#247 = CARTESIAN_POINT ( 'NONE',  ( 0.02359837799999999972, 2.889967808276932184E-18, 0.0000000000000000000 ) ) ;
#248 = DIRECTION ( 'NONE',  ( 0.0000000000000000000, 0.0000000000000000000, 1.000000000000000000 ) ) ;
#249 =( NAMED_UNIT ( * ) PLANE_ANGLE_UNIT ( ) SI_UNIT ( $, .RADIAN. ) );
#250 = VERTEX_POINT ( 'NONE', #88 ) ;
#251 = CIRCLE ( 'NONE', #120, 0.02359837799999999972 ) ;
#252 =( GEOMETRIC_REPRESENTATION_CONTEXT ( 3 ) GLOBAL_UNCERTAINTY_ASSIGNED_CONTEXT ( ( #191 ) ) GLOBAL_UNIT_ASSIGNED_CONTEXT ( ( #188, #65, #19 ) ) REPRESENTATION_CONTEXT ( 'NONE', 'WORKASPACE' ) );
#253 = SURFACE_SIDE_STYLE ('',( #22 ) ) ;
#254 = ORIENTED_EDGE ( 'NONE', *, *, #222, .F. ) ;
#255 =( NAMED_UNIT ( * ) SI_UNIT ( $, .STERADIAN. ) SOLID_ANGLE_UNIT ( ) );
#256 = ORIENTED_EDGE ( 'NONE', *, *, #265, .F. ) ;
#257 = FACE_OUTER_BOUND ( 'NONE', #139, .T. ) ;
#258 = EDGE_CURVE ( 'NONE', #235, #126, #206, .T. ) ;
#259 = PRODUCT_CONTEXT ( 'NONE', #270, 'mechanical' ) ;
#260 = VERTEX_POINT ( 'NONE', #183 ) ;
#261 =( GEOMETRIC_REPRESENTATION_CONTEXT ( 3 ) GLOBAL_UNCERTAINTY_ASSIGNED_CONTEXT ( ( #6 ) ) GLOBAL_UNIT_ASSIGNED_CONTEXT ( ( #243, #212, #2 ) ) REPRESENTATION_CONTEXT ( 'NONE', 'WORKASPACE' ) );
#262 = ORIENTED_EDGE ( 'NONE', *, *, #35, .T. ) ;
#263 = DIRECTION ( 'NONE',  ( -1.224646799147353207E-16, -0.0000000000000000000, -1.000000000000000000 ) ) ;
#264 = CARTESIAN_POINT ( 'NONE',  ( 1.832145090332389117E-17, 0.0000000000000000000, 0.1496059999999999890 ) ) ;
#265 = EDGE_CURVE ( 'NONE', #235, #238, #100, .T. ) ;
#266 = MECHANICAL_DESIGN_GEOMETRIC_PRESENTATION_REPRESENTATION (  '', ( #25 ), #128 ) ;
#267 = FACE_OUTER_BOUND ( 'NONE', #213, .T. ) ;
#268 = DIRECTION ( 'NONE',  ( 1.224646799147353207E-16, 0.0000000000000000000, 1.000000000000000000 ) ) ;
#269 = EDGE_CURVE ( 'NONE', #23, #135, #32, .T. ) ;
#270 = APPLICATION_CONTEXT ( 'automotive_design' ) ;
#271 = AXIS2_PLACEMENT_3D ( 'NONE', #153, #102, #197 ) ;
#272 = CYLINDRICAL_SURFACE ( 'NONE', #148, 0.05905500000000000332 ) ;
#273 = EDGE_CURVE ( 'NONE', #235, #135, #82, .T. ) ;
#274 = DIRECTION ( 'NONE',  ( -1.224646799147353207E-16, -0.0000000000000000000, -1.000000000000000000 ) ) ;
#275 = LENGTH_MEASURE_WITH_UNIT ( LENGTH_MEASURE( 0.02539999999999999897 ), #92 );
#276 = DIRECTION ( 'NONE',  ( -1.224646799147353207E-16, -0.0000000000000000000, -1.000000000000000000 ) ) ;
#277 = ORIENTED_EDGE ( 'NONE', *, *, #258, .T. ) ;
#278 = VECTOR ( 'NONE', #274, 39.37007874015748143 ) ;
#279 = LINE ( 'NONE', #230, #98 ) ;
#280 = STYLED_ITEM ( 'NONE', ( #234 ), #130 ) ;
#281 = ORIENTED_EDGE ( 'NONE', *, *, #138, .F. ) ;
#282 = ORIENTED_EDGE ( 'NONE', *, *, #180, .T. ) ;
#283 = VERTEX_POINT ( 'NONE', #190 ) ;
#284 = AXIS2_PLACEMENT_3D ( 'NONE', #137, #233, #292 ) ;
#285 = COLOUR_RGB ( '',0.7921568627450980005, 0.8196078431372548767, 0.9333333333333333481 ) ;
#286 = DIRECTION ( 'NONE',  ( 0.0000000000000000000, 0.0000000000000000000, -1.000000000000000000 ) ) ;
#287 = FACE_OUTER_BOUND ( 'NONE', #43, .T. ) ;
#288 = ADVANCED_FACE ( 'NONE', ( #257 ), #91, .T. ) ;
#289 = DIRECTION ( 'NONE',  ( 1.224646799147353207E-16, 0.0000000000000000000, 1.000000000000000000 ) ) ;
#290 = CARTESIAN_POINT ( 'NONE',  ( 0.0000000000000000000, 0.0000000000000000000, 1.496062999999999921 ) ) ;
#291 = DIRECTION ( 'NONE',  ( -1.000000000000000000, 0.0000000000000000000, 0.0000000000000000000 ) ) ;
#292 = DIRECTION ( 'NONE',  ( -1.000000000000000000, 0.0000000000000000000, 1.224646799147353454E-16 ) ) ;
#293 = CARTESIAN_POINT ( 'NONE',  ( 0.04405499999999973326, 6.313666573004162521E-18, 1.496062999999999921 ) ) ;
#294 = AXIS2_PLACEMENT_3D ( 'NONE', #264, #289, #34 ) ;
#295 = CARTESIAN_POINT ( 'NONE',  ( -0.02359837799999998584, 2.889967808276932184E-18, 0.1496059999999999890 ) ) ;
#296 = EDGE_CURVE ( 'NONE', #260, #163, #143, .T. ) ;
#297 = FILL_AREA_STYLE_COLOUR ( '', #121 ) ;
#298 = CARTESIAN_POINT ( 'NONE',  ( 0.02359837800000001706, 0.0000000000000000000, 0.1496059999999999890 ) ) ;
#299 = EDGE_LOOP ( 'NONE', ( #189, #232, #118, #46 ) ) ;
ENDSEC;
END-ISO-10303-21;
