ISO-10303-21;
HEADER;
FILE_DESCRIPTION (( 'STEP AP214' ),
    '1' );
FILE_NAME ('82567.STEP',
    '2023-06-23T06:24:05',
    ( '' ),
    ( '' ),
    'SwSTEP 2.0',
    'SolidWorks 2023',
    '' );
FILE_SCHEMA (( 'AUTOMOTIVE_DESIGN' ));
ENDSEC;

DATA;
#1 = PLANE ( 'NONE',  #134 ) ;
#2 = DIRECTION ( 'NONE',  ( -9.184850993605148438E-17, 1.000000000000000000, -0.000000000000000000 ) ) ;
#3 =( NAMED_UNIT ( * ) PLANE_ANGLE_UNIT ( ) SI_UNIT ( $, .RADIAN. ) );
#4 = DIRECTION ( 'NONE',  ( -1.000000000000000000, 0.000000000000000000, 0.000000000000000000 ) ) ;
#5 = ADVANCED_FACE ( 'NONE', ( #119 ), #69, .T. ) ;
#6 =( NAMED_UNIT ( * ) SI_UNIT ( $, .STERADIAN. ) SOLID_ANGLE_UNIT ( ) );
#7 = CIRCLE ( 'NONE', #299, 0.1875000000000001943 ) ;
#8 = CARTESIAN_POINT ( 'NONE',  ( 0.000000000000000000, 0.000000000000000000, -0.1875000000000000278 ) ) ;
#9 = EDGE_CURVE ( 'NONE', #49, #290, #124, .T. ) ;
#10 = FILL_AREA_STYLE_COLOUR ( '', #125 ) ;
#11 = CLOSED_SHELL ( 'NONE', ( #123, #227, #254, #267 ) ) ;
#12 = UNCERTAINTY_MEASURE_WITH_UNIT (LENGTH_MEASURE( 1.000000000000000082E-05 ), #202, 'distance_accuracy_value', 'NONE');
#13 = EDGE_CURVE ( 'NONE', #166, #49, #243, .T. ) ;
#14 = CARTESIAN_POINT ( 'NONE',  ( 0.000000000000000000, 2.000000000000000000, 0.000000000000000000 ) ) ;
#15 = MECHANICAL_DESIGN_GEOMETRIC_PRESENTATION_REPRESENTATION (  '', ( #307 ), #189 ) ;
#16 = CYLINDRICAL_SURFACE ( 'NONE', #34, 0.1875000000000001110 ) ;
#17 = ORIENTED_EDGE ( 'NONE', *, *, #13, .T. ) ;
#18 = PRESENTATION_LAYER_ASSIGNMENT (  '', '', ( #128 ) ) ;
#19 = CARTESIAN_POINT ( 'NONE',  ( -1.836970198721029688E-16, 4.000000000000000000, 0.000000000000000000 ) ) ;
#20 = DIRECTION ( 'NONE',  ( 0.000000000000000000, 0.000000000000000000, -1.000000000000000000 ) ) ;
#21 = DIRECTION ( 'NONE',  ( -9.184850993605148438E-17, 1.000000000000000000, -0.000000000000000000 ) ) ;
#22 = LENGTH_MEASURE_WITH_UNIT ( LENGTH_MEASURE( 0.02539999999999999897 ), #31 );
#23 = ORIENTED_EDGE ( 'NONE', *, *, #28, .T. ) ;
#24 = AXIS2_PLACEMENT_3D ( 'NONE', #99, #230, #20 ) ;
#25 = LINE ( 'NONE', #245, #282 ) ;
#26 = ORIENTED_EDGE ( 'NONE', *, *, #129, .F. ) ;
#27 = SURFACE_STYLE_USAGE ( .BOTH. , #52 ) ;
#28 = EDGE_CURVE ( 'NONE', #255, #72, #131, .T. ) ;
#29 = DIRECTION ( 'NONE',  ( -0.000000000000000000, -1.000000000000000000, -0.000000000000000000 ) ) ;
#30 = DIRECTION ( 'NONE',  ( -9.184850993605148438E-17, 1.000000000000000000, -0.000000000000000000 ) ) ;
#31 =( LENGTH_UNIT ( ) NAMED_UNIT ( * ) SI_UNIT ( $, .METRE. ) );
#32 =( LENGTH_UNIT ( ) NAMED_UNIT ( * ) SI_UNIT ( $, .METRE. ) );
#33 = DIMENSIONAL_EXPONENTS ( 1.000000000000000000, 0.000000000000000000, 0.000000000000000000, 0.000000000000000000, 0.000000000000000000, 0.000000000000000000, 0.000000000000000000 ) ;
#34 = AXIS2_PLACEMENT_3D ( 'NONE', #19, #114, #186 ) ;
#35 = EDGE_CURVE ( 'NONE', #215, #192, #100, .T. ) ;
#36 = LENGTH_MEASURE_WITH_UNIT ( LENGTH_MEASURE( 0.02539999999999999897 ), #32 );
#37 = SURFACE_SIDE_STYLE ('',( #122 ) ) ;
#38 = LENGTH_MEASURE_WITH_UNIT ( LENGTH_MEASURE( 0.02539999999999999897 ), #174 );
#39 = CIRCLE ( 'NONE', #210, 0.1875000000000000278 ) ;
#40 = STYLED_ITEM ( 'NONE', ( #272 ), #274 ) ;
#41 = FACE_OUTER_BOUND ( 'NONE', #292, .T. ) ;
#42 = MECHANICAL_DESIGN_GEOMETRIC_PRESENTATION_REPRESENTATION (  '', ( #158 ), #214 ) ;
#43 = CARTESIAN_POINT ( 'NONE',  ( 7.908889478880890156E-34, 2.000000000000000000, 0.000000000000000000 ) ) ;
#44 = EDGE_LOOP ( 'NONE', ( #187, #17, #97, #261 ) ) ;
#45 = ORIENTED_EDGE ( 'NONE', *, *, #35, .F. ) ;
#46 = PRODUCT_DEFINITION_CONTEXT ( 'detailed design', #188, 'design' ) ;
#47 = DIRECTION ( 'NONE',  ( -1.000000000000000000, -9.184850993605148438E-17, 0.000000000000000000 ) ) ;
#48 = SURFACE_STYLE_FILL_AREA ( #135 ) ;
#49 = VERTEX_POINT ( 'NONE', #162 ) ;
#50 = EDGE_LOOP ( 'NONE', ( #45, #26 ) ) ;
#51 = DIRECTION ( 'NONE',  ( 0.000000000000000000, 0.000000000000000000, 1.000000000000000000 ) ) ;
#52 = SURFACE_SIDE_STYLE ('',( #193 ) ) ;
#53 = ORIENTED_EDGE ( 'NONE', *, *, #54, .T. ) ;
#54 = EDGE_CURVE ( 'NONE', #72, #255, #7, .T. ) ;
#55 =( LENGTH_UNIT ( ) NAMED_UNIT ( * ) SI_UNIT ( $, .METRE. ) );
#56 = LENGTH_MEASURE_WITH_UNIT ( LENGTH_MEASURE( 0.02539999999999999897 ), #55 );
#57 = FILL_AREA_STYLE_COLOUR ( '', #136 ) ;
#58 = LENGTH_MEASURE_WITH_UNIT ( LENGTH_MEASURE( 0.02539999999999999897 ), #104 );
#59 = VECTOR ( 'NONE', #79, 39.37007874015748143 ) ;
#60 = MECHANICAL_DESIGN_GEOMETRIC_PRESENTATION_REPRESENTATION (  '', ( #68 ), #211 ) ;
#61 = UNCERTAINTY_MEASURE_WITH_UNIT (LENGTH_MEASURE( 1.000000000000000082E-05 ), #153, 'distance_accuracy_value', 'NONE');
#62 = SURFACE_STYLE_FILL_AREA ( #253 ) ;
#63 = DIRECTION ( 'NONE',  ( 0.000000000000000000, -0.000000000000000000, 1.000000000000000000 ) ) ;
#64 = DIRECTION ( 'NONE',  ( -0.000000000000000000, -1.000000000000000000, -0.000000000000000000 ) ) ;
#65 = CARTESIAN_POINT ( 'NONE',  ( 2.296212748401287726E-17, 0.000000000000000000, 0.1875000000000000278 ) ) ;
#66 =( CONVERSION_BASED_UNIT ( 'INCH', #132 ) LENGTH_UNIT ( ) NAMED_UNIT ( #195 ) );
#67 = AXIS2_PLACEMENT_3D ( 'NONE', #126, #30, #295 ) ;
#68 = STYLED_ITEM ( 'NONE', ( #155 ), #267 ) ;
#69 = CYLINDRICAL_SURFACE ( 'NONE', #113, 0.1875000000000001110 ) ;
#70 = MANIFOLD_SOLID_BREP ( 'Revolve - Cutting Edge', #11 ) ;
#71 = FILL_AREA_STYLE_COLOUR ( '', #236 ) ;
#72 = VERTEX_POINT ( 'NONE', #229 ) ;
#73 = CARTESIAN_POINT ( 'NONE',  ( 0.000000000000000000, 0.000000000000000000, 0.000000000000000000 ) ) ;
#74 =( NAMED_UNIT ( * ) SI_UNIT ( $, .STERADIAN. ) SOLID_ANGLE_UNIT ( ) );
#75 = CYLINDRICAL_SURFACE ( 'NONE', #225, 0.1875000000000000278 ) ;
#76 = ORIENTED_EDGE ( 'NONE', *, *, #102, .T. ) ;
#77 = VECTOR ( 'NONE', #249, 39.37007874015748143 ) ;
#78 = AXIS2_PLACEMENT_3D ( 'NONE', #226, #103, #107 ) ;
#79 = DIRECTION ( 'NONE',  ( -9.184850993605148438E-17, 1.000000000000000000, -0.000000000000000000 ) ) ;
#80 = DIRECTION ( 'NONE',  ( -9.184850993605148438E-17, 1.000000000000000000, -0.000000000000000000 ) ) ;
#81 = EDGE_CURVE ( 'NONE', #290, #49, #39, .T. ) ;
#82 = SURFACE_STYLE_USAGE ( .BOTH. , #37 ) ;
#83 = DIRECTION ( 'NONE',  ( 9.184850993605148438E-17, -1.000000000000000000, 0.000000000000000000 ) ) ;
#84 = ADVANCED_FACE ( 'NONE', ( #280 ), #16, .T. ) ;
#85 =( CONVERSION_BASED_UNIT ( 'INCH', #130 ) LENGTH_UNIT ( ) NAMED_UNIT ( #233 ) );
#86 = SURFACE_STYLE_FILL_AREA ( #152 ) ;
#87 = AXIS2_PLACEMENT_3D ( 'NONE', #43, #111, #47 ) ;
#88 = SURFACE_STYLE_FILL_AREA ( #105 ) ;
#89 = ADVANCED_FACE ( 'NONE', ( #160 ), #90, .F. ) ;
#90 = PLANE ( 'NONE',  #87 ) ;
#91 =( GEOMETRIC_REPRESENTATION_CONTEXT ( 3 ) GLOBAL_UNCERTAINTY_ASSIGNED_CONTEXT ( ( #12 ) ) GLOBAL_UNIT_ASSIGNED_CONTEXT ( ( #202, #244, #74 ) ) REPRESENTATION_CONTEXT ( 'NONE', 'WORKASPACE' ) );
#92 = ORIENTED_EDGE ( 'NONE', *, *, #9, .T. ) ;
#93 = ORIENTED_EDGE ( 'NONE', *, *, #54, .F. ) ;
#94 = PRESENTATION_LAYER_ASSIGNMENT (  '', '', ( #275 ) ) ;
#95 = EDGE_LOOP ( 'NONE', ( #304, #288, #93, #118 ) ) ;
#96 = PRESENTATION_STYLE_ASSIGNMENT (( #82 ) ) ;
#97 = ORIENTED_EDGE ( 'NONE', *, *, #81, .F. ) ;
#98 = FILL_AREA_STYLE ('',( #71 ) ) ;
#99 = CARTESIAN_POINT ( 'NONE',  ( 0.000000000000000000, 0.000000000000000000, 0.000000000000000000 ) ) ;
#100 = CIRCLE ( 'NONE', #306, 0.1875000000000000278 ) ;
#101 = PRODUCT ( '82567', '82567', '', ( #239 ) ) ;
#102 = EDGE_CURVE ( 'NONE', #166, #235, #206, .T. ) ;
#103 = DIRECTION ( 'NONE',  ( 0.000000000000000000, -1.000000000000000000, -0.000000000000000000 ) ) ;
#104 =( LENGTH_UNIT ( ) NAMED_UNIT ( * ) SI_UNIT ( $, .METRE. ) );
#105 = FILL_AREA_STYLE ('',( #300 ) ) ;
#106 =( NAMED_UNIT ( * ) PLANE_ANGLE_UNIT ( ) SI_UNIT ( $, .RADIAN. ) );
#107 = DIRECTION ( 'NONE',  ( 0.000000000000000000, 0.000000000000000000, -1.000000000000000000 ) ) ;
#108 = FACE_OUTER_BOUND ( 'NONE', #309, .T. ) ;
#109 = COLOUR_RGB ( '',0.7921568627450980005, 0.8196078431372548767, 0.9333333333333333481 ) ;
#110 = AXIS2_PLACEMENT_3D ( 'NONE', #73, #51, #222 ) ;
#111 = DIRECTION ( 'NONE',  ( -9.184850993605148438E-17, 1.000000000000000000, 0.000000000000000000 ) ) ;
#112 =( NAMED_UNIT ( * ) PLANE_ANGLE_UNIT ( ) SI_UNIT ( $, .RADIAN. ) );
#113 = AXIS2_PLACEMENT_3D ( 'NONE', #216, #2, #264 ) ;
#114 = DIRECTION ( 'NONE',  ( -9.184850993605148438E-17, 1.000000000000000000, -0.000000000000000000 ) ) ;
#115 = ORIENTED_EDGE ( 'NONE', *, *, #102, .F. ) ;
#116 =( LENGTH_UNIT ( ) NAMED_UNIT ( * ) SI_UNIT ( $, .METRE. ) );
#117 = CARTESIAN_POINT ( 'NONE',  ( 0.000000000000000000, 2.000000000000000000, 0.000000000000000000 ) ) ;
#118 = ORIENTED_EDGE ( 'NONE', *, *, #176, .F. ) ;
#119 = FACE_OUTER_BOUND ( 'NONE', #212, .T. ) ;
#120 = DIRECTION ( 'NONE',  ( 0.000000000000000000, 0.000000000000000000, -1.000000000000000000 ) ) ;
#121 = CARTESIAN_POINT ( 'NONE',  ( -1.836970198721029688E-16, 4.000000000000000000, 0.000000000000000000 ) ) ;
#122 = SURFACE_STYLE_FILL_AREA ( #98 ) ;
#123 = ADVANCED_FACE ( 'NONE', ( #276 ), #75, .T. ) ;
#124 = CIRCLE ( 'NONE', #24, 0.1875000000000000278 ) ;
#125 = COLOUR_RGB ( '',1.000000000000000000, 0.000000000000000000, 0.000000000000000000 ) ;
#126 = CARTESIAN_POINT ( 'NONE',  ( 0.000000000000000000, 2.000000000000000000, 0.000000000000000000 ) ) ;
#127 =( NAMED_UNIT ( * ) SI_UNIT ( $, .STERADIAN. ) SOLID_ANGLE_UNIT ( ) );
#128 = STYLED_ITEM ( 'NONE', ( #291 ), #227 ) ;
#129 = EDGE_CURVE ( 'NONE', #192, #215, #271, .T. ) ;
#130 = LENGTH_MEASURE_WITH_UNIT ( LENGTH_MEASURE( 0.02539999999999999897 ), #205 );
#131 = CIRCLE ( 'NONE', #251, 0.1875000000000001943 ) ;
#132 = LENGTH_MEASURE_WITH_UNIT ( LENGTH_MEASURE( 0.02539999999999999897 ), #116 );
#133 = EDGE_CURVE ( 'NONE', #235, #166, #247, .T. ) ;
#134 = AXIS2_PLACEMENT_3D ( 'NONE', #14, #270, #63 ) ;
#135 = FILL_AREA_STYLE ('',( #170 ) ) ;
#136 = COLOUR_RGB ( '',0.7921568627450980005, 0.8196078431372548767, 0.9333333333333333481 ) ;
#137 = DIRECTION ( 'NONE',  ( -0.000000000000000000, -1.000000000000000000, -0.000000000000000000 ) ) ;
#138 = SURFACE_SIDE_STYLE ('',( #48 ) ) ;
#139 =( NAMED_UNIT ( * ) SI_UNIT ( $, .STERADIAN. ) SOLID_ANGLE_UNIT ( ) );
#140 = ORIENTED_EDGE ( 'NONE', *, *, #81, .T. ) ;
#141 = CARTESIAN_POINT ( 'NONE',  ( 0.000000000000000000, 2.000000000000000000, 0.000000000000000000 ) ) ;
#142 = ORIENTED_EDGE ( 'NONE', *, *, #28, .F. ) ;
#143 = MECHANICAL_DESIGN_GEOMETRIC_PRESENTATION_REPRESENTATION (  '', ( #275 ), #91 ) ;
#144 = CARTESIAN_POINT ( 'NONE',  ( 0.000000000000000000, 0.000000000000000000, 0.000000000000000000 ) ) ;
#145 = CARTESIAN_POINT ( 'NONE',  ( 2.296212748401287726E-17, 2.000000000000000000, 0.1875000000000000278 ) ) ;
#146 = DIRECTION ( 'NONE',  ( -9.184850993605148438E-17, 1.000000000000000000, -0.000000000000000000 ) ) ;
#147 = EDGE_CURVE ( 'NONE', #192, #255, #198, .T. ) ;
#148 = APPLICATION_PROTOCOL_DEFINITION ( 'draft international standard', 'automotive_design', 1998, #175 ) ;
#149 = CARTESIAN_POINT ( 'NONE',  ( 0.000000000000000000, 0.000000000000000000, 0.000000000000000000 ) ) ;
#150 = PRODUCT_RELATED_PRODUCT_CATEGORY ( 'part', '', ( #101 ) ) ;
#151 = PRESENTATION_LAYER_ASSIGNMENT (  '', '', ( #307 ) ) ;
#152 = FILL_AREA_STYLE ('',( #57 ) ) ;
#153 =( CONVERSION_BASED_UNIT ( 'INCH', #58 ) LENGTH_UNIT ( ) NAMED_UNIT ( #33 ) );
#154 = LINE ( 'NONE', #8, #77 ) ;
#155 = PRESENTATION_STYLE_ASSIGNMENT (( #266 ) ) ;
#156 = COLOUR_RGB ( '',1.000000000000000000, 0.000000000000000000, 0.000000000000000000 ) ;
#157 = UNCERTAINTY_MEASURE_WITH_UNIT (LENGTH_MEASURE( 1.000000000000000082E-05 ), #159, 'distance_accuracy_value', 'NONE');
#158 = STYLED_ITEM ( 'NONE', ( #305 ), #70 ) ;
#159 =( CONVERSION_BASED_UNIT ( 'INCH', #38 ) LENGTH_UNIT ( ) NAMED_UNIT ( #164 ) );
#160 = FACE_OUTER_BOUND ( 'NONE', #50, .T. ) ;
#161 = PRESENTATION_LAYER_ASSIGNMENT (  '', '', ( #158 ) ) ;
#162 = CARTESIAN_POINT ( 'NONE',  ( 2.296212748401287726E-17, 0.000000000000000000, 0.1875000000000000278 ) ) ;
#163 = DIMENSIONAL_EXPONENTS ( 1.000000000000000000, 0.000000000000000000, 0.000000000000000000, 0.000000000000000000, 0.000000000000000000, 0.000000000000000000, 0.000000000000000000 ) ;
#164 = DIMENSIONAL_EXPONENTS ( 1.000000000000000000, 0.000000000000000000, 0.000000000000000000, 0.000000000000000000, 0.000000000000000000, 0.000000000000000000, 0.000000000000000000 ) ;
#165 = DIRECTION ( 'NONE',  ( 0.000000000000000000, 0.000000000000000000, -1.000000000000000000 ) ) ;
#166 = VERTEX_POINT ( 'NONE', #145 ) ;
#167 = EDGE_LOOP ( 'NONE', ( #53, #23 ) ) ;
#168 = AXIS2_PLACEMENT_3D ( 'NONE', #224, #83, #201 ) ;
#169 = CARTESIAN_POINT ( 'NONE',  ( -0.1875000000000000278, 2.000000000000000000, 0.000000000000000000 ) ) ;
#170 = FILL_AREA_STYLE_COLOUR ( '', #109 ) ;
#171 = DIMENSIONAL_EXPONENTS ( 1.000000000000000000, 0.000000000000000000, 0.000000000000000000, 0.000000000000000000, 0.000000000000000000, 0.000000000000000000, 0.000000000000000000 ) ;
#172 = UNCERTAINTY_MEASURE_WITH_UNIT (LENGTH_MEASURE( 1.000000000000000082E-05 ), #223, 'distance_accuracy_value', 'NONE');
#173 =( NAMED_UNIT ( * ) PLANE_ANGLE_UNIT ( ) SI_UNIT ( $, .RADIAN. ) );
#174 =( LENGTH_UNIT ( ) NAMED_UNIT ( * ) SI_UNIT ( $, .METRE. ) );
#175 = APPLICATION_CONTEXT ( 'automotive_design' ) ;
#176 = EDGE_CURVE ( 'NONE', #215, #72, #25, .T. ) ;
#177 = VECTOR ( 'NONE', #29, 39.37007874015748143 ) ;
#178 = CARTESIAN_POINT ( 'NONE',  ( 0.000000000000000000, 2.000000000000000000, -0.1875000000000000278 ) ) ;
#179 = SURFACE_SIDE_STYLE ('',( #86 ) ) ;
#180 = SURFACE_STYLE_USAGE ( .BOTH. , #179 ) ;
#181 = COLOUR_RGB ( '',1.000000000000000000, 0.000000000000000000, 0.000000000000000000 ) ;
#182 = UNCERTAINTY_MEASURE_WITH_UNIT (LENGTH_MEASURE( 1.000000000000000082E-05 ), #85, 'distance_accuracy_value', 'NONE');
#183 = SURFACE_SIDE_STYLE ('',( #88 ) ) ;
#184 = DIRECTION ( 'NONE',  ( 0.000000000000000000, 0.000000000000000000, -1.000000000000000000 ) ) ;
#185 = ORIENTED_EDGE ( 'NONE', *, *, #147, .F. ) ;
#186 = DIRECTION ( 'NONE',  ( -1.000000000000000000, 0.000000000000000000, 0.000000000000000000 ) ) ;
#187 = ORIENTED_EDGE ( 'NONE', *, *, #133, .T. ) ;
#188 = APPLICATION_CONTEXT ( 'automotive_design' ) ;
#189 =( GEOMETRIC_REPRESENTATION_CONTEXT ( 3 ) GLOBAL_UNCERTAINTY_ASSIGNED_CONTEXT ( ( #278 ) ) GLOBAL_UNIT_ASSIGNED_CONTEXT ( ( #289, #173, #196 ) ) REPRESENTATION_CONTEXT ( 'NONE', 'WORKASPACE' ) );
#190 = DIRECTION ( 'NONE',  ( -1.000000000000000000, 0.000000000000000000, 0.000000000000000000 ) ) ;
#191 = MECHANICAL_DESIGN_GEOMETRIC_PRESENTATION_REPRESENTATION (  '', ( #40 ), #207 ) ;
#192 = VERTEX_POINT ( 'NONE', #308 ) ;
#193 = SURFACE_STYLE_FILL_AREA ( #263 ) ;
#194 = ORIENTED_EDGE ( 'NONE', *, *, #176, .T. ) ;
#195 = DIMENSIONAL_EXPONENTS ( 1.000000000000000000, 0.000000000000000000, 0.000000000000000000, 0.000000000000000000, 0.000000000000000000, 0.000000000000000000, 0.000000000000000000 ) ;
#196 =( NAMED_UNIT ( * ) SI_UNIT ( $, .STERADIAN. ) SOLID_ANGLE_UNIT ( ) );
#197 = CARTESIAN_POINT ( 'NONE',  ( -1.836970198721029688E-16, 4.000000000000000000, 0.000000000000000000 ) ) ;
#198 = LINE ( 'NONE', #199, #59 ) ;
#199 = CARTESIAN_POINT ( 'NONE',  ( 0.1874999999999999445, 4.000000000000000000, 2.296212748401288650E-17 ) ) ;
#200 = PRESENTATION_STYLE_ASSIGNMENT (( #273 ) ) ;
#201 = DIRECTION ( 'NONE',  ( 1.000000000000000000, 9.184850993605148438E-17, 0.000000000000000000 ) ) ;
#202 =( CONVERSION_BASED_UNIT ( 'INCH', #22 ) LENGTH_UNIT ( ) NAMED_UNIT ( #163 ) );
#203 =( GEOMETRIC_REPRESENTATION_CONTEXT ( 3 ) GLOBAL_UNCERTAINTY_ASSIGNED_CONTEXT ( ( #61 ) ) GLOBAL_UNIT_ASSIGNED_CONTEXT ( ( #153, #3, #6 ) ) REPRESENTATION_CONTEXT ( 'NONE', 'WORKASPACE' ) );
#204 = CARTESIAN_POINT ( 'NONE',  ( 0.1875000000000000278, 4.000000000000000000, 2.296212748401289266E-17 ) ) ;
#205 =( LENGTH_UNIT ( ) NAMED_UNIT ( * ) SI_UNIT ( $, .METRE. ) );
#206 = CIRCLE ( 'NONE', #297, 0.1875000000000000278 ) ;
#207 =( GEOMETRIC_REPRESENTATION_CONTEXT ( 3 ) GLOBAL_UNCERTAINTY_ASSIGNED_CONTEXT ( ( #172 ) ) GLOBAL_UNIT_ASSIGNED_CONTEXT ( ( #223, #277, #127 ) ) REPRESENTATION_CONTEXT ( 'NONE', 'WORKASPACE' ) );
#208 = ADVANCED_BREP_SHAPE_REPRESENTATION ( '82567', ( #70, #274, #110 ), #237 ) ;
#209 =( NAMED_UNIT ( * ) SI_UNIT ( $, .STERADIAN. ) SOLID_ANGLE_UNIT ( ) );
#210 = AXIS2_PLACEMENT_3D ( 'NONE', #258, #64, #234 ) ;
#211 =( GEOMETRIC_REPRESENTATION_CONTEXT ( 3 ) GLOBAL_UNCERTAINTY_ASSIGNED_CONTEXT ( ( #182 ) ) GLOBAL_UNIT_ASSIGNED_CONTEXT ( ( #85, #106, #269 ) ) REPRESENTATION_CONTEXT ( 'NONE', 'WORKASPACE' ) );
#212 = EDGE_LOOP ( 'NONE', ( #185, #302, #194, #142 ) ) ;
#213 = DIRECTION ( 'NONE',  ( -9.184850993605148438E-17, 1.000000000000000000, -0.000000000000000000 ) ) ;
#214 =( GEOMETRIC_REPRESENTATION_CONTEXT ( 3 ) GLOBAL_UNCERTAINTY_ASSIGNED_CONTEXT ( ( #157 ) ) GLOBAL_UNIT_ASSIGNED_CONTEXT ( ( #159, #284, #139 ) ) REPRESENTATION_CONTEXT ( 'NONE', 'WORKASPACE' ) );
#215 = VERTEX_POINT ( 'NONE', #169 ) ;
#216 = CARTESIAN_POINT ( 'NONE',  ( -1.836970198721029688E-16, 4.000000000000000000, 0.000000000000000000 ) ) ;
#217 = DIRECTION ( 'NONE',  ( -1.000000000000000000, 0.000000000000000000, 0.000000000000000000 ) ) ;
#218 = DIRECTION ( 'NONE',  ( -0.000000000000000000, -1.000000000000000000, -0.000000000000000000 ) ) ;
#219 = DIMENSIONAL_EXPONENTS ( 1.000000000000000000, 0.000000000000000000, 0.000000000000000000, 0.000000000000000000, 0.000000000000000000, 0.000000000000000000, 0.000000000000000000 ) ;
#220 = PRESENTATION_LAYER_ASSIGNMENT (  '', '', ( #40 ) ) ;
#221 = FACE_OUTER_BOUND ( 'NONE', #286, .T. ) ;
#222 = DIRECTION ( 'NONE',  ( 1.000000000000000000, 0.000000000000000000, 0.000000000000000000 ) ) ;
#223 =( CONVERSION_BASED_UNIT ( 'INCH', #36 ) LENGTH_UNIT ( ) NAMED_UNIT ( #171 ) );
#224 = CARTESIAN_POINT ( 'NONE',  ( 0.1875000000000000278, 4.000000000000000000, 0.000000000000000000 ) ) ;
#225 = AXIS2_PLACEMENT_3D ( 'NONE', #149, #242, #165 ) ;
#226 = CARTESIAN_POINT ( 'NONE',  ( 0.000000000000000000, 0.000000000000000000, 0.000000000000000000 ) ) ;
#227 = ADVANCED_FACE ( 'NONE', ( #221 ), #1, .T. ) ;
#228 = PRODUCT_DEFINITION ( 'UNKNOWN', '', #283, #46 ) ;
#229 = CARTESIAN_POINT ( 'NONE',  ( -0.1875000000000003608, 4.000000000000000000, 0.000000000000000000 ) ) ;
#230 = DIRECTION ( 'NONE',  ( -0.000000000000000000, -1.000000000000000000, -0.000000000000000000 ) ) ;
#231 = CARTESIAN_POINT ( 'NONE',  ( 0.000000000000000000, 0.000000000000000000, -0.1875000000000000278 ) ) ;
#232 = SURFACE_STYLE_USAGE ( .BOTH. , #138 ) ;
#233 = DIMENSIONAL_EXPONENTS ( 1.000000000000000000, 0.000000000000000000, 0.000000000000000000, 0.000000000000000000, 0.000000000000000000, 0.000000000000000000, 0.000000000000000000 ) ;
#234 = DIRECTION ( 'NONE',  ( 0.000000000000000000, 0.000000000000000000, -1.000000000000000000 ) ) ;
#235 = VERTEX_POINT ( 'NONE', #178 ) ;
#236 = COLOUR_RGB ( '',1.000000000000000000, 0.000000000000000000, 0.000000000000000000 ) ;
#237 =( GEOMETRIC_REPRESENTATION_CONTEXT ( 3 ) GLOBAL_UNCERTAINTY_ASSIGNED_CONTEXT ( ( #241 ) ) GLOBAL_UNIT_ASSIGNED_CONTEXT ( ( #66, #112, #209 ) ) REPRESENTATION_CONTEXT ( 'NONE', 'WORKASPACE' ) );
#238 = ORIENTED_EDGE ( 'NONE', *, *, #260, .T. ) ;
#239 = PRODUCT_CONTEXT ( 'NONE', #175, 'mechanical' ) ;
#240 = DIRECTION ( 'NONE',  ( -0.000000000000000000, -1.000000000000000000, -0.000000000000000000 ) ) ;
#241 = UNCERTAINTY_MEASURE_WITH_UNIT (LENGTH_MEASURE( 1.000000000000000082E-05 ), #66, 'distance_accuracy_value', 'NONE');
#242 = DIRECTION ( 'NONE',  ( -0.000000000000000000, -1.000000000000000000, -0.000000000000000000 ) ) ;
#243 = LINE ( 'NONE', #65, #177 ) ;
#244 =( NAMED_UNIT ( * ) PLANE_ANGLE_UNIT ( ) SI_UNIT ( $, .RADIAN. ) );
#245 = CARTESIAN_POINT ( 'NONE',  ( -0.1875000000000002776, 4.000000000000000000, 0.000000000000000000 ) ) ;
#246 = SHAPE_DEFINITION_REPRESENTATION ( #257, #208 ) ;
#247 = CIRCLE ( 'NONE', #256, 0.1875000000000000278 ) ;
#248 = PRESENTATION_LAYER_ASSIGNMENT (  '', '', ( #68 ) ) ;
#249 = DIRECTION ( 'NONE',  ( -0.000000000000000000, -1.000000000000000000, -0.000000000000000000 ) ) ;
#250 = PLANE ( 'NONE',  #78 ) ;
#251 = AXIS2_PLACEMENT_3D ( 'NONE', #121, #21, #217 ) ;
#252 = AXIS2_PLACEMENT_3D ( 'NONE', #144, #240, #120 ) ;
#253 = FILL_AREA_STYLE ('',( #10 ) ) ;
#254 = ADVANCED_FACE ( 'NONE', ( #108 ), #262, .T. ) ;
#255 = VERTEX_POINT ( 'NONE', #204 ) ;
#256 = AXIS2_PLACEMENT_3D ( 'NONE', #141, #218, #293 ) ;
#257 = PRODUCT_DEFINITION_SHAPE ( 'NONE', 'NONE',  #228 ) ;
#258 = CARTESIAN_POINT ( 'NONE',  ( 0.000000000000000000, 0.000000000000000000, 0.000000000000000000 ) ) ;
#259 = ORIENTED_EDGE ( 'NONE', *, *, #13, .F. ) ;
#260 = EDGE_CURVE ( 'NONE', #235, #290, #154, .T. ) ;
#261 = ORIENTED_EDGE ( 'NONE', *, *, #260, .F. ) ;
#262 = CYLINDRICAL_SURFACE ( 'NONE', #252, 0.1875000000000000278 ) ;
#263 = FILL_AREA_STYLE ('',( #265 ) ) ;
#264 = DIRECTION ( 'NONE',  ( -1.000000000000000000, 0.000000000000000000, 0.000000000000000000 ) ) ;
#265 = FILL_AREA_STYLE_COLOUR ( '', #156 ) ;
#266 = SURFACE_STYLE_USAGE ( .BOTH. , #298 ) ;
#267 = ADVANCED_FACE ( 'NONE', ( #41 ), #250, .T. ) ;
#268 = CLOSED_SHELL ( 'NONE', ( #84, #89, #5, #285 ) ) ;
#269 =( NAMED_UNIT ( * ) SI_UNIT ( $, .STERADIAN. ) SOLID_ANGLE_UNIT ( ) );
#270 = DIRECTION ( 'NONE',  ( 0.000000000000000000, 1.000000000000000000, 0.000000000000000000 ) ) ;
#271 = CIRCLE ( 'NONE', #67, 0.1875000000000000278 ) ;
#272 = PRESENTATION_STYLE_ASSIGNMENT (( #180 ) ) ;
#273 = SURFACE_STYLE_USAGE ( .BOTH. , #183 ) ;
#274 = MANIFOLD_SOLID_BREP ( 'Revolve - Tool Body (Straight Shanked)', #268 ) ;
#275 = STYLED_ITEM ( 'NONE', ( #200 ), #254 ) ;
#276 = FACE_OUTER_BOUND ( 'NONE', #44, .T. ) ;
#277 =( NAMED_UNIT ( * ) PLANE_ANGLE_UNIT ( ) SI_UNIT ( $, .RADIAN. ) );
#278 = UNCERTAINTY_MEASURE_WITH_UNIT (LENGTH_MEASURE( 1.000000000000000082E-05 ), #289, 'distance_accuracy_value', 'NONE');
#279 = ORIENTED_EDGE ( 'NONE', *, *, #133, .F. ) ;
#280 = FACE_OUTER_BOUND ( 'NONE', #95, .T. ) ;
#281 = ORIENTED_EDGE ( 'NONE', *, *, #9, .F. ) ;
#282 = VECTOR ( 'NONE', #146, 39.37007874015748143 ) ;
#283 = PRODUCT_DEFINITION_FORMATION_WITH_SPECIFIED_SOURCE ( 'ANY', '', #101, .NOT_KNOWN. ) ;
#284 =( NAMED_UNIT ( * ) PLANE_ANGLE_UNIT ( ) SI_UNIT ( $, .RADIAN. ) );
#285 = ADVANCED_FACE ( 'NONE', ( #294 ), #296, .F. ) ;
#286 = EDGE_LOOP ( 'NONE', ( #279, #115 ) ) ;
#287 = APPLICATION_PROTOCOL_DEFINITION ( 'draft international standard', 'automotive_design', 1998, #188 ) ;
#288 = ORIENTED_EDGE ( 'NONE', *, *, #147, .T. ) ;
#289 =( CONVERSION_BASED_UNIT ( 'INCH', #56 ) LENGTH_UNIT ( ) NAMED_UNIT ( #219 ) );
#290 = VERTEX_POINT ( 'NONE', #231 ) ;
#291 = PRESENTATION_STYLE_ASSIGNMENT (( #27 ) ) ;
#292 = EDGE_LOOP ( 'NONE', ( #140, #92 ) ) ;
#293 = DIRECTION ( 'NONE',  ( 0.000000000000000000, 0.000000000000000000, -1.000000000000000000 ) ) ;
#294 = FACE_OUTER_BOUND ( 'NONE', #167, .T. ) ;
#295 = DIRECTION ( 'NONE',  ( -1.000000000000000000, 0.000000000000000000, 0.000000000000000000 ) ) ;
#296 = PLANE ( 'NONE',  #168 ) ;
#297 = AXIS2_PLACEMENT_3D ( 'NONE', #301, #137, #184 ) ;
#298 = SURFACE_SIDE_STYLE ('',( #62 ) ) ;
#299 = AXIS2_PLACEMENT_3D ( 'NONE', #197, #80, #190 ) ;
#300 = FILL_AREA_STYLE_COLOUR ( '', #181 ) ;
#301 = CARTESIAN_POINT ( 'NONE',  ( 0.000000000000000000, 2.000000000000000000, 0.000000000000000000 ) ) ;
#302 = ORIENTED_EDGE ( 'NONE', *, *, #129, .T. ) ;
#303 = MECHANICAL_DESIGN_GEOMETRIC_PRESENTATION_REPRESENTATION (  '', ( #128 ), #203 ) ;
#304 = ORIENTED_EDGE ( 'NONE', *, *, #35, .T. ) ;
#305 = PRESENTATION_STYLE_ASSIGNMENT (( #232 ) ) ;
#306 = AXIS2_PLACEMENT_3D ( 'NONE', #117, #213, #4 ) ;
#307 = STYLED_ITEM ( 'NONE', ( #96 ), #123 ) ;
#308 = CARTESIAN_POINT ( 'NONE',  ( 0.1875000000000000278, 2.000000000000000000, 2.296212748401289266E-17 ) ) ;
#309 = EDGE_LOOP ( 'NONE', ( #259, #76, #238, #281 ) ) ;
ENDSEC;
END-ISO-10303-21;
