ISO-10303-21;
HEADER;
FILE_DESCRIPTION (( 'STEP AP214' ),
    '1' );
FILE_NAME ('84694.STEP',
    '2023-06-23T14:57:24',
    ( '' ),
    ( '' ),
    'SwSTEP 2.0',
    'SolidWorks 2023',
    '' );
FILE_SCHEMA (( 'AUTOMOTIVE_DESIGN' ));
ENDSEC;

DATA;
#1 = ADVANCED_FACE ( 'NONE', ( #98 ), #238, .T. ) ;
#2 = CARTESIAN_POINT ( 'NONE',  ( 0.09375000000000011102, 2.000000000000000000, 0.000000000000000000 ) ) ;
#3 = FACE_OUTER_BOUND ( 'NONE', #197, .T. ) ;
#4 = ORIENTED_EDGE ( 'NONE', *, *, #23, .T. ) ;
#5 = ORIENTED_EDGE ( 'NONE', *, *, #315, .F. ) ;
#6 = CARTESIAN_POINT ( 'NONE',  ( 0.000000000000000000, 0.000000000000000000, -0.07810000000000000275 ) ) ;
#7 = VECTOR ( 'NONE', #112, 39.37007874015748143 ) ;
#8 = PRESENTATION_STYLE_ASSIGNMENT (( #210 ) ) ;
#9 = SURFACE_STYLE_USAGE ( .BOTH. , #97 ) ;
#10 = PRESENTATION_STYLE_ASSIGNMENT (( #201 ) ) ;
#11 =( LENGTH_UNIT ( ) NAMED_UNIT ( * ) SI_UNIT ( $, .METRE. ) );
#12 = CARTESIAN_POINT ( 'NONE',  ( 0.000000000000000000, 0.000000000000000000, 0.000000000000000000 ) ) ;
#13 = AXIS2_PLACEMENT_3D ( 'NONE', #282, #165, #172 ) ;
#14 = CYLINDRICAL_SURFACE ( 'NONE', #225, 0.07810000000000000275 ) ;
#15 = DIRECTION ( 'NONE',  ( 7.257166217169504641E-17, 1.000000000000000000, -0.000000000000000000 ) ) ;
#16 = LENGTH_MEASURE_WITH_UNIT ( LENGTH_MEASURE( 0.02539999999999999897 ), #73 );
#17 = PRESENTATION_STYLE_ASSIGNMENT (( #9 ) ) ;
#18 = APPLICATION_CONTEXT ( 'automotive_design' ) ;
#19 = PRODUCT_DEFINITION_SHAPE ( 'NONE', 'NONE',  #158 ) ;
#20 = DIRECTION ( 'NONE',  ( -0.000000000000000000, -1.000000000000000000, -0.000000000000000000 ) ) ;
#21 = VECTOR ( 'NONE', #198, 39.37007874015748854 ) ;
#22 = CIRCLE ( 'NONE', #33, 0.09374999999999998612 ) ;
#23 = EDGE_CURVE ( 'NONE', #346, #221, #123, .T. ) ;
#24 = FILL_AREA_STYLE_COLOUR ( '', #137 ) ;
#25 = CARTESIAN_POINT ( 'NONE',  ( 9.564491501340828324E-18, 0.000000000000000000, 0.07810000000000000275 ) ) ;
#26 = ORIENTED_EDGE ( 'NONE', *, *, #223, .T. ) ;
#27 = AXIS2_PLACEMENT_3D ( 'NONE', #271, #79, #74 ) ;
#28 = FILL_AREA_STYLE ('',( #254 ) ) ;
#29 = VERTEX_POINT ( 'NONE', #45 ) ;
#30 = CARTESIAN_POINT ( 'NONE',  ( 0.07810000000000000275, 0.3125000000000000000, 9.564491501340828324E-18 ) ) ;
#31 = ORIENTED_EDGE ( 'NONE', *, *, #23, .F. ) ;
#32 = LINE ( 'NONE', #58, #211 ) ;
#33 = AXIS2_PLACEMENT_3D ( 'NONE', #52, #185, #162 ) ;
#34 = FILL_AREA_STYLE ('',( #68 ) ) ;
#35 = ORIENTED_EDGE ( 'NONE', *, *, #305, .T. ) ;
#36 = FACE_OUTER_BOUND ( 'NONE', #88, .T. ) ;
#37 = SURFACE_STYLE_FILL_AREA ( #289 ) ;
#38 = ORIENTED_EDGE ( 'NONE', *, *, #302, .F. ) ;
#39 =( GEOMETRIC_REPRESENTATION_CONTEXT ( 3 ) GLOBAL_UNCERTAINTY_ASSIGNED_CONTEXT ( ( #246 ) ) GLOBAL_UNIT_ASSIGNED_CONTEXT ( ( #233, #286, #180 ) ) REPRESENTATION_CONTEXT ( 'NONE', 'WORKASPACE' ) );
#40 = STYLED_ITEM ( 'NONE', ( #17 ), #310 ) ;
#41 = DIRECTION ( 'NONE',  ( 7.257166217169504641E-17, 1.000000000000000000, -0.000000000000000000 ) ) ;
#42 = ORIENTED_EDGE ( 'NONE', *, *, #110, .T. ) ;
#43 = CARTESIAN_POINT ( 'NONE',  ( 0.000000000000000000, 0.000000000000000000, 0.000000000000000000 ) ) ;
#44 = EDGE_CURVE ( 'NONE', #278, #265, #188, .T. ) ;
#45 = CARTESIAN_POINT ( 'NONE',  ( -0.09375000000000012490, 0.3554980216144650873, 0.000000000000000000 ) ) ;
#46 = SHAPE_DEFINITION_REPRESENTATION ( #19, #163 ) ;
#47 = DIRECTION ( 'NONE',  ( 1.000000000000000000, 0.000000000000000000, 0.000000000000000000 ) ) ;
#48 = LENGTH_MEASURE_WITH_UNIT ( LENGTH_MEASURE( 0.02539999999999999897 ), #104 );
#49 = FACE_OUTER_BOUND ( 'NONE', #95, .T. ) ;
#50 = MECHANICAL_DESIGN_GEOMETRIC_PRESENTATION_REPRESENTATION (  '', ( #156 ), #100 ) ;
#51 = DIRECTION ( 'NONE',  ( -1.000000000000000000, 0.000000000000000000, 0.000000000000000000 ) ) ;
#52 = CARTESIAN_POINT ( 'NONE',  ( 1.224646799147353700E-16, 2.000000000000000000, 0.000000000000000000 ) ) ;
#53 =( LENGTH_UNIT ( ) NAMED_UNIT ( * ) SI_UNIT ( $, .METRE. ) );
#54 = FACE_OUTER_BOUND ( 'NONE', #71, .T. ) ;
#55 = ORIENTED_EDGE ( 'NONE', *, *, #60, .T. ) ;
#56 = PRESENTATION_LAYER_ASSIGNMENT (  '', '', ( #156 ) ) ;
#57 = COLOUR_RGB ( '',0.7921568627450980005, 0.8196078431372548767, 0.9333333333333333481 ) ;
#58 = CARTESIAN_POINT ( 'NONE',  ( -0.09374999999999994449, 2.000000000000000000, 0.000000000000000000 ) ) ;
#59 = ORIENTED_EDGE ( 'NONE', *, *, #223, .F. ) ;
#60 = EDGE_CURVE ( 'NONE', #219, #344, #284, .T. ) ;
#61 =( CONVERSION_BASED_UNIT ( 'INCH', #116 ) LENGTH_UNIT ( ) NAMED_UNIT ( #357 ) );
#62 = DIRECTION ( 'NONE',  ( -1.000000000000000000, 7.257166217169504641E-17, 0.000000000000000000 ) ) ;
#63 = CARTESIAN_POINT ( 'NONE',  ( 3.120437898656197288E-18, 0.3554980216144650873, 0.000000000000000000 ) ) ;
#64 = AXIS2_PLACEMENT_3D ( 'NONE', #63, #41, #345 ) ;
#65 = ADVANCED_FACE ( 'NONE', ( #208 ), #323, .T. ) ;
#66 =( NAMED_UNIT ( * ) PLANE_ANGLE_UNIT ( ) SI_UNIT ( $, .RADIAN. ) );
#67 = ORIENTED_EDGE ( 'NONE', *, *, #127, .T. ) ;
#68 = FILL_AREA_STYLE_COLOUR ( '', #232 ) ;
#69 = ORIENTED_EDGE ( 'NONE', *, *, #315, .T. ) ;
#70 = DIRECTION ( 'NONE',  ( -0.000000000000000000, -1.000000000000000000, -0.000000000000000000 ) ) ;
#71 = EDGE_LOOP ( 'NONE', ( #55, #26, #321, #115 ) ) ;
#72 = PRESENTATION_LAYER_ASSIGNMENT (  '', '', ( #40 ) ) ;
#73 =( LENGTH_UNIT ( ) NAMED_UNIT ( * ) SI_UNIT ( $, .METRE. ) );
#74 = DIRECTION ( 'NONE',  ( 0.000000000000000000, 0.000000000000000000, -1.000000000000000000 ) ) ;
#75 = DIRECTION ( 'NONE',  ( 0.000000000000000000, 0.000000000000000000, -1.000000000000000000 ) ) ;
#76 = FACE_OUTER_BOUND ( 'NONE', #151, .T. ) ;
#77 = STYLED_ITEM ( 'NONE', ( #8 ), #293 ) ;
#78 = AXIS2_PLACEMENT_3D ( 'NONE', #135, #299, #47 ) ;
#79 = DIRECTION ( 'NONE',  ( 0.000000000000000000, -1.000000000000000000, -0.000000000000000000 ) ) ;
#80 = CARTESIAN_POINT ( 'NONE',  ( 0.000000000000000000, 0.3125000000000000000, 0.000000000000000000 ) ) ;
#81 = PRESENTATION_LAYER_ASSIGNMENT (  '', '', ( #338 ) ) ;
#82 = AXIS2_PLACEMENT_3D ( 'NONE', #125, #155, #298 ) ;
#83 = DIRECTION ( 'NONE',  ( -0.000000000000000000, -1.000000000000000000, -0.000000000000000000 ) ) ;
#84 = FACE_OUTER_BOUND ( 'NONE', #351, .T. ) ;
#85 = ORIENTED_EDGE ( 'NONE', *, *, #264, .F. ) ;
#86 = FILL_AREA_STYLE ('',( #272 ) ) ;
#87 = DIRECTION ( 'NONE',  ( 7.257166217169504641E-17, 1.000000000000000000, -0.000000000000000000 ) ) ;
#88 = EDGE_LOOP ( 'NONE', ( #132, #92, #67, #204 ) ) ;
#89 = PRESENTATION_LAYER_ASSIGNMENT (  '', '', ( #161 ) ) ;
#90 =( NAMED_UNIT ( * ) PLANE_ANGLE_UNIT ( ) SI_UNIT ( $, .RADIAN. ) );
#91 = DIRECTION ( 'NONE',  ( 7.257166217169504641E-17, 1.000000000000000000, -0.000000000000000000 ) ) ;
#92 = ORIENTED_EDGE ( 'NONE', *, *, #264, .T. ) ;
#93 = VECTOR ( 'NONE', #114, 39.37007874015748143 ) ;
#94 = DIRECTION ( 'NONE',  ( -1.000000000000000000, 0.000000000000000000, 0.000000000000000000 ) ) ;
#95 = EDGE_LOOP ( 'NONE', ( #99, #179, #5, #199 ) ) ;
#96 = DIRECTION ( 'NONE',  ( 0.000000000000000000, 0.000000000000000000, -1.000000000000000000 ) ) ;
#97 = SURFACE_SIDE_STYLE ('',( #322 ) ) ;
#98 = FACE_OUTER_BOUND ( 'NONE', #113, .T. ) ;
#99 = ORIENTED_EDGE ( 'NONE', *, *, #44, .T. ) ;
#100 =( GEOMETRIC_REPRESENTATION_CONTEXT ( 3 ) GLOBAL_UNCERTAINTY_ASSIGNED_CONTEXT ( ( #130 ) ) GLOBAL_UNIT_ASSIGNED_CONTEXT ( ( #61, #150, #200 ) ) REPRESENTATION_CONTEXT ( 'NONE', 'WORKASPACE' ) );
#101 = UNCERTAINTY_MEASURE_WITH_UNIT (LENGTH_MEASURE( 1.000000000000000082E-05 ), #358, 'distance_accuracy_value', 'NONE');
#102 = ADVANCED_FACE ( 'NONE', ( #49 ), #215, .T. ) ;
#103 = CARTESIAN_POINT ( 'NONE',  ( 1.224646799147353700E-16, 2.000000000000000000, 0.000000000000000000 ) ) ;
#104 =( LENGTH_UNIT ( ) NAMED_UNIT ( * ) SI_UNIT ( $, .METRE. ) );
#105 = UNCERTAINTY_MEASURE_WITH_UNIT (LENGTH_MEASURE( 1.000000000000000082E-05 ), #235, 'distance_accuracy_value', 'NONE');
#106 = APPLICATION_CONTEXT ( 'automotive_design' ) ;
#107 = MECHANICAL_DESIGN_GEOMETRIC_PRESENTATION_REPRESENTATION (  '', ( #77 ), #39 ) ;
#108 = AXIS2_PLACEMENT_3D ( 'NONE', #43, #177, #294 ) ;
#109 = DIMENSIONAL_EXPONENTS ( 1.000000000000000000, 0.000000000000000000, 0.000000000000000000, 0.000000000000000000, 0.000000000000000000, 0.000000000000000000, 0.000000000000000000 ) ;
#110 = EDGE_CURVE ( 'NONE', #231, #287, #22, .T. ) ;
#111 = CYLINDRICAL_SURFACE ( 'NONE', #252, 0.09375000000000005551 ) ;
#112 = DIRECTION ( 'NONE',  ( 0.3420201433256698231, 0.9396926207859079838, 4.188538737677004707E-17 ) ) ;
#113 = EDGE_LOOP ( 'NONE', ( #253, #38 ) ) ;
#114 = DIRECTION ( 'NONE',  ( -0.000000000000000000, -1.000000000000000000, -0.000000000000000000 ) ) ;
#115 = ORIENTED_EDGE ( 'NONE', *, *, #229, .F. ) ;
#116 = LENGTH_MEASURE_WITH_UNIT ( LENGTH_MEASURE( 0.02539999999999999897 ), #53 );
#117 = CLOSED_SHELL ( 'NONE', ( #334, #1, #293, #65 ) ) ;
#118 = AXIS2_PLACEMENT_3D ( 'NONE', #247, #304, #51 ) ;
#119 = DIRECTION ( 'NONE',  ( 1.000000000000000000, -7.257166217169504641E-17, 0.000000000000000000 ) ) ;
#120 = ADVANCED_FACE ( 'NONE', ( #76 ), #276, .F. ) ;
#121 = SURFACE_STYLE_FILL_AREA ( #34 ) ;
#122 = EDGE_LOOP ( 'NONE', ( #178, #35, #169, #147 ) ) ;
#123 = CIRCLE ( 'NONE', #330, 0.07810000000000000275 ) ;
#124 = CIRCLE ( 'NONE', #118, 0.09375000000000012490 ) ;
#125 = CARTESIAN_POINT ( 'NONE',  ( 0.000000000000000000, 0.3125000000000000000, 0.000000000000000000 ) ) ;
#126 = DIRECTION ( 'NONE',  ( 7.257166217169504641E-17, 1.000000000000000000, -0.000000000000000000 ) ) ;
#127 = EDGE_CURVE ( 'NONE', #278, #29, #277, .T. ) ;
#128 = SURFACE_STYLE_USAGE ( .BOTH. , #153 ) ;
#129 = SURFACE_STYLE_FILL_AREA ( #86 ) ;
#130 = UNCERTAINTY_MEASURE_WITH_UNIT (LENGTH_MEASURE( 1.000000000000000082E-05 ), #61, 'distance_accuracy_value', 'NONE');
#131 = MECHANICAL_DESIGN_GEOMETRIC_PRESENTATION_REPRESENTATION (  '', ( #338 ), #167 ) ;
#132 = ORIENTED_EDGE ( 'NONE', *, *, #140, .F. ) ;
#133 = CIRCLE ( 'NONE', #138, 0.09374999999999998612 ) ;
#134 = CARTESIAN_POINT ( 'NONE',  ( 9.564491501340828324E-18, 0.3125000000000000000, 0.07810000000000000275 ) ) ;
#135 = CARTESIAN_POINT ( 'NONE',  ( 0.000000000000000000, 0.000000000000000000, 0.000000000000000000 ) ) ;
#136 =( NAMED_UNIT ( * ) SI_UNIT ( $, .STERADIAN. ) SOLID_ANGLE_UNIT ( ) );
#137 = COLOUR_RGB ( '',1.000000000000000000, 0.000000000000000000, 0.000000000000000000 ) ;
#138 = AXIS2_PLACEMENT_3D ( 'NONE', #103, #189, #269 ) ;
#139 = FILL_AREA_STYLE ('',( #24 ) ) ;
#140 = EDGE_CURVE ( 'NONE', #265, #336, #143, .T. ) ;
#141 = DIMENSIONAL_EXPONENTS ( 1.000000000000000000, 0.000000000000000000, 0.000000000000000000, 0.000000000000000000, 0.000000000000000000, 0.000000000000000000, 0.000000000000000000 ) ;
#142 = EDGE_CURVE ( 'NONE', #221, #346, #217, .T. ) ;
#143 = LINE ( 'NONE', #30, #7 ) ;
#144 = ORIENTED_EDGE ( 'NONE', *, *, #44, .F. ) ;
#145 = CIRCLE ( 'NONE', #347, 0.07810000000000000275 ) ;
#146 = DIRECTION ( 'NONE',  ( -1.000000000000000000, 0.000000000000000000, 0.000000000000000000 ) ) ;
#147 = ORIENTED_EDGE ( 'NONE', *, *, #342, .F. ) ;
#148 = DIRECTION ( 'NONE',  ( -7.257166217169504641E-17, -1.000000000000000000, 0.000000000000000000 ) ) ;
#149 = LINE ( 'NONE', #6, #93 ) ;
#150 =( NAMED_UNIT ( * ) PLANE_ANGLE_UNIT ( ) SI_UNIT ( $, .RADIAN. ) );
#151 = EDGE_LOOP ( 'NONE', ( #144, #85 ) ) ;
#152 = CYLINDRICAL_SURFACE ( 'NONE', #108, 0.07810000000000000275 ) ;
#153 = SURFACE_SIDE_STYLE ('',( #37 ) ) ;
#154 = CARTESIAN_POINT ( 'NONE',  ( 0.000000000000000000, 0.3125000000000000000, 0.000000000000000000 ) ) ;
#155 = DIRECTION ( 'NONE',  ( 7.257166217169504641E-17, 1.000000000000000000, -0.000000000000000000 ) ) ;
#156 = STYLED_ITEM ( 'NONE', ( #279 ), #186 ) ;
#157 = CONICAL_SURFACE ( 'NONE', #355, 0.07810000000000000275, 0.3490658503988670058 ) ;
#158 = PRODUCT_DEFINITION ( 'UNKNOWN', '', #285, #184 ) ;
#159 = SURFACE_SIDE_STYLE ('',( #129 ) ) ;
#160 = SURFACE_STYLE_USAGE ( .BOTH. , #250 ) ;
#161 = STYLED_ITEM ( 'NONE', ( #243 ), #1 ) ;
#162 = DIRECTION ( 'NONE',  ( -1.000000000000000000, 0.000000000000000000, 0.000000000000000000 ) ) ;
#163 = ADVANCED_BREP_SHAPE_REPRESENTATION ( '84694', ( #186, #310, #78 ), #320 ) ;
#164 = CARTESIAN_POINT ( 'NONE',  ( 0.000000000000000000, 0.000000000000000000, -0.07810000000000000275 ) ) ;
#165 = DIRECTION ( 'NONE',  ( -0.000000000000000000, -1.000000000000000000, -0.000000000000000000 ) ) ;
#166 = ORIENTED_EDGE ( 'NONE', *, *, #142, .T. ) ;
#167 =( GEOMETRIC_REPRESENTATION_CONTEXT ( 3 ) GLOBAL_UNCERTAINTY_ASSIGNED_CONTEXT ( ( #341 ) ) GLOBAL_UNIT_ASSIGNED_CONTEXT ( ( #248, #245, #331 ) ) REPRESENTATION_CONTEXT ( 'NONE', 'WORKASPACE' ) );
#168 = DIRECTION ( 'NONE',  ( 7.257166217169504641E-17, 1.000000000000000000, -0.000000000000000000 ) ) ;
#169 = ORIENTED_EDGE ( 'NONE', *, *, #181, .T. ) ;
#170 = DIRECTION ( 'NONE',  ( 7.257166217169504641E-17, 1.000000000000000000, -0.000000000000000000 ) ) ;
#171 = ADVANCED_FACE ( 'NONE', ( #3 ), #311, .F. ) ;
#172 = DIRECTION ( 'NONE',  ( 0.000000000000000000, 0.000000000000000000, -1.000000000000000000 ) ) ;
#173 = AXIS2_PLACEMENT_3D ( 'NONE', #301, #87, #62 ) ;
#174 = FILL_AREA_STYLE_COLOUR ( '', #325 ) ;
#175 =( LENGTH_UNIT ( ) NAMED_UNIT ( * ) SI_UNIT ( $, .METRE. ) );
#176 = ORIENTED_EDGE ( 'NONE', *, *, #110, .F. ) ;
#177 = DIRECTION ( 'NONE',  ( -0.000000000000000000, -1.000000000000000000, -0.000000000000000000 ) ) ;
#178 = ORIENTED_EDGE ( 'NONE', *, *, #239, .F. ) ;
#179 = ORIENTED_EDGE ( 'NONE', *, *, #140, .T. ) ;
#180 =( NAMED_UNIT ( * ) SI_UNIT ( $, .STERADIAN. ) SOLID_ANGLE_UNIT ( ) );
#181 = EDGE_CURVE ( 'NONE', #29, #231, #32, .T. ) ;
#182 = DIRECTION ( 'NONE',  ( 0.000000000000000000, 0.000000000000000000, -1.000000000000000000 ) ) ;
#183 = APPLICATION_PROTOCOL_DEFINITION ( 'draft international standard', 'automotive_design', 1998, #106 ) ;
#184 = PRODUCT_DEFINITION_CONTEXT ( 'detailed design', #18, 'design' ) ;
#185 = DIRECTION ( 'NONE',  ( 7.257166217169504641E-17, 1.000000000000000000, -0.000000000000000000 ) ) ;
#186 = MANIFOLD_SOLID_BREP ( 'Revolve - Cutting Edge', #117 ) ;
#187 = PRODUCT ( '84694', '84694', '', ( #270 ) ) ;
#188 = CIRCLE ( 'NONE', #82, 0.07810000000000000275 ) ;
#189 = DIRECTION ( 'NONE',  ( 7.257166217169504641E-17, 1.000000000000000000, -0.000000000000000000 ) ) ;
#190 = DIMENSIONAL_EXPONENTS ( 1.000000000000000000, 0.000000000000000000, 0.000000000000000000, 0.000000000000000000, 0.000000000000000000, 0.000000000000000000, 0.000000000000000000 ) ;
#191 = CARTESIAN_POINT ( 'NONE',  ( 0.09375000000000012490, 0.3554980216144650873, 1.148106374200645095E-17 ) ) ;
#192 = DIRECTION ( 'NONE',  ( 7.257166217169504641E-17, 1.000000000000000000, -0.000000000000000000 ) ) ;
#193 = AXIS2_PLACEMENT_3D ( 'NONE', #80, #192, #306 ) ;
#194 = CIRCLE ( 'NONE', #241, 0.07810000000000000275 ) ;
#195 = DIRECTION ( 'NONE',  ( 7.257166217169504641E-17, 1.000000000000000000, -0.000000000000000000 ) ) ;
#196 = CARTESIAN_POINT ( 'NONE',  ( 0.09375000000000018041, 2.000000000000000000, 1.148106374200644325E-17 ) ) ;
#197 = EDGE_LOOP ( 'NONE', ( #42, #291 ) ) ;
#198 = DIRECTION ( 'NONE',  ( -0.3420201433256697121, 0.9396926207859079838, 0.000000000000000000 ) ) ;
#199 = ORIENTED_EDGE ( 'NONE', *, *, #127, .F. ) ;
#200 =( NAMED_UNIT ( * ) SI_UNIT ( $, .STERADIAN. ) SOLID_ANGLE_UNIT ( ) );
#201 = SURFACE_STYLE_USAGE ( .BOTH. , #159 ) ;
#202 = CARTESIAN_POINT ( 'NONE',  ( 0.07810000000000000275, 0.3125000000000000000, 1.052277762167363964E-17 ) ) ;
#203 = LENGTH_MEASURE_WITH_UNIT ( LENGTH_MEASURE( 0.02539999999999999897 ), #175 );
#204 = ORIENTED_EDGE ( 'NONE', *, *, #305, .F. ) ;
#205 = VECTOR ( 'NONE', #83, 39.37007874015748143 ) ;
#206 = ORIENTED_EDGE ( 'NONE', *, *, #181, .F. ) ;
#207 = FILL_AREA_STYLE_COLOUR ( '', #57 ) ;
#208 = FACE_OUTER_BOUND ( 'NONE', #222, .T. ) ;
#209 = ADVANCED_FACE ( 'NONE', ( #84 ), #111, .T. ) ;
#210 = SURFACE_STYLE_USAGE ( .BOTH. , #258 ) ;
#211 = VECTOR ( 'NONE', #168, 39.37007874015748143 ) ;
#212 =( NAMED_UNIT ( * ) PLANE_ANGLE_UNIT ( ) SI_UNIT ( $, .RADIAN. ) );
#213 = DIRECTION ( 'NONE',  ( 0.000000000000000000, 1.000000000000000000, 0.000000000000000000 ) ) ;
#214 = APPLICATION_PROTOCOL_DEFINITION ( 'draft international standard', 'automotive_design', 1998, #18 ) ;
#215 = CONICAL_SURFACE ( 'NONE', #193, 0.07810000000000000275, 0.3490658503988670058 ) ;
#216 = CARTESIAN_POINT ( 'NONE',  ( 1.224646799147353700E-16, 2.000000000000000000, 0.000000000000000000 ) ) ;
#217 = CIRCLE ( 'NONE', #13, 0.07810000000000000275 ) ;
#218 = SURFACE_SIDE_STYLE ('',( #307 ) ) ;
#219 = VERTEX_POINT ( 'NONE', #340 ) ;
#220 = CARTESIAN_POINT ( 'NONE',  ( -0.09374999999999987510, 2.000000000000000000, 0.000000000000000000 ) ) ;
#221 = VERTEX_POINT ( 'NONE', #164 ) ;
#222 = EDGE_LOOP ( 'NONE', ( #166, #4 ) ) ;
#223 = EDGE_CURVE ( 'NONE', #344, #346, #283, .T. ) ;
#224 = AXIS2_PLACEMENT_3D ( 'NONE', #2, #148, #119 ) ;
#225 = AXIS2_PLACEMENT_3D ( 'NONE', #300, #242, #75 ) ;
#226 = LINE ( 'NONE', #196, #261 ) ;
#227 = LENGTH_MEASURE_WITH_UNIT ( LENGTH_MEASURE( 0.02539999999999999897 ), #11 );
#228 = FACE_OUTER_BOUND ( 'NONE', #122, .T. ) ;
#229 = EDGE_CURVE ( 'NONE', #219, #221, #149, .T. ) ;
#230 = CARTESIAN_POINT ( 'NONE',  ( 0.09375000000000011102, 2.000000000000000000, 1.148106374200644633E-17 ) ) ;
#231 = VERTEX_POINT ( 'NONE', #220 ) ;
#232 = COLOUR_RGB ( '',1.000000000000000000, 0.000000000000000000, 0.000000000000000000 ) ;
#233 =( CONVERSION_BASED_UNIT ( 'INCH', #203 ) LENGTH_UNIT ( ) NAMED_UNIT ( #281 ) );
#234 = CARTESIAN_POINT ( 'NONE',  ( 0.000000000000000000, 0.3125000000000000000, 0.000000000000000000 ) ) ;
#235 =( CONVERSION_BASED_UNIT ( 'INCH', #352 ) LENGTH_UNIT ( ) NAMED_UNIT ( #109 ) );
#236 =( CONVERSION_BASED_UNIT ( 'INCH', #16 ) LENGTH_UNIT ( ) NAMED_UNIT ( #337 ) );
#237 =( NAMED_UNIT ( * ) PLANE_ANGLE_UNIT ( ) SI_UNIT ( $, .RADIAN. ) );
#238 = PLANE ( 'NONE',  #333 ) ;
#239 = EDGE_CURVE ( 'NONE', #336, #287, #226, .T. ) ;
#240 =( CONVERSION_BASED_UNIT ( 'INCH', #227 ) LENGTH_UNIT ( ) NAMED_UNIT ( #308 ) );
#241 = AXIS2_PLACEMENT_3D ( 'NONE', #154, #70, #288 ) ;
#242 = DIRECTION ( 'NONE',  ( -0.000000000000000000, -1.000000000000000000, -0.000000000000000000 ) ) ;
#243 = PRESENTATION_STYLE_ASSIGNMENT (( #128 ) ) ;
#244 = CARTESIAN_POINT ( 'NONE',  ( 9.564491501340828324E-18, 0.000000000000000000, 0.07810000000000000275 ) ) ;
#245 =( NAMED_UNIT ( * ) PLANE_ANGLE_UNIT ( ) SI_UNIT ( $, .RADIAN. ) );
#246 = UNCERTAINTY_MEASURE_WITH_UNIT (LENGTH_MEASURE( 1.000000000000000082E-05 ), #233, 'distance_accuracy_value', 'NONE');
#247 = CARTESIAN_POINT ( 'NONE',  ( 3.120437898656197288E-18, 0.3554980216144650873, 0.000000000000000000 ) ) ;
#248 =( CONVERSION_BASED_UNIT ( 'INCH', #328 ) LENGTH_UNIT ( ) NAMED_UNIT ( #141 ) );
#249 = STYLED_ITEM ( 'NONE', ( #10 ), #334 ) ;
#250 = SURFACE_SIDE_STYLE ('',( #303 ) ) ;
#251 = DIRECTION ( 'NONE',  ( -1.000000000000000000, 0.000000000000000000, 0.000000000000000000 ) ) ;
#252 = AXIS2_PLACEMENT_3D ( 'NONE', #216, #170, #146 ) ;
#253 = ORIENTED_EDGE ( 'NONE', *, *, #60, .F. ) ;
#254 = FILL_AREA_STYLE_COLOUR ( '', #319 ) ;
#255 = ORIENTED_EDGE ( 'NONE', *, *, #239, .T. ) ;
#256 = CARTESIAN_POINT ( 'NONE',  ( -0.07810000000000000275, 0.3125000000000000000, 0.000000000000000000 ) ) ;
#257 = CIRCLE ( 'NONE', #64, 0.09375000000000012490 ) ;
#258 = SURFACE_SIDE_STYLE ('',( #121 ) ) ;
#259 = DIRECTION ( 'NONE',  ( 0.000000000000000000, -0.000000000000000000, 1.000000000000000000 ) ) ;
#260 = CARTESIAN_POINT ( 'NONE',  ( 0.000000000000000000, 0.3125000000000000000, 0.000000000000000000 ) ) ;
#261 = VECTOR ( 'NONE', #91, 39.37007874015748143 ) ;
#262 = PRESENTATION_LAYER_ASSIGNMENT (  '', '', ( #249 ) ) ;
#263 = FILL_AREA_STYLE ('',( #207 ) ) ;
#264 = EDGE_CURVE ( 'NONE', #265, #278, #145, .T. ) ;
#265 = VERTEX_POINT ( 'NONE', #202 ) ;
#266 =( GEOMETRIC_REPRESENTATION_CONTEXT ( 3 ) GLOBAL_UNCERTAINTY_ASSIGNED_CONTEXT ( ( #327 ) ) GLOBAL_UNIT_ASSIGNED_CONTEXT ( ( #236, #66, #326 ) ) REPRESENTATION_CONTEXT ( 'NONE', 'WORKASPACE' ) );
#267 =( GEOMETRIC_REPRESENTATION_CONTEXT ( 3 ) GLOBAL_UNCERTAINTY_ASSIGNED_CONTEXT ( ( #275 ) ) GLOBAL_UNIT_ASSIGNED_CONTEXT ( ( #240, #237, #324 ) ) REPRESENTATION_CONTEXT ( 'NONE', 'WORKASPACE' ) );
#268 = DIRECTION ( 'NONE',  ( -1.000000000000000000, 0.000000000000000000, 0.000000000000000000 ) ) ;
#269 = DIRECTION ( 'NONE',  ( -1.000000000000000000, 0.000000000000000000, 0.000000000000000000 ) ) ;
#270 = PRODUCT_CONTEXT ( 'NONE', #106, 'mechanical' ) ;
#271 = CARTESIAN_POINT ( 'NONE',  ( 0.000000000000000000, 0.000000000000000000, 0.000000000000000000 ) ) ;
#272 = FILL_AREA_STYLE_COLOUR ( '', #312 ) ;
#273 = MECHANICAL_DESIGN_GEOMETRIC_PRESENTATION_REPRESENTATION (  '', ( #161 ), #266 ) ;
#274 =( GEOMETRIC_REPRESENTATION_CONTEXT ( 3 ) GLOBAL_UNCERTAINTY_ASSIGNED_CONTEXT ( ( #105 ) ) GLOBAL_UNIT_ASSIGNED_CONTEXT ( ( #235, #212, #297 ) ) REPRESENTATION_CONTEXT ( 'NONE', 'WORKASPACE' ) );
#275 = UNCERTAINTY_MEASURE_WITH_UNIT (LENGTH_MEASURE( 1.000000000000000082E-05 ), #240, 'distance_accuracy_value', 'NONE');
#276 = PLANE ( 'NONE',  #173 ) ;
#277 = LINE ( 'NONE', #256, #21 ) ;
#278 = VERTEX_POINT ( 'NONE', #316 ) ;
#279 = PRESENTATION_STYLE_ASSIGNMENT (( #335 ) ) ;
#280 = PRESENTATION_LAYER_ASSIGNMENT (  '', '', ( #77 ) ) ;
#281 = DIMENSIONAL_EXPONENTS ( 1.000000000000000000, 0.000000000000000000, 0.000000000000000000, 0.000000000000000000, 0.000000000000000000, 0.000000000000000000, 0.000000000000000000 ) ;
#282 = CARTESIAN_POINT ( 'NONE',  ( 0.000000000000000000, 0.000000000000000000, 0.000000000000000000 ) ) ;
#283 = LINE ( 'NONE', #25, #205 ) ;
#284 = CIRCLE ( 'NONE', #359, 0.07810000000000000275 ) ;
#285 = PRODUCT_DEFINITION_FORMATION_WITH_SPECIFIED_SOURCE ( 'ANY', '', #187, .NOT_KNOWN. ) ;
#286 =( NAMED_UNIT ( * ) PLANE_ANGLE_UNIT ( ) SI_UNIT ( $, .RADIAN. ) );
#287 = VERTEX_POINT ( 'NONE', #230 ) ;
#288 = DIRECTION ( 'NONE',  ( 0.000000000000000000, 0.000000000000000000, -1.000000000000000000 ) ) ;
#289 = FILL_AREA_STYLE ('',( #174 ) ) ;
#290 =( LENGTH_UNIT ( ) NAMED_UNIT ( * ) SI_UNIT ( $, .METRE. ) );
#291 = ORIENTED_EDGE ( 'NONE', *, *, #342, .T. ) ;
#292 = MECHANICAL_DESIGN_GEOMETRIC_PRESENTATION_REPRESENTATION (  '', ( #249 ), #267 ) ;
#293 = ADVANCED_FACE ( 'NONE', ( #317 ), #152, .T. ) ;
#294 = DIRECTION ( 'NONE',  ( 0.000000000000000000, 0.000000000000000000, -1.000000000000000000 ) ) ;
#295 = ORIENTED_EDGE ( 'NONE', *, *, #229, .T. ) ;
#296 = ADVANCED_FACE ( 'NONE', ( #228 ), #350, .T. ) ;
#297 =( NAMED_UNIT ( * ) SI_UNIT ( $, .STERADIAN. ) SOLID_ANGLE_UNIT ( ) );
#298 = DIRECTION ( 'NONE',  ( -1.000000000000000000, 0.000000000000000000, 0.000000000000000000 ) ) ;
#299 = DIRECTION ( 'NONE',  ( 0.000000000000000000, 0.000000000000000000, 1.000000000000000000 ) ) ;
#300 = CARTESIAN_POINT ( 'NONE',  ( 0.000000000000000000, 0.000000000000000000, 0.000000000000000000 ) ) ;
#301 = CARTESIAN_POINT ( 'NONE',  ( 2.056625321716608385E-34, 0.3125000000000000000, 0.000000000000000000 ) ) ;
#302 = EDGE_CURVE ( 'NONE', #344, #219, #194, .T. ) ;
#303 = SURFACE_STYLE_FILL_AREA ( #139 ) ;
#304 = DIRECTION ( 'NONE',  ( 7.257166217169504641E-17, 1.000000000000000000, -0.000000000000000000 ) ) ;
#305 = EDGE_CURVE ( 'NONE', #336, #29, #257, .T. ) ;
#306 = DIRECTION ( 'NONE',  ( -1.000000000000000000, 0.000000000000000000, 0.000000000000000000 ) ) ;
#307 = SURFACE_STYLE_FILL_AREA ( #28 ) ;
#308 = DIMENSIONAL_EXPONENTS ( 1.000000000000000000, 0.000000000000000000, 0.000000000000000000, 0.000000000000000000, 0.000000000000000000, 0.000000000000000000, 0.000000000000000000 ) ;
#309 = CARTESIAN_POINT ( 'NONE',  ( 0.000000000000000000, 0.3125000000000000000, 0.000000000000000000 ) ) ;
#310 = MANIFOLD_SOLID_BREP ( 'Revolve - Tool Body (Reduced Cut Diameter)', #354 ) ;
#311 = PLANE ( 'NONE',  #224 ) ;
#312 = COLOUR_RGB ( '',1.000000000000000000, 0.000000000000000000, 0.000000000000000000 ) ;
#313 = ORIENTED_EDGE ( 'NONE', *, *, #302, .T. ) ;
#314 = ADVANCED_FACE ( 'NONE', ( #36 ), #157, .T. ) ;
#315 = EDGE_CURVE ( 'NONE', #29, #336, #124, .T. ) ;
#316 = CARTESIAN_POINT ( 'NONE',  ( -0.07810000000000000275, 0.3125000000000000000, 0.000000000000000000 ) ) ;
#317 = FACE_OUTER_BOUND ( 'NONE', #318, .T. ) ;
#318 = EDGE_LOOP ( 'NONE', ( #59, #313, #295, #31 ) ) ;
#319 = COLOUR_RGB ( '',0.7921568627450980005, 0.8196078431372548767, 0.9333333333333333481 ) ;
#320 =( GEOMETRIC_REPRESENTATION_CONTEXT ( 3 ) GLOBAL_UNCERTAINTY_ASSIGNED_CONTEXT ( ( #101 ) ) GLOBAL_UNIT_ASSIGNED_CONTEXT ( ( #358, #90, #136 ) ) REPRESENTATION_CONTEXT ( 'NONE', 'WORKASPACE' ) );
#321 = ORIENTED_EDGE ( 'NONE', *, *, #142, .F. ) ;
#322 = SURFACE_STYLE_FILL_AREA ( #263 ) ;
#323 = PLANE ( 'NONE',  #27 ) ;
#324 =( NAMED_UNIT ( * ) SI_UNIT ( $, .STERADIAN. ) SOLID_ANGLE_UNIT ( ) );
#325 = COLOUR_RGB ( '',1.000000000000000000, 0.000000000000000000, 0.000000000000000000 ) ;
#326 =( NAMED_UNIT ( * ) SI_UNIT ( $, .STERADIAN. ) SOLID_ANGLE_UNIT ( ) );
#327 = UNCERTAINTY_MEASURE_WITH_UNIT (LENGTH_MEASURE( 1.000000000000000082E-05 ), #236, 'distance_accuracy_value', 'NONE');
#328 = LENGTH_MEASURE_WITH_UNIT ( LENGTH_MEASURE( 0.02539999999999999897 ), #329 );
#329 =( LENGTH_UNIT ( ) NAMED_UNIT ( * ) SI_UNIT ( $, .METRE. ) );
#330 = AXIS2_PLACEMENT_3D ( 'NONE', #12, #20, #182 ) ;
#331 =( NAMED_UNIT ( * ) SI_UNIT ( $, .STERADIAN. ) SOLID_ANGLE_UNIT ( ) );
#332 = PRESENTATION_STYLE_ASSIGNMENT (( #160 ) ) ;
#333 = AXIS2_PLACEMENT_3D ( 'NONE', #353, #213, #259 ) ;
#334 = ADVANCED_FACE ( 'NONE', ( #54 ), #14, .T. ) ;
#335 = SURFACE_STYLE_USAGE ( .BOTH. , #218 ) ;
#336 = VERTEX_POINT ( 'NONE', #191 ) ;
#337 = DIMENSIONAL_EXPONENTS ( 1.000000000000000000, 0.000000000000000000, 0.000000000000000000, 0.000000000000000000, 0.000000000000000000, 0.000000000000000000, 0.000000000000000000 ) ;
#338 = STYLED_ITEM ( 'NONE', ( #332 ), #65 ) ;
#339 = AXIS2_PLACEMENT_3D ( 'NONE', #343, #15, #94 ) ;
#340 = CARTESIAN_POINT ( 'NONE',  ( 0.000000000000000000, 0.3125000000000000000, -0.07810000000000000275 ) ) ;
#341 = UNCERTAINTY_MEASURE_WITH_UNIT (LENGTH_MEASURE( 1.000000000000000082E-05 ), #248, 'distance_accuracy_value', 'NONE');
#342 = EDGE_CURVE ( 'NONE', #287, #231, #133, .T. ) ;
#343 = CARTESIAN_POINT ( 'NONE',  ( 1.224646799147353700E-16, 2.000000000000000000, 0.000000000000000000 ) ) ;
#344 = VERTEX_POINT ( 'NONE', #134 ) ;
#345 = DIRECTION ( 'NONE',  ( -1.000000000000000000, 0.000000000000000000, 0.000000000000000000 ) ) ;
#346 = VERTEX_POINT ( 'NONE', #244 ) ;
#347 = AXIS2_PLACEMENT_3D ( 'NONE', #309, #195, #251 ) ;
#348 = MECHANICAL_DESIGN_GEOMETRIC_PRESENTATION_REPRESENTATION (  '', ( #40 ), #274 ) ;
#349 = DIRECTION ( 'NONE',  ( -0.000000000000000000, -1.000000000000000000, -0.000000000000000000 ) ) ;
#350 = CYLINDRICAL_SURFACE ( 'NONE', #339, 0.09375000000000005551 ) ;
#351 = EDGE_LOOP ( 'NONE', ( #69, #255, #176, #206 ) ) ;
#352 = LENGTH_MEASURE_WITH_UNIT ( LENGTH_MEASURE( 0.02539999999999999897 ), #290 );
#353 = CARTESIAN_POINT ( 'NONE',  ( 0.000000000000000000, 0.3125000000000000000, 0.000000000000000000 ) ) ;
#354 = CLOSED_SHELL ( 'NONE', ( #209, #102, #120, #314, #296, #171 ) ) ;
#355 = AXIS2_PLACEMENT_3D ( 'NONE', #260, #126, #268 ) ;
#356 = PRODUCT_RELATED_PRODUCT_CATEGORY ( 'part', '', ( #187 ) ) ;
#357 = DIMENSIONAL_EXPONENTS ( 1.000000000000000000, 0.000000000000000000, 0.000000000000000000, 0.000000000000000000, 0.000000000000000000, 0.000000000000000000, 0.000000000000000000 ) ;
#358 =( CONVERSION_BASED_UNIT ( 'INCH', #48 ) LENGTH_UNIT ( ) NAMED_UNIT ( #190 ) );
#359 = AXIS2_PLACEMENT_3D ( 'NONE', #234, #349, #96 ) ;
ENDSEC;
END-ISO-10303-21;
