ISO-10303-21;
HEADER;
FILE_DESCRIPTION (( 'STEP AP214' ),
    '1' );
FILE_NAME ('82271.STEP',
    '2023-06-23T05:10:24',
    ( '' ),
    ( '' ),
    'SwSTEP 2.0',
    'SolidWorks 2023',
    '' );
FILE_SCHEMA (( 'AUTOMOTIVE_DESIGN' ));
ENDSEC;

DATA;
#1 =( CONVERSION_BASED_UNIT ( 'INCH', #43 ) LENGTH_UNIT ( ) NAMED_UNIT ( #100 ) );
#2 = CARTESIAN_POINT ( 'NONE',  ( 0.000000000000000000, 0.000000000000000000, 0.000000000000000000 ) ) ;
#3 = CYLINDRICAL_SURFACE ( 'NONE', #251, 0.2500000000000000000 ) ;
#4 =( LENGTH_UNIT ( ) NAMED_UNIT ( * ) SI_UNIT ( $, .METRE. ) );
#5 = CARTESIAN_POINT ( 'NONE',  ( -6.123233995736772199E-17, 3.000000000000000444, 0.000000000000000000 ) ) ;
#6 = MECHANICAL_DESIGN_GEOMETRIC_PRESENTATION_REPRESENTATION (  '', ( #117 ), #216 ) ;
#7 = VERTEX_POINT ( 'NONE', #40 ) ;
#8 = DIRECTION ( 'NONE',  ( -1.000000000000000000, 0.000000000000000000, 0.000000000000000000 ) ) ;
#9 = ORIENTED_EDGE ( 'NONE', *, *, #21, .F. ) ;
#10 =( CONVERSION_BASED_UNIT ( 'INCH', #99 ) LENGTH_UNIT ( ) NAMED_UNIT ( #249 ) );
#11 = CARTESIAN_POINT ( 'NONE',  ( 0.000000000000000000, 1.000000000000000000, -0.2500000000000000000 ) ) ;
#12 = EDGE_LOOP ( 'NONE', ( #49, #37, #298, #272 ) ) ;
#13 = AXIS2_PLACEMENT_3D ( 'NONE', #46, #67, #237 ) ;
#14 = EDGE_CURVE ( 'NONE', #208, #78, #175, .T. ) ;
#15 =( NAMED_UNIT ( * ) PLANE_ANGLE_UNIT ( ) SI_UNIT ( $, .RADIAN. ) );
#16 = MECHANICAL_DESIGN_GEOMETRIC_PRESENTATION_REPRESENTATION (  '', ( #156 ), #230 ) ;
#17 = CIRCLE ( 'NONE', #278, 0.2500000000000000000 ) ;
#18 = DIRECTION ( 'NONE',  ( 0.000000000000000000, 0.000000000000000000, -1.000000000000000000 ) ) ;
#19 =( NAMED_UNIT ( * ) SI_UNIT ( $, .STERADIAN. ) SOLID_ANGLE_UNIT ( ) );
#20 = CARTESIAN_POINT ( 'NONE',  ( 0.2500000000000000000, 1.000000000000000000, 3.061616997868383634E-17 ) ) ;
#21 = EDGE_CURVE ( 'NONE', #78, #208, #235, .T. ) ;
#22 = LENGTH_MEASURE_WITH_UNIT ( LENGTH_MEASURE( 0.02539999999999999897 ), #62 );
#23 = FILL_AREA_STYLE_COLOUR ( '', #29 ) ;
#24 = LINE ( 'NONE', #150, #87 ) ;
#25 = CLOSED_SHELL ( 'NONE', ( #275, #147, #95, #287 ) ) ;
#26 =( NAMED_UNIT ( * ) PLANE_ANGLE_UNIT ( ) SI_UNIT ( $, .RADIAN. ) );
#27 = DIRECTION ( 'NONE',  ( -3.061616997868386099E-17, 1.000000000000000000, -0.000000000000000000 ) ) ;
#28 = EDGE_LOOP ( 'NONE', ( #226, #128 ) ) ;
#29 = COLOUR_RGB ( '',1.000000000000000000, 0.000000000000000000, 0.000000000000000000 ) ;
#30 = LENGTH_MEASURE_WITH_UNIT ( LENGTH_MEASURE( 0.02539999999999999897 ), #151 );
#31 = CARTESIAN_POINT ( 'NONE',  ( 0.000000000000000000, 0.000000000000000000, -0.2500000000000000000 ) ) ;
#32 = DIRECTION ( 'NONE',  ( -0.000000000000000000, -1.000000000000000000, -0.000000000000000000 ) ) ;
#33 = DIMENSIONAL_EXPONENTS ( 1.000000000000000000, 0.000000000000000000, 0.000000000000000000, 0.000000000000000000, 0.000000000000000000, 0.000000000000000000, 0.000000000000000000 ) ;
#34 = ORIENTED_EDGE ( 'NONE', *, *, #190, .F. ) ;
#35 = COLOUR_RGB ( '',1.000000000000000000, 0.000000000000000000, 0.000000000000000000 ) ;
#36 = COLOUR_RGB ( '',0.7921568627450980005, 0.8196078431372548767, 0.9333333333333333481 ) ;
#37 = ORIENTED_EDGE ( 'NONE', *, *, #14, .T. ) ;
#38 = DIRECTION ( 'NONE',  ( 0.000000000000000000, -0.000000000000000000, 1.000000000000000000 ) ) ;
#39 = SURFACE_STYLE_FILL_AREA ( #255 ) ;
#40 = CARTESIAN_POINT ( 'NONE',  ( 0.2500000000000000000, 3.000000000000000444, 3.061616997868383634E-17 ) ) ;
#41 = APPLICATION_PROTOCOL_DEFINITION ( 'draft international standard', 'automotive_design', 1998, #91 ) ;
#42 =( NAMED_UNIT ( * ) PLANE_ANGLE_UNIT ( ) SI_UNIT ( $, .RADIAN. ) );
#43 = LENGTH_MEASURE_WITH_UNIT ( LENGTH_MEASURE( 0.02539999999999999897 ), #65 );
#44 =( NAMED_UNIT ( * ) SI_UNIT ( $, .STERADIAN. ) SOLID_ANGLE_UNIT ( ) );
#45 =( GEOMETRIC_REPRESENTATION_CONTEXT ( 3 ) GLOBAL_UNCERTAINTY_ASSIGNED_CONTEXT ( ( #242 ) ) GLOBAL_UNIT_ASSIGNED_CONTEXT ( ( #139, #280, #19 ) ) REPRESENTATION_CONTEXT ( 'NONE', 'WORKASPACE' ) );
#46 = CARTESIAN_POINT ( 'NONE',  ( 0.000000000000000000, 0.000000000000000000, 0.000000000000000000 ) ) ;
#47 = PRESENTATION_LAYER_ASSIGNMENT (  '', '', ( #170 ) ) ;
#48 = CIRCLE ( 'NONE', #176, 0.2500000000000000000 ) ;
#49 = ORIENTED_EDGE ( 'NONE', *, *, #145, .F. ) ;
#50 = FACE_OUTER_BOUND ( 'NONE', #102, .T. ) ;
#51 = EDGE_LOOP ( 'NONE', ( #222, #292, #179, #207 ) ) ;
#52 = EDGE_CURVE ( 'NONE', #55, #160, #215, .T. ) ;
#53 = PRESENTATION_LAYER_ASSIGNMENT (  '', '', ( #168 ) ) ;
#54 = CARTESIAN_POINT ( 'NONE',  ( -0.2500000000000001110, 3.000000000000000444, 0.000000000000000000 ) ) ;
#55 = VERTEX_POINT ( 'NONE', #134 ) ;
#56 =( CONVERSION_BASED_UNIT ( 'INCH', #30 ) LENGTH_UNIT ( ) NAMED_UNIT ( #105 ) );
#57 = DIRECTION ( 'NONE',  ( -0.000000000000000000, -1.000000000000000000, -0.000000000000000000 ) ) ;
#58 = SHAPE_DEFINITION_REPRESENTATION ( #83, #233 ) ;
#59 = PRODUCT_DEFINITION_FORMATION_WITH_SPECIFIED_SOURCE ( 'ANY', '', #306, .NOT_KNOWN. ) ;
#60 = DIRECTION ( 'NONE',  ( 1.000000000000000000, 0.000000000000000000, 0.000000000000000000 ) ) ;
#61 = FILL_AREA_STYLE ('',( #194 ) ) ;
#62 =( LENGTH_UNIT ( ) NAMED_UNIT ( * ) SI_UNIT ( $, .METRE. ) );
#63 = AXIS2_PLACEMENT_3D ( 'NONE', #231, #259, #18 ) ;
#64 = UNCERTAINTY_MEASURE_WITH_UNIT (LENGTH_MEASURE( 1.000000000000000082E-05 ), #10, 'distance_accuracy_value', 'NONE');
#65 =( LENGTH_UNIT ( ) NAMED_UNIT ( * ) SI_UNIT ( $, .METRE. ) );
#66 = DIRECTION ( 'NONE',  ( -1.000000000000000000, 0.000000000000000000, 0.000000000000000000 ) ) ;
#67 = DIRECTION ( 'NONE',  ( -0.000000000000000000, -1.000000000000000000, -0.000000000000000000 ) ) ;
#68 = COLOUR_RGB ( '',0.7921568627450980005, 0.8196078431372548767, 0.9333333333333333481 ) ;
#69 = ORIENTED_EDGE ( 'NONE', *, *, #219, .T. ) ;
#70 = DIRECTION ( 'NONE',  ( -3.061616997868386099E-17, 1.000000000000000000, -0.000000000000000000 ) ) ;
#71 = CARTESIAN_POINT ( 'NONE',  ( 0.000000000000000000, 1.000000000000000000, 0.000000000000000000 ) ) ;
#72 = ORIENTED_EDGE ( 'NONE', *, *, #52, .T. ) ;
#73 = LINE ( 'NONE', #290, #93 ) ;
#74 = ORIENTED_EDGE ( 'NONE', *, *, #205, .T. ) ;
#75 = CIRCLE ( 'NONE', #199, 0.2500000000000000000 ) ;
#76 = CARTESIAN_POINT ( 'NONE',  ( -0.2500000000000001110, 3.000000000000000444, 0.000000000000000000 ) ) ;
#77 = EDGE_LOOP ( 'NONE', ( #106, #202, #34, #246 ) ) ;
#78 = VERTEX_POINT ( 'NONE', #11 ) ;
#79 = CARTESIAN_POINT ( 'NONE',  ( 0.000000000000000000, 1.000000000000000000, 0.000000000000000000 ) ) ;
#80 = EDGE_CURVE ( 'NONE', #160, #55, #75, .T. ) ;
#81 =( GEOMETRIC_REPRESENTATION_CONTEXT ( 3 ) GLOBAL_UNCERTAINTY_ASSIGNED_CONTEXT ( ( #283 ) ) GLOBAL_UNIT_ASSIGNED_CONTEXT ( ( #138, #42, #114 ) ) REPRESENTATION_CONTEXT ( 'NONE', 'WORKASPACE' ) );
#82 = FILL_AREA_STYLE_COLOUR ( '', #225 ) ;
#83 = PRODUCT_DEFINITION_SHAPE ( 'NONE', 'NONE',  #149 ) ;
#84 = PRESENTATION_STYLE_ASSIGNMENT (( #303 ) ) ;
#85 = ADVANCED_FACE ( 'NONE', ( #268 ), #101, .T. ) ;
#86 = SURFACE_STYLE_USAGE ( .BOTH. , #165 ) ;
#87 = VECTOR ( 'NONE', #196, 39.37007874015748143 ) ;
#88 = CARTESIAN_POINT ( 'NONE',  ( -6.123233995736772199E-17, 3.000000000000000444, 0.000000000000000000 ) ) ;
#89 = DIRECTION ( 'NONE',  ( 0.000000000000000000, 0.000000000000000000, 1.000000000000000000 ) ) ;
#90 =( CONVERSION_BASED_UNIT ( 'INCH', #94 ) LENGTH_UNIT ( ) NAMED_UNIT ( #157 ) );
#91 = APPLICATION_CONTEXT ( 'automotive_design' ) ;
#92 = CLOSED_SHELL ( 'NONE', ( #130, #109, #166, #85 ) ) ;
#93 = VECTOR ( 'NONE', #70, 39.37007874015748143 ) ;
#94 = LENGTH_MEASURE_WITH_UNIT ( LENGTH_MEASURE( 0.02539999999999999897 ), #167 );
#95 = ADVANCED_FACE ( 'NONE', ( #300 ), #140, .T. ) ;
#96 = DIRECTION ( 'NONE',  ( -3.061616997868386099E-17, 1.000000000000000000, -0.000000000000000000 ) ) ;
#97 = DIRECTION ( 'NONE',  ( -0.000000000000000000, -1.000000000000000000, -0.000000000000000000 ) ) ;
#98 = ORIENTED_EDGE ( 'NONE', *, *, #14, .F. ) ;
#99 = LENGTH_MEASURE_WITH_UNIT ( LENGTH_MEASURE( 0.02539999999999999897 ), #4 );
#100 = DIMENSIONAL_EXPONENTS ( 1.000000000000000000, 0.000000000000000000, 0.000000000000000000, 0.000000000000000000, 0.000000000000000000, 0.000000000000000000, 0.000000000000000000 ) ;
#101 = PLANE ( 'NONE',  #63 ) ;
#102 = EDGE_LOOP ( 'NONE', ( #72, #184, #204, #108 ) ) ;
#103 = COLOUR_RGB ( '',1.000000000000000000, 0.000000000000000000, 0.000000000000000000 ) ;
#104 = DIRECTION ( 'NONE',  ( 0.000000000000000000, 0.000000000000000000, -1.000000000000000000 ) ) ;
#105 = DIMENSIONAL_EXPONENTS ( 1.000000000000000000, 0.000000000000000000, 0.000000000000000000, 0.000000000000000000, 0.000000000000000000, 0.000000000000000000, 0.000000000000000000 ) ;
#106 = ORIENTED_EDGE ( 'NONE', *, *, #21, .T. ) ;
#107 =( NAMED_UNIT ( * ) SI_UNIT ( $, .STERADIAN. ) SOLID_ANGLE_UNIT ( ) );
#108 = ORIENTED_EDGE ( 'NONE', *, *, #256, .F. ) ;
#109 = ADVANCED_FACE ( 'NONE', ( #227 ), #188, .T. ) ;
#110 = LENGTH_MEASURE_WITH_UNIT ( LENGTH_MEASURE( 0.02539999999999999897 ), #229 );
#111 =( GEOMETRIC_REPRESENTATION_CONTEXT ( 3 ) GLOBAL_UNCERTAINTY_ASSIGNED_CONTEXT ( ( #236 ) ) GLOBAL_UNIT_ASSIGNED_CONTEXT ( ( #281, #15, #107 ) ) REPRESENTATION_CONTEXT ( 'NONE', 'WORKASPACE' ) );
#112 = AXIS2_PLACEMENT_3D ( 'NONE', #213, #89, #60 ) ;
#113 = SURFACE_SIDE_STYLE ('',( #39 ) ) ;
#114 =( NAMED_UNIT ( * ) SI_UNIT ( $, .STERADIAN. ) SOLID_ANGLE_UNIT ( ) );
#115 = DIRECTION ( 'NONE',  ( 1.000000000000000000, 3.061616997868386099E-17, 0.000000000000000000 ) ) ;
#116 = LENGTH_MEASURE_WITH_UNIT ( LENGTH_MEASURE( 0.02539999999999999897 ), #279 );
#117 = STYLED_ITEM ( 'NONE', ( #286 ), #169 ) ;
#118 = FACE_OUTER_BOUND ( 'NONE', #28, .T. ) ;
#119 = SURFACE_STYLE_USAGE ( .BOTH. , #285 ) ;
#120 = UNCERTAINTY_MEASURE_WITH_UNIT (LENGTH_MEASURE( 1.000000000000000082E-05 ), #90, 'distance_accuracy_value', 'NONE');
#121 =( NAMED_UNIT ( * ) PLANE_ANGLE_UNIT ( ) SI_UNIT ( $, .RADIAN. ) );
#122 = MECHANICAL_DESIGN_GEOMETRIC_PRESENTATION_REPRESENTATION (  '', ( #220 ), #111 ) ;
#123 = SURFACE_STYLE_FILL_AREA ( #238 ) ;
#124 = SURFACE_SIDE_STYLE ('',( #203 ) ) ;
#125 = FILL_AREA_STYLE_COLOUR ( '', #103 ) ;
#126 = DIMENSIONAL_EXPONENTS ( 1.000000000000000000, 0.000000000000000000, 0.000000000000000000, 0.000000000000000000, 0.000000000000000000, 0.000000000000000000, 0.000000000000000000 ) ;
#127 = DIRECTION ( 'NONE',  ( -1.000000000000000000, 0.000000000000000000, 0.000000000000000000 ) ) ;
#128 = ORIENTED_EDGE ( 'NONE', *, *, #80, .F. ) ;
#129 = PRESENTATION_LAYER_ASSIGNMENT (  '', '', ( #220 ) ) ;
#130 = ADVANCED_FACE ( 'NONE', ( #136 ), #209, .T. ) ;
#131 =( NAMED_UNIT ( * ) SI_UNIT ( $, .STERADIAN. ) SOLID_ANGLE_UNIT ( ) );
#132 = SURFACE_STYLE_USAGE ( .BOTH. , #245 ) ;
#133 = DIRECTION ( 'NONE',  ( 0.000000000000000000, 0.000000000000000000, -1.000000000000000000 ) ) ;
#134 = CARTESIAN_POINT ( 'NONE',  ( -0.2500000000000000000, 1.000000000000000000, 0.000000000000000000 ) ) ;
#135 = PRESENTATION_STYLE_ASSIGNMENT (( #295 ) ) ;
#136 = FACE_OUTER_BOUND ( 'NONE', #77, .T. ) ;
#137 = UNCERTAINTY_MEASURE_WITH_UNIT (LENGTH_MEASURE( 1.000000000000000082E-05 ), #56, 'distance_accuracy_value', 'NONE');
#138 =( CONVERSION_BASED_UNIT ( 'INCH', #116 ) LENGTH_UNIT ( ) NAMED_UNIT ( #126 ) );
#139 =( CONVERSION_BASED_UNIT ( 'INCH', #22 ) LENGTH_UNIT ( ) NAMED_UNIT ( #33 ) );
#140 = CYLINDRICAL_SURFACE ( 'NONE', #277, 0.2500000000000000555 ) ;
#141 = FACE_OUTER_BOUND ( 'NONE', #12, .T. ) ;
#142 = AXIS2_PLACEMENT_3D ( 'NONE', #276, #253, #38 ) ;
#143 = CARTESIAN_POINT ( 'NONE',  ( 1.171687330204578608E-34, 1.000000000000000000, 0.000000000000000000 ) ) ;
#144 = VECTOR ( 'NONE', #32, 39.37007874015748143 ) ;
#145 = EDGE_CURVE ( 'NONE', #208, #250, #24, .T. ) ;
#146 = SURFACE_STYLE_FILL_AREA ( #61 ) ;
#147 = ADVANCED_FACE ( 'NONE', ( #118 ), #240, .F. ) ;
#148 = DIRECTION ( 'NONE',  ( -1.000000000000000000, -3.061616997868386099E-17, 0.000000000000000000 ) ) ;
#149 = PRODUCT_DEFINITION ( 'UNKNOWN', '', #59, #305 ) ;
#150 = CARTESIAN_POINT ( 'NONE',  ( 3.061616997868383018E-17, 0.000000000000000000, 0.2500000000000000000 ) ) ;
#151 =( LENGTH_UNIT ( ) NAMED_UNIT ( * ) SI_UNIT ( $, .METRE. ) );
#152 = FILL_AREA_STYLE ('',( #125 ) ) ;
#153 = EDGE_LOOP ( 'NONE', ( #9, #98 ) ) ;
#154 = CYLINDRICAL_SURFACE ( 'NONE', #301, 0.2500000000000000555 ) ;
#155 = SURFACE_STYLE_FILL_AREA ( #152 ) ;
#156 = STYLED_ITEM ( 'NONE', ( #84 ), #130 ) ;
#157 = DIMENSIONAL_EXPONENTS ( 1.000000000000000000, 0.000000000000000000, 0.000000000000000000, 0.000000000000000000, 0.000000000000000000, 0.000000000000000000, 0.000000000000000000 ) ;
#158 = DIRECTION ( 'NONE',  ( -1.000000000000000000, 0.000000000000000000, 0.000000000000000000 ) ) ;
#159 = DIRECTION ( 'NONE',  ( -0.000000000000000000, -1.000000000000000000, -0.000000000000000000 ) ) ;
#160 = VERTEX_POINT ( 'NONE', #20 ) ;
#161 = EDGE_CURVE ( 'NONE', #252, #7, #288, .T. ) ;
#162 = ORIENTED_EDGE ( 'NONE', *, *, #190, .T. ) ;
#163 = PRESENTATION_LAYER_ASSIGNMENT (  '', '', ( #117 ) ) ;
#164 = STYLED_ITEM ( 'NONE', ( #135 ), #182 ) ;
#165 = SURFACE_SIDE_STYLE ('',( #192 ) ) ;
#166 = ADVANCED_FACE ( 'NONE', ( #141 ), #3, .T. ) ;
#167 =( LENGTH_UNIT ( ) NAMED_UNIT ( * ) SI_UNIT ( $, .METRE. ) );
#168 = STYLED_ITEM ( 'NONE', ( #263 ), #166 ) ;
#169 = MANIFOLD_SOLID_BREP ( 'Revolve - Cutting Edge', #92 ) ;
#170 = STYLED_ITEM ( 'NONE', ( #228 ), #85 ) ;
#171 = AXIS2_PLACEMENT_3D ( 'NONE', #5, #96, #127 ) ;
#172 = DIRECTION ( 'NONE',  ( -0.000000000000000000, -1.000000000000000000, -0.000000000000000000 ) ) ;
#173 = SURFACE_SIDE_STYLE ('',( #146 ) ) ;
#174 = FILL_AREA_STYLE_COLOUR ( '', #36 ) ;
#175 = CIRCLE ( 'NONE', #183, 0.2500000000000000000 ) ;
#176 = AXIS2_PLACEMENT_3D ( 'NONE', #198, #289, #133 ) ;
#177 = VERTEX_POINT ( 'NONE', #31 ) ;
#178 = DIRECTION ( 'NONE',  ( -3.061616997868386099E-17, 1.000000000000000000, -0.000000000000000000 ) ) ;
#179 = ORIENTED_EDGE ( 'NONE', *, *, #256, .T. ) ;
#180 = APPLICATION_CONTEXT ( 'automotive_design' ) ;
#181 = DIRECTION ( 'NONE',  ( -3.061616997868386099E-17, 1.000000000000000000, -0.000000000000000000 ) ) ;
#182 = MANIFOLD_SOLID_BREP ( 'Revolve - Tool Body (Straight Shanked)', #25 ) ;
#183 = AXIS2_PLACEMENT_3D ( 'NONE', #79, #57, #274 ) ;
#184 = ORIENTED_EDGE ( 'NONE', *, *, #254, .T. ) ;
#185 = CARTESIAN_POINT ( 'NONE',  ( 3.061616997868383018E-17, 1.000000000000000000, 0.2500000000000000000 ) ) ;
#186 = EDGE_LOOP ( 'NONE', ( #294, #74 ) ) ;
#187 = DIRECTION ( 'NONE',  ( -3.061616997868386099E-17, 1.000000000000000000, -0.000000000000000000 ) ) ;
#188 = PLANE ( 'NONE',  #142 ) ;
#189 = AXIS2_PLACEMENT_3D ( 'NONE', #221, #27, #158 ) ;
#190 = EDGE_CURVE ( 'NONE', #177, #250, #17, .T. ) ;
#191 = CARTESIAN_POINT ( 'NONE',  ( 0.2500000000000000000, 3.000000000000000444, 0.000000000000000000 ) ) ;
#192 = SURFACE_STYLE_FILL_AREA ( #193 ) ;
#193 = FILL_AREA_STYLE ('',( #232 ) ) ;
#194 = FILL_AREA_STYLE_COLOUR ( '', #68 ) ;
#195 = UNCERTAINTY_MEASURE_WITH_UNIT (LENGTH_MEASURE( 1.000000000000000082E-05 ), #1, 'distance_accuracy_value', 'NONE');
#196 = DIRECTION ( 'NONE',  ( -0.000000000000000000, -1.000000000000000000, -0.000000000000000000 ) ) ;
#197 =( NAMED_UNIT ( * ) PLANE_ANGLE_UNIT ( ) SI_UNIT ( $, .RADIAN. ) );
#198 = CARTESIAN_POINT ( 'NONE',  ( 0.000000000000000000, 0.000000000000000000, 0.000000000000000000 ) ) ;
#199 = AXIS2_PLACEMENT_3D ( 'NONE', #201, #187, #291 ) ;
#200 =( NAMED_UNIT ( * ) SI_UNIT ( $, .STERADIAN. ) SOLID_ANGLE_UNIT ( ) );
#201 = CARTESIAN_POINT ( 'NONE',  ( 7.582401355855259480E-33, 1.000000000000000000, 0.000000000000000000 ) ) ;
#202 = ORIENTED_EDGE ( 'NONE', *, *, #145, .T. ) ;
#203 = SURFACE_STYLE_FILL_AREA ( #224 ) ;
#204 = ORIENTED_EDGE ( 'NONE', *, *, #161, .F. ) ;
#205 = EDGE_CURVE ( 'NONE', #7, #252, #211, .T. ) ;
#206 =( GEOMETRIC_REPRESENTATION_CONTEXT ( 3 ) GLOBAL_UNCERTAINTY_ASSIGNED_CONTEXT ( ( #195 ) ) GLOBAL_UNIT_ASSIGNED_CONTEXT ( ( #1, #121, #212 ) ) REPRESENTATION_CONTEXT ( 'NONE', 'WORKASPACE' ) );
#207 = ORIENTED_EDGE ( 'NONE', *, *, #205, .F. ) ;
#208 = VERTEX_POINT ( 'NONE', #185 ) ;
#209 = CYLINDRICAL_SURFACE ( 'NONE', #13, 0.2500000000000000000 ) ;
#210 = PRESENTATION_LAYER_ASSIGNMENT (  '', '', ( #156 ) ) ;
#211 = CIRCLE ( 'NONE', #171, 0.2500000000000000555 ) ;
#212 =( NAMED_UNIT ( * ) SI_UNIT ( $, .STERADIAN. ) SOLID_ANGLE_UNIT ( ) );
#213 = CARTESIAN_POINT ( 'NONE',  ( 0.000000000000000000, 0.000000000000000000, 0.000000000000000000 ) ) ;
#214 = DIRECTION ( 'NONE',  ( -3.061616997868386099E-17, 1.000000000000000000, 0.000000000000000000 ) ) ;
#215 = CIRCLE ( 'NONE', #189, 0.2500000000000000000 ) ;
#216 =( GEOMETRIC_REPRESENTATION_CONTEXT ( 3 ) GLOBAL_UNCERTAINTY_ASSIGNED_CONTEXT ( ( #64 ) ) GLOBAL_UNIT_ASSIGNED_CONTEXT ( ( #10, #26, #200 ) ) REPRESENTATION_CONTEXT ( 'NONE', 'WORKASPACE' ) );
#217 = DIMENSIONAL_EXPONENTS ( 1.000000000000000000, 0.000000000000000000, 0.000000000000000000, 0.000000000000000000, 0.000000000000000000, 0.000000000000000000, 0.000000000000000000 ) ;
#218 = DIRECTION ( 'NONE',  ( 0.000000000000000000, 0.000000000000000000, -1.000000000000000000 ) ) ;
#219 = EDGE_CURVE ( 'NONE', #250, #177, #48, .T. ) ;
#220 = STYLED_ITEM ( 'NONE', ( #257 ), #109 ) ;
#221 = CARTESIAN_POINT ( 'NONE',  ( 7.582401355855259480E-33, 1.000000000000000000, 0.000000000000000000 ) ) ;
#222 = ORIENTED_EDGE ( 'NONE', *, *, #254, .F. ) ;
#223 = CARTESIAN_POINT ( 'NONE',  ( 0.000000000000000000, 0.000000000000000000, 0.000000000000000000 ) ) ;
#224 = FILL_AREA_STYLE ('',( #174 ) ) ;
#225 = COLOUR_RGB ( '',1.000000000000000000, 0.000000000000000000, 0.000000000000000000 ) ;
#226 = ORIENTED_EDGE ( 'NONE', *, *, #52, .F. ) ;
#227 = FACE_OUTER_BOUND ( 'NONE', #153, .T. ) ;
#228 = PRESENTATION_STYLE_ASSIGNMENT (( #132 ) ) ;
#229 =( LENGTH_UNIT ( ) NAMED_UNIT ( * ) SI_UNIT ( $, .METRE. ) );
#230 =( GEOMETRIC_REPRESENTATION_CONTEXT ( 3 ) GLOBAL_UNCERTAINTY_ASSIGNED_CONTEXT ( ( #120 ) ) GLOBAL_UNIT_ASSIGNED_CONTEXT ( ( #90, #197, #44 ) ) REPRESENTATION_CONTEXT ( 'NONE', 'WORKASPACE' ) );
#231 = CARTESIAN_POINT ( 'NONE',  ( 0.000000000000000000, 0.000000000000000000, 0.000000000000000000 ) ) ;
#232 = FILL_AREA_STYLE_COLOUR ( '', #35 ) ;
#233 = ADVANCED_BREP_SHAPE_REPRESENTATION ( '82271', ( #169, #182, #112 ), #45 ) ;
#234 = APPLICATION_PROTOCOL_DEFINITION ( 'draft international standard', 'automotive_design', 1998, #180 ) ;
#235 = CIRCLE ( 'NONE', #244, 0.2500000000000000000 ) ;
#236 = UNCERTAINTY_MEASURE_WITH_UNIT (LENGTH_MEASURE( 1.000000000000000082E-05 ), #281, 'distance_accuracy_value', 'NONE');
#237 = DIRECTION ( 'NONE',  ( 0.000000000000000000, 0.000000000000000000, -1.000000000000000000 ) ) ;
#238 = FILL_AREA_STYLE ('',( #23 ) ) ;
#239 = MECHANICAL_DESIGN_GEOMETRIC_PRESENTATION_REPRESENTATION (  '', ( #170 ), #81 ) ;
#240 = PLANE ( 'NONE',  #299 ) ;
#241 =( NAMED_UNIT ( * ) PLANE_ANGLE_UNIT ( ) SI_UNIT ( $, .RADIAN. ) );
#242 = UNCERTAINTY_MEASURE_WITH_UNIT (LENGTH_MEASURE( 1.000000000000000082E-05 ), #139, 'distance_accuracy_value', 'NONE');
#243 = CARTESIAN_POINT ( 'NONE',  ( -6.123233995736772199E-17, 3.000000000000000444, 0.000000000000000000 ) ) ;
#244 = AXIS2_PLACEMENT_3D ( 'NONE', #71, #159, #104 ) ;
#245 = SURFACE_SIDE_STYLE ('',( #155 ) ) ;
#246 = ORIENTED_EDGE ( 'NONE', *, *, #264, .F. ) ;
#247 = PLANE ( 'NONE',  #271 ) ;
#248 = LINE ( 'NONE', #267, #144 ) ;
#249 = DIMENSIONAL_EXPONENTS ( 1.000000000000000000, 0.000000000000000000, 0.000000000000000000, 0.000000000000000000, 0.000000000000000000, 0.000000000000000000, 0.000000000000000000 ) ;
#250 = VERTEX_POINT ( 'NONE', #265 ) ;
#251 = AXIS2_PLACEMENT_3D ( 'NONE', #2, #172, #261 ) ;
#252 = VERTEX_POINT ( 'NONE', #54 ) ;
#253 = DIRECTION ( 'NONE',  ( 0.000000000000000000, 1.000000000000000000, 0.000000000000000000 ) ) ;
#254 = EDGE_CURVE ( 'NONE', #160, #7, #73, .T. ) ;
#255 = FILL_AREA_STYLE ('',( #82 ) ) ;
#256 = EDGE_CURVE ( 'NONE', #55, #252, #293, .T. ) ;
#257 = PRESENTATION_STYLE_ASSIGNMENT (( #86 ) ) ;
#258 = MECHANICAL_DESIGN_GEOMETRIC_PRESENTATION_REPRESENTATION (  '', ( #164 ), #302 ) ;
#259 = DIRECTION ( 'NONE',  ( 0.000000000000000000, -1.000000000000000000, -0.000000000000000000 ) ) ;
#260 = DIRECTION ( 'NONE',  ( -3.061616997868386099E-17, 1.000000000000000000, -0.000000000000000000 ) ) ;
#261 = DIRECTION ( 'NONE',  ( 0.000000000000000000, 0.000000000000000000, -1.000000000000000000 ) ) ;
#262 = SURFACE_STYLE_USAGE ( .BOTH. , #173 ) ;
#263 = PRESENTATION_STYLE_ASSIGNMENT (( #119 ) ) ;
#264 = EDGE_CURVE ( 'NONE', #78, #177, #248, .T. ) ;
#265 = CARTESIAN_POINT ( 'NONE',  ( 3.061616997868383018E-17, 0.000000000000000000, 0.2500000000000000000 ) ) ;
#266 = EDGE_LOOP ( 'NONE', ( #162, #69 ) ) ;
#267 = CARTESIAN_POINT ( 'NONE',  ( 0.000000000000000000, 0.000000000000000000, -0.2500000000000000000 ) ) ;
#268 = FACE_OUTER_BOUND ( 'NONE', #266, .T. ) ;
#269 = PRODUCT_RELATED_PRODUCT_CATEGORY ( 'part', '', ( #306 ) ) ;
#270 = FACE_OUTER_BOUND ( 'NONE', #186, .T. ) ;
#271 = AXIS2_PLACEMENT_3D ( 'NONE', #191, #273, #115 ) ;
#272 = ORIENTED_EDGE ( 'NONE', *, *, #219, .F. ) ;
#273 = DIRECTION ( 'NONE',  ( 3.061616997868386099E-17, -1.000000000000000000, 0.000000000000000000 ) ) ;
#274 = DIRECTION ( 'NONE',  ( 0.000000000000000000, 0.000000000000000000, -1.000000000000000000 ) ) ;
#275 = ADVANCED_FACE ( 'NONE', ( #50 ), #154, .T. ) ;
#276 = CARTESIAN_POINT ( 'NONE',  ( 0.000000000000000000, 1.000000000000000000, 0.000000000000000000 ) ) ;
#277 = AXIS2_PLACEMENT_3D ( 'NONE', #88, #304, #307 ) ;
#278 = AXIS2_PLACEMENT_3D ( 'NONE', #223, #97, #218 ) ;
#279 =( LENGTH_UNIT ( ) NAMED_UNIT ( * ) SI_UNIT ( $, .METRE. ) );
#280 =( NAMED_UNIT ( * ) PLANE_ANGLE_UNIT ( ) SI_UNIT ( $, .RADIAN. ) );
#281 =( CONVERSION_BASED_UNIT ( 'INCH', #110 ) LENGTH_UNIT ( ) NAMED_UNIT ( #217 ) );
#282 = PRODUCT_CONTEXT ( 'NONE', #180, 'mechanical' ) ;
#283 = UNCERTAINTY_MEASURE_WITH_UNIT (LENGTH_MEASURE( 1.000000000000000082E-05 ), #138, 'distance_accuracy_value', 'NONE');
#284 = CARTESIAN_POINT ( 'NONE',  ( -6.123233995736772199E-17, 3.000000000000000444, 0.000000000000000000 ) ) ;
#285 = SURFACE_SIDE_STYLE ('',( #123 ) ) ;
#286 = PRESENTATION_STYLE_ASSIGNMENT (( #262 ) ) ;
#287 = ADVANCED_FACE ( 'NONE', ( #270 ), #247, .F. ) ;
#288 = CIRCLE ( 'NONE', #296, 0.2500000000000000555 ) ;
#289 = DIRECTION ( 'NONE',  ( -0.000000000000000000, -1.000000000000000000, -0.000000000000000000 ) ) ;
#290 = CARTESIAN_POINT ( 'NONE',  ( 0.2499999999999999722, 3.000000000000000444, 3.061616997868383634E-17 ) ) ;
#291 = DIRECTION ( 'NONE',  ( -1.000000000000000000, 0.000000000000000000, 0.000000000000000000 ) ) ;
#292 = ORIENTED_EDGE ( 'NONE', *, *, #80, .T. ) ;
#293 = LINE ( 'NONE', #76, #297 ) ;
#294 = ORIENTED_EDGE ( 'NONE', *, *, #161, .T. ) ;
#295 = SURFACE_STYLE_USAGE ( .BOTH. , #124 ) ;
#296 = AXIS2_PLACEMENT_3D ( 'NONE', #284, #260, #66 ) ;
#297 = VECTOR ( 'NONE', #178, 39.37007874015748143 ) ;
#298 = ORIENTED_EDGE ( 'NONE', *, *, #264, .T. ) ;
#299 = AXIS2_PLACEMENT_3D ( 'NONE', #143, #214, #148 ) ;
#300 = FACE_OUTER_BOUND ( 'NONE', #51, .T. ) ;
#301 = AXIS2_PLACEMENT_3D ( 'NONE', #243, #181, #8 ) ;
#302 =( GEOMETRIC_REPRESENTATION_CONTEXT ( 3 ) GLOBAL_UNCERTAINTY_ASSIGNED_CONTEXT ( ( #137 ) ) GLOBAL_UNIT_ASSIGNED_CONTEXT ( ( #56, #241, #131 ) ) REPRESENTATION_CONTEXT ( 'NONE', 'WORKASPACE' ) );
#303 = SURFACE_STYLE_USAGE ( .BOTH. , #113 ) ;
#304 = DIRECTION ( 'NONE',  ( -3.061616997868386099E-17, 1.000000000000000000, -0.000000000000000000 ) ) ;
#305 = PRODUCT_DEFINITION_CONTEXT ( 'detailed design', #91, 'design' ) ;
#306 = PRODUCT ( '82271', '82271', '', ( #282 ) ) ;
#307 = DIRECTION ( 'NONE',  ( -1.000000000000000000, 0.000000000000000000, 0.000000000000000000 ) ) ;
#308 = MECHANICAL_DESIGN_GEOMETRIC_PRESENTATION_REPRESENTATION (  '', ( #168 ), #206 ) ;
#309 = PRESENTATION_LAYER_ASSIGNMENT (  '', '', ( #164 ) ) ;
ENDSEC;
END-ISO-10303-21;
