ISO-10303-21;
HEADER;
FILE_DESCRIPTION (( 'STEP AP214' ),
    '1' );
FILE_NAME ('Micro_AMRM-030-2X.STEP',
    '2021-09-01T17:19:26',
    ( '' ),
    ( '' ),
    'SwSTEP 2.0',
    'SolidWorks 2020',
    '' );
FILE_SCHEMA (( 'AUTOMOTIVE_DESIGN' ));
ENDSEC;

DATA;
#1 = PRESENTATION_LAYER_ASSIGNMENT (  '', '', ( #37 ) ) ;
#2 = EDGE_CURVE ( 'NONE', #177, #9, #57, .T. ) ;
#3 = VECTOR ( 'NONE', #155, 39.37007874015748143 ) ;
#4 = AXIS2_PLACEMENT_3D ( 'NONE', #293, #190, #66 ) ;
#5 =( NAMED_UNIT ( * ) PLANE_ANGLE_UNIT ( ) SI_UNIT ( $, .RADIAN. ) );
#6 = ORIENTED_EDGE ( 'NONE', *, *, #179, .F. ) ;
#7 = ORIENTED_EDGE ( 'NONE', *, *, #233, .F. ) ;
#8 = LINE ( 'NONE', #281, #242 ) ;
#9 = VERTEX_POINT ( 'NONE', #181 ) ;
#10 = ORIENTED_EDGE ( 'NONE', *, *, #197, .F. ) ;
#11 = ADVANCED_FACE ( 'NONE', ( #101 ), #264, .F. ) ;
#12 = FACE_OUTER_BOUND ( 'NONE', #261, .T. ) ;
#13 = VERTEX_POINT ( 'NONE', #259 ) ;
#14 = CARTESIAN_POINT ( 'NONE',  ( 0.0000000000000000000, 0.0000000000000000000, 1.953504000000000129 ) ) ;
#15 = CARTESIAN_POINT ( 'NONE',  ( 8.847974565113090185E-34, 0.0000000000000000000, 7.224919520692329689E-18 ) ) ;
#16 = ORIENTED_EDGE ( 'NONE', *, *, #2, .T. ) ;
#17 = DIRECTION ( 'NONE',  ( -1.224646799147353207E-16, -0.0000000000000000000, -1.000000000000000000 ) ) ;
#18 = DIRECTION ( 'NONE',  ( -1.224646799147353207E-16, -0.0000000000000000000, -1.000000000000000000 ) ) ;
#19 = ADVANCED_BREP_SHAPE_REPRESENTATION ( 'Micro_AMRM-030-2X', ( #209, #31 ), #235 ) ;
#20 = LINE ( 'NONE', #59, #91 ) ;
#21 = DIRECTION ( 'NONE',  ( 1.000000000000000000, 0.0000000000000000000, 0.0000000000000000000 ) ) ;
#22 = EDGE_CURVE ( 'NONE', #9, #236, #195, .T. ) ;
#23 = CARTESIAN_POINT ( 'NONE',  ( 0.05899594500000004266, 0.0000000000000000000, 0.3543310000000000071 ) ) ;
#24 = DIRECTION ( 'NONE',  ( -0.0000000000000000000, -0.0000000000000000000, -1.000000000000000000 ) ) ;
#25 = DIRECTION ( 'NONE',  ( -1.224646799147353207E-16, -0.0000000000000000000, -1.000000000000000000 ) ) ;
#26 = STYLED_ITEM ( 'NONE', ( #42 ), #19 ) ;
#27 =( NAMED_UNIT ( * ) SI_UNIT ( $, .STERADIAN. ) SOLID_ANGLE_UNIT ( ) );
#28 = EDGE_CURVE ( 'NONE', #199, #238, #75, .T. ) ;
#29 = EDGE_CURVE ( 'NONE', #238, #244, #291, .T. ) ;
#30 = CIRCLE ( 'NONE', #220, 0.07874000000000001831 ) ;
#31 = AXIS2_PLACEMENT_3D ( 'NONE', #55, #232, #168 ) ;
#32 = AXIS2_PLACEMENT_3D ( 'NONE', #184, #25, #227 ) ;
#33 = EDGE_LOOP ( 'NONE', ( #153, #284, #47, #287 ) ) ;
#34 = ORIENTED_EDGE ( 'NONE', *, *, #29, .T. ) ;
#35 = CYLINDRICAL_SURFACE ( 'NONE', #182, 0.05899594499999999409 ) ;
#36 = CONICAL_SURFACE ( 'NONE', #282, 0.06374000000000018540, 0.7853981633974528309 ) ;
#37 = STYLED_ITEM ( 'NONE', ( #216 ), #209 ) ;
#38 = ORIENTED_EDGE ( 'NONE', *, *, #131, .F. ) ;
#39 = DIRECTION ( 'NONE',  ( -1.000000000000000000, 0.0000000000000000000, 1.224646799147353454E-16 ) ) ;
#40 = EDGE_LOOP ( 'NONE', ( #149, #125, #63, #176 ) ) ;
#41 = DIRECTION ( 'NONE',  ( -1.224646799147353207E-16, -0.0000000000000000000, -1.000000000000000000 ) ) ;
#42 = PRESENTATION_STYLE_ASSIGNMENT (( #83 ) ) ;
#43 = LINE ( 'NONE', #202, #3 ) ;
#44 = CARTESIAN_POINT ( 'NONE',  ( 5.710590483456412429E-17, 0.0000000000000000000, 0.4663051001670316942 ) ) ;
#45 = COLOUR_RGB ( '',0.7921568627450980005, 0.8196078431372548767, 0.9333333333333333481 ) ;
#46 = DIRECTION ( 'NONE',  ( 0.0000000000000000000, 0.0000000000000000000, -1.000000000000000000 ) ) ;
#47 = ORIENTED_EDGE ( 'NONE', *, *, #197, .T. ) ;
#48 = DIRECTION ( 'NONE',  ( 1.000000000000000000, 0.0000000000000000000, 0.0000000000000000000 ) ) ;
#49 = ADVANCED_FACE ( 'NONE', ( #270 ), #36, .T. ) ;
#50 = VECTOR ( 'NONE', #290, 39.37007874015748143 ) ;
#51 = AXIS2_PLACEMENT_3D ( 'NONE', #175, #271, #132 ) ;
#52 = PRODUCT_RELATED_PRODUCT_CATEGORY ( 'part', '', ( #120 ) ) ;
#53 = PRODUCT_DEFINITION_CONTEXT ( 'detailed design', #214, 'design' ) ;
#54 = PRODUCT_CONTEXT ( 'NONE', #208, 'mechanical' ) ;
#55 = CARTESIAN_POINT ( 'NONE',  ( 0.0000000000000000000, 0.0000000000000000000, 0.0000000000000000000 ) ) ;
#56 = EDGE_LOOP ( 'NONE', ( #185, #207 ) ) ;
#57 = CIRCLE ( 'NONE', #273, 0.07874000000000001831 ) ;
#58 = CIRCLE ( 'NONE', #276, 0.07874000000000001831 ) ;
#59 = CARTESIAN_POINT ( 'NONE',  ( 0.06374000000000018540, 7.805898697765251255E-18, 1.968503999999999809 ) ) ;
#60 = ORIENTED_EDGE ( 'NONE', *, *, #280, .T. ) ;
#61 = FACE_OUTER_BOUND ( 'NONE', #122, .T. ) ;
#62 = AXIS2_PLACEMENT_3D ( 'NONE', #178, #41, #251 ) ;
#63 = ORIENTED_EDGE ( 'NONE', *, *, #169, .F. ) ;
#64 = CARTESIAN_POINT ( 'NONE',  ( -0.07874000000000001831, 0.0000000000000000000, 1.968503999999999809 ) ) ;
#65 = LINE ( 'NONE', #79, #126 ) ;
#66 = DIRECTION ( 'NONE',  ( 1.000000000000000000, 0.0000000000000000000, 0.0000000000000000000 ) ) ;
#67 = DIRECTION ( 'NONE',  ( 1.000000000000000000, 0.0000000000000000000, 0.0000000000000000000 ) ) ;
#68 = CARTESIAN_POINT ( 'NONE',  ( 0.0000000000000000000, 0.0000000000000000000, 1.968503999999999809 ) ) ;
#69 = PLANE ( 'NONE',  #265 ) ;
#70 =( CONVERSION_BASED_UNIT ( 'INCH', #110 ) LENGTH_UNIT ( ) NAMED_UNIT ( #257 ) );
#71 = SURFACE_STYLE_FILL_AREA ( #186 ) ;
#72 = EDGE_CURVE ( 'NONE', #13, #236, #30, .T. ) ;
#73 = DIRECTION ( 'NONE',  ( -0.0000000000000000000, -0.0000000000000000000, -1.000000000000000000 ) ) ;
#74 = SURFACE_STYLE_FILL_AREA ( #274 ) ;
#75 = CIRCLE ( 'NONE', #170, 0.05899594499999999409 ) ;
#76 = APPLICATION_PROTOCOL_DEFINITION ( 'draft international standard', 'automotive_design', 1998, #214 ) ;
#77 = CIRCLE ( 'NONE', #163, 0.07874000000000001831 ) ;
#78 = MECHANICAL_DESIGN_GEOMETRIC_PRESENTATION_REPRESENTATION (  '', ( #26 ), #283 ) ;
#79 = CARTESIAN_POINT ( 'NONE',  ( -0.05899594499999995245, 7.224919520692329689E-18, 0.3543310000000000071 ) ) ;
#80 = DIMENSIONAL_EXPONENTS ( 1.000000000000000000, 0.0000000000000000000, 0.0000000000000000000, 0.0000000000000000000, 0.0000000000000000000, 0.0000000000000000000, 0.0000000000000000000 ) ;
#81 = CARTESIAN_POINT ( 'NONE',  ( 4.339303249886808058E-17, 0.0000000000000000000, 0.3543310000000000071 ) ) ;
#82 = AXIS2_PLACEMENT_3D ( 'NONE', #107, #87, #189 ) ;
#83 = SURFACE_STYLE_USAGE ( .BOTH. , #255 ) ;
#84 = DIRECTION ( 'NONE',  ( 0.0000000000000000000, 0.0000000000000000000, 1.000000000000000000 ) ) ;
#85 = CARTESIAN_POINT ( 'NONE',  ( -0.06374000000000018540, 0.0000000000000000000, 1.968503999999999809 ) ) ;
#86 = EDGE_LOOP ( 'NONE', ( #38, #294, #34, #124 ) ) ;
#87 = DIRECTION ( 'NONE',  ( 0.0000000000000000000, 0.0000000000000000000, 1.000000000000000000 ) ) ;
#88 =( LENGTH_UNIT ( ) NAMED_UNIT ( * ) SI_UNIT ( $, .METRE. ) );
#89 = EDGE_CURVE ( 'NONE', #258, #177, #20, .T. ) ;
#90 =( NAMED_UNIT ( * ) PLANE_ANGLE_UNIT ( ) SI_UNIT ( $, .RADIAN. ) );
#91 = VECTOR ( 'NONE', #266, 39.37007874015748143 ) ;
#92 = SURFACE_SIDE_STYLE ('',( #71 ) ) ;
#93 = UNCERTAINTY_MEASURE_WITH_UNIT (LENGTH_MEASURE( 1.000000000000000082E-05 ), #278, 'distance_accuracy_value', 'NONE');
#94 = VERTEX_POINT ( 'NONE', #85 ) ;
#95 = EDGE_CURVE ( 'NONE', #238, #236, #65, .T. ) ;
#96 = EDGE_CURVE ( 'NONE', #111, #244, #277, .T. ) ;
#97 = VECTOR ( 'NONE', #115, 39.37007874015748143 ) ;
#98 = EDGE_LOOP ( 'NONE', ( #260, #217, #7, #130 ) ) ;
#99 =( LENGTH_UNIT ( ) NAMED_UNIT ( * ) SI_UNIT ( $, .METRE. ) );
#100 = EDGE_LOOP ( 'NONE', ( #223, #180, #157, #10 ) ) ;
#101 = FACE_OUTER_BOUND ( 'NONE', #56, .T. ) ;
#102 = ADVANCED_FACE ( 'NONE', ( #248 ), #35, .T. ) ;
#103 = CLOSED_SHELL ( 'NONE', ( #198, #174, #188, #272, #147, #167, #49, #286, #102, #11 ) ) ;
#104 = CARTESIAN_POINT ( 'NONE',  ( 0.0000000000000000000, 0.0000000000000000000, 0.0000000000000000000 ) ) ;
#105 = ORIENTED_EDGE ( 'NONE', *, *, #89, .F. ) ;
#106 = DIRECTION ( 'NONE',  ( 0.0000000000000000000, 0.0000000000000000000, -1.000000000000000000 ) ) ;
#107 = CARTESIAN_POINT ( 'NONE',  ( 0.0000000000000000000, 0.0000000000000000000, 1.968503999999999809 ) ) ;
#108 = CARTESIAN_POINT ( 'NONE',  ( 0.0000000000000000000, 0.0000000000000000000, 0.0000000000000000000 ) ) ;
#109 = DIRECTION ( 'NONE',  ( -1.000000000000000000, 0.0000000000000000000, 1.224646799147353454E-16 ) ) ;
#110 = LENGTH_MEASURE_WITH_UNIT ( LENGTH_MEASURE( 0.02539999999999999897 ), #137 );
#111 = VERTEX_POINT ( 'NONE', #239 ) ;
#112 = DIRECTION ( 'NONE',  ( -1.224646799147353207E-16, -0.0000000000000000000, -1.000000000000000000 ) ) ;
#113 = FILL_AREA_STYLE_COLOUR ( '', #45 ) ;
#114 = EDGE_CURVE ( 'NONE', #94, #9, #43, .T. ) ;
#115 = DIRECTION ( 'NONE',  ( 0.1736481776669313581, 0.0000000000000000000, 0.9848077530122077983 ) ) ;
#116 = CARTESIAN_POINT ( 'NONE',  ( -0.05899594499999995245, 8.433894208589294869E-18, 0.3543310000000000071 ) ) ;
#117 = AXIS2_PLACEMENT_3D ( 'NONE', #203, #298, #48 ) ;
#118 =( CONVERSION_BASED_UNIT ( 'INCH', #252 ) LENGTH_UNIT ( ) NAMED_UNIT ( #80 ) );
#119 = PRESENTATION_LAYER_ASSIGNMENT (  '', '', ( #26 ) ) ;
#120 = PRODUCT ( 'Micro_AMRM-030-2X', 'Micro_AMRM-030-2X', '', ( #54 ) ) ;
#121 = CONICAL_SURFACE ( 'NONE', #171, 0.05899594499999999409, 0.1745329251994338637 ) ;
#122 = EDGE_LOOP ( 'NONE', ( #218, #240 ) ) ;
#123 = ORIENTED_EDGE ( 'NONE', *, *, #72, .F. ) ;
#124 = ORIENTED_EDGE ( 'NONE', *, *, #96, .F. ) ;
#125 = ORIENTED_EDGE ( 'NONE', *, *, #89, .T. ) ;
#126 = VECTOR ( 'NONE', #228, 39.37007874015747433 ) ;
#127 = CYLINDRICAL_SURFACE ( 'NONE', #51, 0.07874000000000001831 ) ;
#128 = CONICAL_SURFACE ( 'NONE', #4, 0.05899594499999999409, 0.1745329251994338637 ) ;
#129 = ORIENTED_EDGE ( 'NONE', *, *, #212, .F. ) ;
#130 = ORIENTED_EDGE ( 'NONE', *, *, #22, .F. ) ;
#131 = EDGE_CURVE ( 'NONE', #199, #111, #141, .T. ) ;
#132 = DIRECTION ( 'NONE',  ( -1.000000000000000000, 0.0000000000000000000, 0.0000000000000000000 ) ) ;
#133 = ORIENTED_EDGE ( 'NONE', *, *, #114, .T. ) ;
#134 = DIRECTION ( 'NONE',  ( -0.0000000000000000000, -0.0000000000000000000, -1.000000000000000000 ) ) ;
#135 = EDGE_CURVE ( 'NONE', #94, #258, #215, .T. ) ;
#136 = CARTESIAN_POINT ( 'NONE',  ( 0.0000000000000000000, 0.0000000000000000000, 1.968503999999999809 ) ) ;
#137 =( LENGTH_UNIT ( ) NAMED_UNIT ( * ) SI_UNIT ( $, .METRE. ) );
#138 = CARTESIAN_POINT ( 'NONE',  ( -0.05899594499999999409, 0.0000000000000000000, 7.224919520692329689E-18 ) ) ;
#139 = FACE_OUTER_BOUND ( 'NONE', #193, .T. ) ;
#140 = MECHANICAL_DESIGN_GEOMETRIC_PRESENTATION_REPRESENTATION (  '', ( #37 ), #256 ) ;
#141 = LINE ( 'NONE', #160, #50 ) ;
#142 = DIRECTION ( 'NONE',  ( -1.224646799147353207E-16, -0.0000000000000000000, -1.000000000000000000 ) ) ;
#143 = CARTESIAN_POINT ( 'NONE',  ( 0.0000000000000000000, 0.0000000000000000000, 1.968503999999999809 ) ) ;
#144 = AXIS2_PLACEMENT_3D ( 'NONE', #108, #84, #225 ) ;
#145 = CARTESIAN_POINT ( 'NONE',  ( 5.710590483456412429E-17, 0.0000000000000000000, 0.4663051001670316942 ) ) ;
#146 = CIRCLE ( 'NONE', #32, 0.05899594499999999409 ) ;
#147 = ADVANCED_FACE ( 'NONE', ( #139 ), #127, .T. ) ;
#148 = COLOUR_RGB ( '',0.7921568627450980005, 0.8196078431372548767, 0.9333333333333333481 ) ;
#149 = ORIENTED_EDGE ( 'NONE', *, *, #267, .F. ) ;
#150 = PRODUCT_DEFINITION_FORMATION_WITH_SPECIFIED_SOURCE ( 'ANY', '', #120, .NOT_KNOWN. ) ;
#151 = EDGE_LOOP ( 'NONE', ( #105, #194, #133, #158 ) ) ;
#152 = CARTESIAN_POINT ( 'NONE',  ( 0.07874000000000001831, 9.642868896486260050E-18, 1.953504000000000129 ) ) ;
#153 = ORIENTED_EDGE ( 'NONE', *, *, #95, .F. ) ;
#154 = AXIS2_PLACEMENT_3D ( 'NONE', #15, #204, #295 ) ;
#155 = DIRECTION ( 'NONE',  ( -0.7071067811865507924, 0.0000000000000000000, -0.7071067811865443531 ) ) ;
#156 =( NAMED_UNIT ( * ) SI_UNIT ( $, .STERADIAN. ) SOLID_ANGLE_UNIT ( ) );
#157 = ORIENTED_EDGE ( 'NONE', *, *, #233, .T. ) ;
#158 = ORIENTED_EDGE ( 'NONE', *, *, #2, .F. ) ;
#159 = DIRECTION ( 'NONE',  ( 1.224646799147353207E-16, 0.0000000000000000000, 1.000000000000000000 ) ) ;
#160 = CARTESIAN_POINT ( 'NONE',  ( 0.05899594499999999409, 7.224919520692329689E-18, -7.224919520692329689E-18 ) ) ;
#161 = DIRECTION ( 'NONE',  ( -1.000000000000000000, 0.0000000000000000000, 0.0000000000000000000 ) ) ;
#162 = DIRECTION ( 'NONE',  ( 1.000000000000000000, 0.0000000000000000000, 0.0000000000000000000 ) ) ;
#163 = AXIS2_PLACEMENT_3D ( 'NONE', #262, #224, #162 ) ;
#164 = APPLICATION_PROTOCOL_DEFINITION ( 'draft international standard', 'automotive_design', 1998, #208 ) ;
#165 = CARTESIAN_POINT ( 'NONE',  ( -0.05899594499999999409, 0.0000000000000000000, 1.444983904138465938E-17 ) ) ;
#166 = UNCERTAINTY_MEASURE_WITH_UNIT (LENGTH_MEASURE( 1.000000000000000082E-05 ), #118, 'distance_accuracy_value', 'NONE');
#167 = ADVANCED_FACE ( 'NONE', ( #61 ), #69, .T. ) ;
#168 = DIRECTION ( 'NONE',  ( 1.000000000000000000, 0.0000000000000000000, 0.0000000000000000000 ) ) ;
#169 = EDGE_CURVE ( 'NONE', #9, #177, #77, .T. ) ;
#170 = AXIS2_PLACEMENT_3D ( 'NONE', #245, #17, #201 ) ;
#171 = AXIS2_PLACEMENT_3D ( 'NONE', #81, #159, #247 ) ;
#172 = LENGTH_MEASURE_WITH_UNIT ( LENGTH_MEASURE( 0.02539999999999999897 ), #99 );
#173 = VECTOR ( 'NONE', #134, 39.37007874015748143 ) ;
#174 = ADVANCED_FACE ( 'NONE', ( #206 ), #121, .T. ) ;
#175 = CARTESIAN_POINT ( 'NONE',  ( 0.0000000000000000000, 0.0000000000000000000, 1.968503999999999809 ) ) ;
#176 = ORIENTED_EDGE ( 'NONE', *, *, #114, .F. ) ;
#177 = VERTEX_POINT ( 'NONE', #152 ) ;
#178 = CARTESIAN_POINT ( 'NONE',  ( 8.847974565113090185E-34, 0.0000000000000000000, 7.224919520692329689E-18 ) ) ;
#179 = EDGE_CURVE ( 'NONE', #244, #111, #192, .T. ) ;
#180 = ORIENTED_EDGE ( 'NONE', *, *, #95, .T. ) ;
#181 = CARTESIAN_POINT ( 'NONE',  ( -0.07874000000000001831, 0.0000000000000000000, 1.953504000000000129 ) ) ;
#182 = AXIS2_PLACEMENT_3D ( 'NONE', #297, #112, #39 ) ;
#183 = DIRECTION ( 'NONE',  ( 1.000000000000000000, 0.0000000000000000000, -0.0000000000000000000 ) ) ;
#184 = CARTESIAN_POINT ( 'NONE',  ( 4.339303249886808058E-17, 0.0000000000000000000, 0.3543310000000000071 ) ) ;
#185 = ORIENTED_EDGE ( 'NONE', *, *, #179, .T. ) ;
#186 = FILL_AREA_STYLE ('',( #292 ) ) ;
#187 = DIRECTION ( 'NONE',  ( -1.224646799147353207E-16, -0.0000000000000000000, -1.000000000000000000 ) ) ;
#188 = ADVANCED_FACE ( 'NONE', ( #268 ), #196, .T. ) ;
#189 = DIRECTION ( 'NONE',  ( 1.000000000000000000, 0.0000000000000000000, 0.0000000000000000000 ) ) ;
#190 = DIRECTION ( 'NONE',  ( 1.224646799147353207E-16, 0.0000000000000000000, 1.000000000000000000 ) ) ;
#191 = SHAPE_DEFINITION_REPRESENTATION ( #246, #19 ) ;
#192 = CIRCLE ( 'NONE', #62, 0.05899594499999999409 ) ;
#193 = EDGE_LOOP ( 'NONE', ( #129, #16, #219, #123 ) ) ;
#194 = ORIENTED_EDGE ( 'NONE', *, *, #135, .F. ) ;
#195 = LINE ( 'NONE', #64, #173 ) ;
#196 = CONICAL_SURFACE ( 'NONE', #210, 0.06374000000000018540, 0.7853981633974528309 ) ;
#197 = EDGE_CURVE ( 'NONE', #199, #13, #222, .T. ) ;
#198 = ADVANCED_FACE ( 'NONE', ( #12 ), #226, .T. ) ;
#199 = VERTEX_POINT ( 'NONE', #263 ) ;
#200 = DIRECTION ( 'NONE',  ( -1.224646799147353207E-16, -0.0000000000000000000, -1.000000000000000000 ) ) ;
#201 = DIRECTION ( 'NONE',  ( -1.000000000000000000, 0.0000000000000000000, 0.0000000000000000000 ) ) ;
#202 = CARTESIAN_POINT ( 'NONE',  ( -0.06374000000000018540, 0.0000000000000000000, 1.968503999999999809 ) ) ;
#203 = CARTESIAN_POINT ( 'NONE',  ( 0.0000000000000000000, 0.0000000000000000000, 1.968503999999999809 ) ) ;
#204 = DIRECTION ( 'NONE',  ( -1.224646799147353207E-16, -0.0000000000000000000, -1.000000000000000000 ) ) ;
#205 = FACE_OUTER_BOUND ( 'NONE', #98, .T. ) ;
#206 = FACE_OUTER_BOUND ( 'NONE', #100, .T. ) ;
#207 = ORIENTED_EDGE ( 'NONE', *, *, #96, .T. ) ;
#208 = APPLICATION_CONTEXT ( 'automotive_design' ) ;
#209 = MANIFOLD_SOLID_BREP ( 'Cut-Revolve1', #103 ) ;
#210 = AXIS2_PLACEMENT_3D ( 'NONE', #136, #46, #229 ) ;
#211 = CYLINDRICAL_SURFACE ( 'NONE', #213, 0.07874000000000001831 ) ;
#212 = EDGE_CURVE ( 'NONE', #177, #13, #8, .T. ) ;
#213 = AXIS2_PLACEMENT_3D ( 'NONE', #143, #73, #299 ) ;
#214 = APPLICATION_CONTEXT ( 'automotive_design' ) ;
#215 = CIRCLE ( 'NONE', #82, 0.06374000000000018540 ) ;
#216 = PRESENTATION_STYLE_ASSIGNMENT (( #254 ) ) ;
#217 = ORIENTED_EDGE ( 'NONE', *, *, #212, .T. ) ;
#218 = ORIENTED_EDGE ( 'NONE', *, *, #135, .T. ) ;
#219 = ORIENTED_EDGE ( 'NONE', *, *, #22, .T. ) ;
#220 = AXIS2_PLACEMENT_3D ( 'NONE', #44, #200, #67 ) ;
#221 = AXIS2_PLACEMENT_3D ( 'NONE', #104, #18, #109 ) ;
#222 = LINE ( 'NONE', #23, #97 ) ;
#223 = ORIENTED_EDGE ( 'NONE', *, *, #280, .F. ) ;
#224 = DIRECTION ( 'NONE',  ( 0.0000000000000000000, 0.0000000000000000000, -1.000000000000000000 ) ) ;
#225 = DIRECTION ( 'NONE',  ( 1.000000000000000000, 0.0000000000000000000, -0.0000000000000000000 ) ) ;
#226 = CYLINDRICAL_SURFACE ( 'NONE', #221, 0.05899594499999999409 ) ;
#227 = DIRECTION ( 'NONE',  ( -1.000000000000000000, 0.0000000000000000000, 0.0000000000000000000 ) ) ;
#228 = DIRECTION ( 'NONE',  ( -0.1736481776669311639, 2.126576849575783008E-17, 0.9848077530122080203 ) ) ;
#229 = DIRECTION ( 'NONE',  ( -1.000000000000000000, 0.0000000000000000000, 0.0000000000000000000 ) ) ;
#230 = CARTESIAN_POINT ( 'NONE',  ( -0.07873999999999996280, 0.0000000000000000000, 0.4663051001670316942 ) ) ;
#231 = CIRCLE ( 'NONE', #117, 0.06374000000000018540 ) ;
#232 = DIRECTION ( 'NONE',  ( 0.0000000000000000000, 0.0000000000000000000, 1.000000000000000000 ) ) ;
#233 = EDGE_CURVE ( 'NONE', #236, #13, #58, .T. ) ;
#234 = PRODUCT_DEFINITION ( 'UNKNOWN', '', #150, #53 ) ;
#235 =( GEOMETRIC_REPRESENTATION_CONTEXT ( 3 ) GLOBAL_UNCERTAINTY_ASSIGNED_CONTEXT ( ( #166 ) ) GLOBAL_UNIT_ASSIGNED_CONTEXT ( ( #118, #90, #27 ) ) REPRESENTATION_CONTEXT ( 'NONE', 'WORKASPACE' ) );
#236 = VERTEX_POINT ( 'NONE', #230 ) ;
#237 = ORIENTED_EDGE ( 'NONE', *, *, #29, .F. ) ;
#238 = VERTEX_POINT ( 'NONE', #116 ) ;
#239 = CARTESIAN_POINT ( 'NONE',  ( 0.05899594499999999409, 7.224919520692329689E-18, 0.0000000000000000000 ) ) ;
#240 = ORIENTED_EDGE ( 'NONE', *, *, #267, .T. ) ;
#241 = VECTOR ( 'NONE', #187, 39.37007874015748143 ) ;
#242 = VECTOR ( 'NONE', #24, 39.37007874015748143 ) ;
#243 = DIRECTION ( 'NONE',  ( 0.0000000000000000000, 0.0000000000000000000, 1.000000000000000000 ) ) ;
#244 = VERTEX_POINT ( 'NONE', #165 ) ;
#245 = CARTESIAN_POINT ( 'NONE',  ( 4.339303249886808058E-17, 0.0000000000000000000, 0.3543310000000000071 ) ) ;
#246 = PRODUCT_DEFINITION_SHAPE ( 'NONE', 'NONE',  #234 ) ;
#247 = DIRECTION ( 'NONE',  ( 1.000000000000000000, 0.0000000000000000000, 0.0000000000000000000 ) ) ;
#248 = FACE_OUTER_BOUND ( 'NONE', #86, .T. ) ;
#249 =( NAMED_UNIT ( * ) PLANE_ANGLE_UNIT ( ) SI_UNIT ( $, .RADIAN. ) );
#250 = DIRECTION ( 'NONE',  ( 0.0000000000000000000, 0.0000000000000000000, -1.000000000000000000 ) ) ;
#251 = DIRECTION ( 'NONE',  ( -1.000000000000000000, 0.0000000000000000000, 1.224646799147353454E-16 ) ) ;
#252 = LENGTH_MEASURE_WITH_UNIT ( LENGTH_MEASURE( 0.02539999999999999897 ), #88 );
#253 = CARTESIAN_POINT ( 'NONE',  ( 0.06374000000000018540, 8.724383797125754882E-18, 1.968503999999999809 ) ) ;
#254 = SURFACE_STYLE_USAGE ( .BOTH. , #92 ) ;
#255 = SURFACE_SIDE_STYLE ('',( #74 ) ) ;
#256 =( GEOMETRIC_REPRESENTATION_CONTEXT ( 3 ) GLOBAL_UNCERTAINTY_ASSIGNED_CONTEXT ( ( #93 ) ) GLOBAL_UNIT_ASSIGNED_CONTEXT ( ( #278, #5, #156 ) ) REPRESENTATION_CONTEXT ( 'NONE', 'WORKASPACE' ) );
#257 = DIMENSIONAL_EXPONENTS ( 1.000000000000000000, 0.0000000000000000000, 0.0000000000000000000, 0.0000000000000000000, 0.0000000000000000000, 0.0000000000000000000, 0.0000000000000000000 ) ;
#258 = VERTEX_POINT ( 'NONE', #253 ) ;
#259 = CARTESIAN_POINT ( 'NONE',  ( 0.07874000000000007382, 9.642868896486266213E-18, 0.4663051001670316942 ) ) ;
#260 = ORIENTED_EDGE ( 'NONE', *, *, #169, .T. ) ;
#261 = EDGE_LOOP ( 'NONE', ( #60, #279, #6, #237 ) ) ;
#262 = CARTESIAN_POINT ( 'NONE',  ( 0.0000000000000000000, 0.0000000000000000000, 1.953504000000000129 ) ) ;
#263 = CARTESIAN_POINT ( 'NONE',  ( 0.05899594500000004266, 0.0000000000000000000, 0.3543310000000000071 ) ) ;
#264 = PLANE ( 'NONE',  #144 ) ;
#265 = AXIS2_PLACEMENT_3D ( 'NONE', #285, #243, #183 ) ;
#266 = DIRECTION ( 'NONE',  ( 0.7071067811865507924, 8.659560562354973534E-17, -0.7071067811865443531 ) ) ;
#267 = EDGE_CURVE ( 'NONE', #258, #94, #231, .T. ) ;
#268 = FACE_OUTER_BOUND ( 'NONE', #40, .T. ) ;
#269 = FACE_OUTER_BOUND ( 'NONE', #33, .T. ) ;
#270 = FACE_OUTER_BOUND ( 'NONE', #151, .T. ) ;
#271 = DIRECTION ( 'NONE',  ( -0.0000000000000000000, -0.0000000000000000000, -1.000000000000000000 ) ) ;
#272 = ADVANCED_FACE ( 'NONE', ( #205 ), #211, .T. ) ;
#273 = AXIS2_PLACEMENT_3D ( 'NONE', #14, #106, #288 ) ;
#274 = FILL_AREA_STYLE ('',( #113 ) ) ;
#275 = UNCERTAINTY_MEASURE_WITH_UNIT (LENGTH_MEASURE( 1.000000000000000082E-05 ), #70, 'distance_accuracy_value', 'NONE');
#276 = AXIS2_PLACEMENT_3D ( 'NONE', #145, #142, #21 ) ;
#277 = CIRCLE ( 'NONE', #154, 0.05899594499999999409 ) ;
#278 =( CONVERSION_BASED_UNIT ( 'INCH', #172 ) LENGTH_UNIT ( ) NAMED_UNIT ( #289 ) );
#279 = ORIENTED_EDGE ( 'NONE', *, *, #131, .T. ) ;
#280 = EDGE_CURVE ( 'NONE', #238, #199, #146, .T. ) ;
#281 = CARTESIAN_POINT ( 'NONE',  ( 0.07874000000000001831, 9.642868896486260050E-18, 1.968503999999999809 ) ) ;
#282 = AXIS2_PLACEMENT_3D ( 'NONE', #68, #250, #161 ) ;
#283 =( GEOMETRIC_REPRESENTATION_CONTEXT ( 3 ) GLOBAL_UNCERTAINTY_ASSIGNED_CONTEXT ( ( #275 ) ) GLOBAL_UNIT_ASSIGNED_CONTEXT ( ( #70, #249, #296 ) ) REPRESENTATION_CONTEXT ( 'NONE', 'WORKASPACE' ) );
#284 = ORIENTED_EDGE ( 'NONE', *, *, #28, .F. ) ;
#285 = CARTESIAN_POINT ( 'NONE',  ( 0.0000000000000000000, 0.0000000000000000000, 1.968503999999999809 ) ) ;
#286 = ADVANCED_FACE ( 'NONE', ( #269 ), #128, .T. ) ;
#287 = ORIENTED_EDGE ( 'NONE', *, *, #72, .T. ) ;
#288 = DIRECTION ( 'NONE',  ( 1.000000000000000000, 0.0000000000000000000, 0.0000000000000000000 ) ) ;
#289 = DIMENSIONAL_EXPONENTS ( 1.000000000000000000, 0.0000000000000000000, 0.0000000000000000000, 0.0000000000000000000, 0.0000000000000000000, 0.0000000000000000000, 0.0000000000000000000 ) ;
#290 = DIRECTION ( 'NONE',  ( -1.224646799147353207E-16, -0.0000000000000000000, -1.000000000000000000 ) ) ;
#291 = LINE ( 'NONE', #138, #241 ) ;
#292 = FILL_AREA_STYLE_COLOUR ( '', #148 ) ;
#293 = CARTESIAN_POINT ( 'NONE',  ( 4.339303249886808058E-17, 0.0000000000000000000, 0.3543310000000000071 ) ) ;
#294 = ORIENTED_EDGE ( 'NONE', *, *, #28, .T. ) ;
#295 = DIRECTION ( 'NONE',  ( -1.000000000000000000, 0.0000000000000000000, 1.224646799147353454E-16 ) ) ;
#296 =( NAMED_UNIT ( * ) SI_UNIT ( $, .STERADIAN. ) SOLID_ANGLE_UNIT ( ) );
#297 = CARTESIAN_POINT ( 'NONE',  ( 0.0000000000000000000, 0.0000000000000000000, 0.0000000000000000000 ) ) ;
#298 = DIRECTION ( 'NONE',  ( 0.0000000000000000000, 0.0000000000000000000, 1.000000000000000000 ) ) ;
#299 = DIRECTION ( 'NONE',  ( -1.000000000000000000, 0.0000000000000000000, 0.0000000000000000000 ) ) ;
ENDSEC;
END-ISO-10303-21;
