ISO-10303-21;
HEADER;
FILE_DESCRIPTION (( 'STEP AP214' ),
    '1' );
FILE_NAME ('Micro_RMEM-025-2X.STEP',
    '2021-09-02T00:25:52',
    ( '' ),
    ( '' ),
    'SwSTEP 2.0',
    'SolidWorks 2020',
    '' );
FILE_SCHEMA (( 'AUTOMOTIVE_DESIGN' ));
ENDSEC;

DATA;
#1 = EDGE_CURVE ( 'NONE', #95, #26, #253, .T. ) ;
#2 = ORIENTED_EDGE ( 'NONE', *, *, #212, .F. ) ;
#3 = DIRECTION ( 'NONE',  ( -1.224646799147353207E-16, -0.0000000000000000000, -1.000000000000000000 ) ) ;
#4 = AXIS2_PLACEMENT_3D ( 'NONE', #251, #229, #176 ) ;
#5 = CARTESIAN_POINT ( 'NONE',  ( -0.04916328749999996500, 6.626458969804151876E-18, 0.3149609999999999910 ) ) ;
#6 = EDGE_LOOP ( 'NONE', ( #261, #161 ) ) ;
#7 = DIRECTION ( 'NONE',  ( -1.224646799147353207E-16, -0.0000000000000000000, -1.000000000000000000 ) ) ;
#8 = DIRECTION ( 'NONE',  ( -1.224646799147353207E-16, -0.0000000000000000000, -1.000000000000000000 ) ) ;
#9 = DIRECTION ( 'NONE',  ( -0.0000000000000000000, -0.0000000000000000000, -1.000000000000000000 ) ) ;
#10 = CARTESIAN_POINT ( 'NONE',  ( 0.04916328750000004827, 0.0000000000000000000, 0.3149609999999999910 ) ) ;
#11 = SURFACE_SIDE_STYLE ('',( #255 ) ) ;
#12 = EDGE_LOOP ( 'NONE', ( #111, #75 ) ) ;
#13 = ORIENTED_EDGE ( 'NONE', *, *, #43, .T. ) ;
#14 = FACE_OUTER_BOUND ( 'NONE', #38, .T. ) ;
#15 = APPLICATION_PROTOCOL_DEFINITION ( 'draft international standard', 'automotive_design', 1998, #246 ) ;
#16 = CARTESIAN_POINT ( 'NONE',  ( -0.05905500000000000332, 0.0000000000000000000, 1.496062999999999921 ) ) ;
#17 = ADVANCED_FACE ( 'NONE', ( #109 ), #136, .T. ) ;
#18 =( NAMED_UNIT ( * ) PLANE_ANGLE_UNIT ( ) SI_UNIT ( $, .RADIAN. ) );
#19 = VECTOR ( 'NONE', #127, 39.37007874015748143 ) ;
#20 = MECHANICAL_DESIGN_GEOMETRIC_PRESENTATION_REPRESENTATION (  '', ( #46 ), #280 ) ;
#21 = ORIENTED_EDGE ( 'NONE', *, *, #189, .T. ) ;
#22 = EDGE_LOOP ( 'NONE', ( #236, #120, #179, #130 ) ) ;
#23 = DIRECTION ( 'NONE',  ( 0.7071067811865482389, 8.659560562354941486E-17, -0.7071067811865469066 ) ) ;
#24 = EDGE_CURVE ( 'NONE', #26, #190, #143, .T. ) ;
#25 = CARTESIAN_POINT ( 'NONE',  ( 3.857159805062494824E-17, 0.0000000000000000000, 0.3149609999999999910 ) ) ;
#26 = VERTEX_POINT ( 'NONE', #273 ) ;
#27 = CYLINDRICAL_SURFACE ( 'NONE', #166, 0.04916328750000000664 ) ;
#28 = CLOSED_SHELL ( 'NONE', ( #243, #31, #285, #196, #299, #17, #209, #80, #83, #106 ) ) ;
#29 = AXIS2_PLACEMENT_3D ( 'NONE', #128, #9, #104 ) ;
#30 = ORIENTED_EDGE ( 'NONE', *, *, #249, .F. ) ;
#31 = ADVANCED_FACE ( 'NONE', ( #62 ), #138, .T. ) ;
#32 = DIRECTION ( 'NONE',  ( -1.224646799147353207E-16, -0.0000000000000000000, -1.000000000000000000 ) ) ;
#33 =( LENGTH_UNIT ( ) NAMED_UNIT ( * ) SI_UNIT ( $, .METRE. ) );
#34 = ORIENTED_EDGE ( 'NONE', *, *, #1, .T. ) ;
#35 = DIRECTION ( 'NONE',  ( -0.0000000000000000000, -0.0000000000000000000, -1.000000000000000000 ) ) ;
#36 = AXIS2_PLACEMENT_3D ( 'NONE', #266, #269, #84 ) ;
#37 = VERTEX_POINT ( 'NONE', #10 ) ;
#38 = EDGE_LOOP ( 'NONE', ( #133, #30, #13, #159 ) ) ;
#39 =( NAMED_UNIT ( * ) PLANE_ANGLE_UNIT ( ) SI_UNIT ( $, .RADIAN. ) );
#40 = CIRCLE ( 'NONE', #279, 0.05905500000000000332 ) ;
#41 = CARTESIAN_POINT ( 'NONE',  ( 7.373312137594241536E-34, 0.0000000000000000000, 6.020766267243607560E-18 ) ) ;
#42 = EDGE_LOOP ( 'NONE', ( #73, #233, #21, #224 ) ) ;
#43 = EDGE_CURVE ( 'NONE', #228, #49, #125, .T. ) ;
#44 = DIRECTION ( 'NONE',  ( -1.000000000000000000, 0.0000000000000000000, 1.224646799147353207E-16 ) ) ;
#45 = VERTEX_POINT ( 'NONE', #103 ) ;
#46 = STYLED_ITEM ( 'NONE', ( #270 ), #141 ) ;
#47 = DIRECTION ( 'NONE',  ( -1.000000000000000000, 0.0000000000000000000, 1.224646799147353207E-16 ) ) ;
#48 = EDGE_CURVE ( 'NONE', #37, #45, #198, .T. ) ;
#49 = VERTEX_POINT ( 'NONE', #177 ) ;
#50 = DIRECTION ( 'NONE',  ( 1.224646799147353207E-16, 0.0000000000000000000, 1.000000000000000000 ) ) ;
#51 = CARTESIAN_POINT ( 'NONE',  ( 3.857159805062494824E-17, 0.0000000000000000000, 0.3149609999999999910 ) ) ;
#52 = LINE ( 'NONE', #195, #139 ) ;
#53 = DIRECTION ( 'NONE',  ( -0.1736481776669311916, 2.126576849575783316E-17, 0.9848077530122080203 ) ) ;
#54 = FILL_AREA_STYLE ('',( #180 ) ) ;
#55 = DIRECTION ( 'NONE',  ( 0.0000000000000000000, 0.0000000000000000000, -1.000000000000000000 ) ) ;
#56 = EDGE_LOOP ( 'NONE', ( #98, #194, #82, #259 ) ) ;
#57 = CARTESIAN_POINT ( 'NONE',  ( 0.05905500000000004496, 7.232151672364700045E-18, 0.3710596892661349178 ) ) ;
#58 = SURFACE_STYLE_FILL_AREA ( #54 ) ;
#59 = FILL_AREA_STYLE ('',( #191 ) ) ;
#60 = EDGE_CURVE ( 'NONE', #85, #49, #275, .T. ) ;
#61 = AXIS2_PLACEMENT_3D ( 'NONE', #108, #35, #184 ) ;
#62 = FACE_OUTER_BOUND ( 'NONE', #77, .T. ) ;
#63 = CARTESIAN_POINT ( 'NONE',  ( 0.04405499999999973326, 6.313666573004162521E-18, 1.496062999999999921 ) ) ;
#64 = DIRECTION ( 'NONE',  ( -1.224646799147353207E-16, -0.0000000000000000000, -1.000000000000000000 ) ) ;
#65 = FACE_OUTER_BOUND ( 'NONE', #145, .T. ) ;
#66 = EDGE_CURVE ( 'NONE', #95, #182, #117, .T. ) ;
#67 = DIMENSIONAL_EXPONENTS ( 1.000000000000000000, 0.0000000000000000000, 0.0000000000000000000, 0.0000000000000000000, 0.0000000000000000000, 0.0000000000000000000, 0.0000000000000000000 ) ;
#68 = PRODUCT_RELATED_PRODUCT_CATEGORY ( 'part', '', ( #171 ) ) ;
#69 = CIRCLE ( 'NONE', #147, 0.04916328749999999276 ) ;
#70 = EDGE_CURVE ( 'NONE', #45, #182, #69, .T. ) ;
#71 = ORIENTED_EDGE ( 'NONE', *, *, #24, .T. ) ;
#72 = FACE_OUTER_BOUND ( 'NONE', #238, .T. ) ;
#73 = ORIENTED_EDGE ( 'NONE', *, *, #119, .F. ) ;
#74 = DIRECTION ( 'NONE',  ( -1.000000000000000000, 0.0000000000000000000, 0.0000000000000000000 ) ) ;
#75 = ORIENTED_EDGE ( 'NONE', *, *, #70, .T. ) ;
#76 = DIRECTION ( 'NONE',  ( -1.000000000000000000, 0.0000000000000000000, 1.224646799147353207E-16 ) ) ;
#77 = EDGE_LOOP ( 'NONE', ( #250, #34, #71, #2 ) ) ;
#78 = DIRECTION ( 'NONE',  ( -0.0000000000000000000, -0.0000000000000000000, -1.000000000000000000 ) ) ;
#79 = AXIS2_PLACEMENT_3D ( 'NONE', #219, #7, #44 ) ;
#80 = ADVANCED_FACE ( 'NONE', ( #193 ), #183, .T. ) ;
#81 = DIRECTION ( 'NONE',  ( -1.224646799147353207E-16, -0.0000000000000000000, -1.000000000000000000 ) ) ;
#82 = ORIENTED_EDGE ( 'NONE', *, *, #212, .T. ) ;
#83 = ADVANCED_FACE ( 'NONE', ( #72 ), #27, .T. ) ;
#84 = DIRECTION ( 'NONE',  ( 1.000000000000000000, 0.0000000000000000000, 0.0000000000000000000 ) ) ;
#85 = VERTEX_POINT ( 'NONE', #262 ) ;
#86 = DIRECTION ( 'NONE',  ( -1.000000000000000000, 0.0000000000000000000, 1.224646799147353207E-16 ) ) ;
#87 = CIRCLE ( 'NONE', #89, 0.04916328750000000664 ) ;
#88 = LENGTH_MEASURE_WITH_UNIT ( LENGTH_MEASURE( 0.02539999999999999897 ), #230 );
#89 = AXIS2_PLACEMENT_3D ( 'NONE', #25, #32, #74 ) ;
#90 = AXIS2_PLACEMENT_3D ( 'NONE', #276, #92, #137 ) ;
#91 = EDGE_CURVE ( 'NONE', #95, #37, #87, .T. ) ;
#92 = DIRECTION ( 'NONE',  ( 0.0000000000000000000, 0.0000000000000000000, 1.000000000000000000 ) ) ;
#93 = VECTOR ( 'NONE', #100, 39.37007874015748143 ) ;
#94 = PRODUCT_DEFINITION_SHAPE ( 'NONE', 'NONE',  #99 ) ;
#95 = VERTEX_POINT ( 'NONE', #5 ) ;
#96 = DIRECTION ( 'NONE',  ( 0.0000000000000000000, 0.0000000000000000000, 1.000000000000000000 ) ) ;
#97 = MECHANICAL_DESIGN_GEOMETRIC_PRESENTATION_REPRESENTATION (  '', ( #214 ), #264 ) ;
#98 = ORIENTED_EDGE ( 'NONE', *, *, #1, .F. ) ;
#99 = PRODUCT_DEFINITION ( 'UNKNOWN', '', #192, #186 ) ;
#100 = DIRECTION ( 'NONE',  ( -0.0000000000000000000, -0.0000000000000000000, -1.000000000000000000 ) ) ;
#101 = ORIENTED_EDGE ( 'NONE', *, *, #102, .F. ) ;
#102 = EDGE_CURVE ( 'NONE', #49, #85, #40, .T. ) ;
#103 = CARTESIAN_POINT ( 'NONE',  ( 0.04916328749999999276, 6.020766267243607560E-18, -9.478001694819074349E-34 ) ) ;
#104 = DIRECTION ( 'NONE',  ( -1.000000000000000000, 0.0000000000000000000, 0.0000000000000000000 ) ) ;
#105 = AXIS2_PLACEMENT_3D ( 'NONE', #290, #3, #170 ) ;
#106 = ADVANCED_FACE ( 'NONE', ( #150 ), #216, .F. ) ;
#107 = CARTESIAN_POINT ( 'NONE',  ( 0.0000000000000000000, 0.0000000000000000000, 1.481062999999999574 ) ) ;
#108 = CARTESIAN_POINT ( 'NONE',  ( 0.0000000000000000000, 0.0000000000000000000, 1.496062999999999921 ) ) ;
#109 = FACE_OUTER_BOUND ( 'NONE', #6, .T. ) ;
#110 = SURFACE_STYLE_USAGE ( .BOTH. , #11 ) ;
#111 = ORIENTED_EDGE ( 'NONE', *, *, #142, .T. ) ;
#112 = CYLINDRICAL_SURFACE ( 'NONE', #256, 0.04916328750000000664 ) ;
#113 = VECTOR ( 'NONE', #81, 39.37007874015748143 ) ;
#114 = CARTESIAN_POINT ( 'NONE',  ( -0.04916328749999999276, 0.0000000000000000000, 1.204153253448721512E-17 ) ) ;
#115 = APPLICATION_CONTEXT ( 'automotive_design' ) ;
#116 = UNCERTAINTY_MEASURE_WITH_UNIT (LENGTH_MEASURE( 1.000000000000000082E-05 ), #140, 'distance_accuracy_value', 'NONE');
#117 = LINE ( 'NONE', #203, #174 ) ;
#118 = CONICAL_SURFACE ( 'NONE', #4, 0.04405499999999973326, 0.7853981633974491672 ) ;
#119 = EDGE_CURVE ( 'NONE', #85, #190, #124, .T. ) ;
#120 = ORIENTED_EDGE ( 'NONE', *, *, #48, .T. ) ;
#121 = CIRCLE ( 'NONE', #36, 0.04405499999999973326 ) ;
#122 = ORIENTED_EDGE ( 'NONE', *, *, #129, .T. ) ;
#123 = EDGE_CURVE ( 'NONE', #281, #85, #52, .T. ) ;
#124 = LINE ( 'NONE', #282, #93 ) ;
#125 = LINE ( 'NONE', #288, #19 ) ;
#126 = DIRECTION ( 'NONE',  ( 1.000000000000000000, 0.0000000000000000000, 0.0000000000000000000 ) ) ;
#127 = DIRECTION ( 'NONE',  ( -0.7071067811865482389, 0.0000000000000000000, -0.7071067811865469066 ) ) ;
#128 = CARTESIAN_POINT ( 'NONE',  ( 0.0000000000000000000, 0.0000000000000000000, 1.496062999999999921 ) ) ;
#129 = EDGE_CURVE ( 'NONE', #37, #95, #283, .T. ) ;
#130 = ORIENTED_EDGE ( 'NONE', *, *, #66, .F. ) ;
#131 = DIRECTION ( 'NONE',  ( 0.1736481776669313859, 0.0000000000000000000, 0.9848077530122077983 ) ) ;
#132 = CONICAL_SURFACE ( 'NONE', #242, 0.04405499999999973326, 0.7853981633974491672 ) ;
#133 = ORIENTED_EDGE ( 'NONE', *, *, #123, .F. ) ;
#134 = CARTESIAN_POINT ( 'NONE',  ( 0.0000000000000000000, 0.0000000000000000000, 0.0000000000000000000 ) ) ;
#135 = EDGE_CURVE ( 'NONE', #281, #228, #207, .T. ) ;
#136 = PLANE ( 'NONE',  #291 ) ;
#137 = DIRECTION ( 'NONE',  ( 1.000000000000000000, 0.0000000000000000000, 0.0000000000000000000 ) ) ;
#138 = CONICAL_SURFACE ( 'NONE', #222, 0.04916328750000000664, 0.1745329251994338915 ) ;
#139 = VECTOR ( 'NONE', #23, 39.37007874015748143 ) ;
#140 =( CONVERSION_BASED_UNIT ( 'INCH', #88 ) LENGTH_UNIT ( ) NAMED_UNIT ( #208 ) );
#141 = ADVANCED_BREP_SHAPE_REPRESENTATION ( 'Micro_RMEM-025-2X', ( #168, #90 ), #231 ) ;
#142 = EDGE_CURVE ( 'NONE', #182, #45, #167, .T. ) ;
#143 = CIRCLE ( 'NONE', #160, 0.05905500000000000332 ) ;
#144 = ORIENTED_EDGE ( 'NONE', *, *, #43, .F. ) ;
#145 = EDGE_LOOP ( 'NONE', ( #296, #218, #101, #144 ) ) ;
#146 = LINE ( 'NONE', #16, #272 ) ;
#147 = AXIS2_PLACEMENT_3D ( 'NONE', #41, #239, #76 ) ;
#148 = AXIS2_PLACEMENT_3D ( 'NONE', #254, #185, #155 ) ;
#149 = CARTESIAN_POINT ( 'NONE',  ( 0.0000000000000000000, 0.0000000000000000000, 0.0000000000000000000 ) ) ;
#150 = FACE_OUTER_BOUND ( 'NONE', #12, .T. ) ;
#151 = DIRECTION ( 'NONE',  ( 1.224646799147353207E-16, 0.0000000000000000000, 1.000000000000000000 ) ) ;
#152 = PRESENTATION_LAYER_ASSIGNMENT (  '', '', ( #214 ) ) ;
#153 = CARTESIAN_POINT ( 'NONE',  ( 0.0000000000000000000, 0.0000000000000000000, 1.496062999999999921 ) ) ;
#154 = DIRECTION ( 'NONE',  ( 1.000000000000000000, 0.0000000000000000000, -0.0000000000000000000 ) ) ;
#155 = DIRECTION ( 'NONE',  ( 1.000000000000000000, 0.0000000000000000000, 0.0000000000000000000 ) ) ;
#156 = CARTESIAN_POINT ( 'NONE',  ( 0.0000000000000000000, 0.0000000000000000000, 1.496062999999999921 ) ) ;
#157 = SURFACE_STYLE_USAGE ( .BOTH. , #268 ) ;
#158 = LENGTH_MEASURE_WITH_UNIT ( LENGTH_MEASURE( 0.02539999999999999897 ), #33 );
#159 = ORIENTED_EDGE ( 'NONE', *, *, #60, .F. ) ;
#160 = AXIS2_PLACEMENT_3D ( 'NONE', #201, #8, #247 ) ;
#161 = ORIENTED_EDGE ( 'NONE', *, *, #135, .T. ) ;
#162 =( NAMED_UNIT ( * ) SI_UNIT ( $, .STERADIAN. ) SOLID_ANGLE_UNIT ( ) );
#163 = CYLINDRICAL_SURFACE ( 'NONE', #61, 0.05905500000000000332 ) ;
#164 =( NAMED_UNIT ( * ) PLANE_ANGLE_UNIT ( ) SI_UNIT ( $, .RADIAN. ) );
#165 = FACE_OUTER_BOUND ( 'NONE', #42, .T. ) ;
#166 = AXIS2_PLACEMENT_3D ( 'NONE', #286, #237, #47 ) ;
#167 = CIRCLE ( 'NONE', #79, 0.04916328749999999276 ) ;
#168 = MANIFOLD_SOLID_BREP ( 'Cut-Revolve1', #28 ) ;
#169 = COLOUR_RGB ( '',0.7921568627450980005, 0.8196078431372548767, 0.9333333333333333481 ) ;
#170 = DIRECTION ( 'NONE',  ( -1.000000000000000000, 0.0000000000000000000, 0.0000000000000000000 ) ) ;
#171 = PRODUCT ( 'Micro_RMEM-025-2X', 'Micro_RMEM-025-2X', '', ( #298 ) ) ;
#172 = CARTESIAN_POINT ( 'NONE',  ( 0.0000000000000000000, 0.0000000000000000000, 1.481062999999999574 ) ) ;
#173 = AXIS2_PLACEMENT_3D ( 'NONE', #287, #50, #234 ) ;
#174 = VECTOR ( 'NONE', #64, 39.37007874015748143 ) ;
#175 = AXIS2_PLACEMENT_3D ( 'NONE', #153, #260, #126 ) ;
#176 = DIRECTION ( 'NONE',  ( -1.000000000000000000, 0.0000000000000000000, 0.0000000000000000000 ) ) ;
#177 = CARTESIAN_POINT ( 'NONE',  ( -0.05905500000000000332, 0.0000000000000000000, 1.481062999999999574 ) ) ;
#178 = CARTESIAN_POINT ( 'NONE',  ( 0.04916328750000004827, 0.0000000000000000000, 0.3149609999999999910 ) ) ;
#179 = ORIENTED_EDGE ( 'NONE', *, *, #142, .F. ) ;
#180 = FILL_AREA_STYLE_COLOUR ( '', #169 ) ;
#181 = DIRECTION ( 'NONE',  ( -1.000000000000000000, 0.0000000000000000000, 0.0000000000000000000 ) ) ;
#182 = VERTEX_POINT ( 'NONE', #114 ) ;
#183 = CONICAL_SURFACE ( 'NONE', #173, 0.04916328750000000664, 0.1745329251994338915 ) ;
#184 = DIRECTION ( 'NONE',  ( -1.000000000000000000, 0.0000000000000000000, 0.0000000000000000000 ) ) ;
#185 = DIRECTION ( 'NONE',  ( -1.224646799147353207E-16, -0.0000000000000000000, -1.000000000000000000 ) ) ;
#186 = PRODUCT_DEFINITION_CONTEXT ( 'detailed design', #246, 'design' ) ;
#187 = AXIS2_PLACEMENT_3D ( 'NONE', #149, #96, #240 ) ;
#188 = SHAPE_DEFINITION_REPRESENTATION ( #94, #141 ) ;
#189 = EDGE_CURVE ( 'NONE', #49, #26, #146, .T. ) ;
#190 = VERTEX_POINT ( 'NONE', #57 ) ;
#191 = FILL_AREA_STYLE_COLOUR ( '', #277 ) ;
#192 = PRODUCT_DEFINITION_FORMATION_WITH_SPECIFIED_SOURCE ( 'ANY', '', #171, .NOT_KNOWN. ) ;
#193 = FACE_OUTER_BOUND ( 'NONE', #56, .T. ) ;
#194 = ORIENTED_EDGE ( 'NONE', *, *, #129, .F. ) ;
#195 = CARTESIAN_POINT ( 'NONE',  ( 0.04405499999999973326, 5.395181473643630390E-18, 1.496062999999999921 ) ) ;
#196 = ADVANCED_FACE ( 'NONE', ( #274 ), #163, .T. ) ;
#197 = ORIENTED_EDGE ( 'NONE', *, *, #24, .F. ) ;
#198 = LINE ( 'NONE', #293, #113 ) ;
#199 = DIRECTION ( 'NONE',  ( 0.0000000000000000000, 0.0000000000000000000, -1.000000000000000000 ) ) ;
#200 = CARTESIAN_POINT ( 'NONE',  ( 0.0000000000000000000, 0.0000000000000000000, 1.496062999999999921 ) ) ;
#201 = CARTESIAN_POINT ( 'NONE',  ( 4.544170607523835535E-17, 0.0000000000000000000, 0.3710596892661349178 ) ) ;
#202 = FACE_OUTER_BOUND ( 'NONE', #22, .T. ) ;
#203 = CARTESIAN_POINT ( 'NONE',  ( -0.04916328750000000664, 0.0000000000000000000, 6.020766267243608331E-18 ) ) ;
#204 = AXIS2_PLACEMENT_3D ( 'NONE', #107, #199, #294 ) ;
#205 = DIMENSIONAL_EXPONENTS ( 1.000000000000000000, 0.0000000000000000000, 0.0000000000000000000, 0.0000000000000000000, 0.0000000000000000000, 0.0000000000000000000, 0.0000000000000000000 ) ;
#206 = DIRECTION ( 'NONE',  ( -1.224646799147353207E-16, -0.0000000000000000000, -1.000000000000000000 ) ) ;
#207 = CIRCLE ( 'NONE', #175, 0.04405499999999973326 ) ;
#208 = DIMENSIONAL_EXPONENTS ( 1.000000000000000000, 0.0000000000000000000, 0.0000000000000000000, 0.0000000000000000000, 0.0000000000000000000, 0.0000000000000000000, 0.0000000000000000000 ) ;
#209 = ADVANCED_FACE ( 'NONE', ( #14 ), #118, .T. ) ;
#210 = LENGTH_MEASURE_WITH_UNIT ( LENGTH_MEASURE( 0.02539999999999999897 ), #271 );
#211 =( NAMED_UNIT ( * ) SI_UNIT ( $, .STERADIAN. ) SOLID_ANGLE_UNIT ( ) );
#212 = EDGE_CURVE ( 'NONE', #37, #190, #295, .T. ) ;
#213 = ORIENTED_EDGE ( 'NONE', *, *, #48, .F. ) ;
#214 = STYLED_ITEM ( 'NONE', ( #227 ), #168 ) ;
#215 = ORIENTED_EDGE ( 'NONE', *, *, #189, .F. ) ;
#216 = PLANE ( 'NONE',  #187 ) ;
#217 = ORIENTED_EDGE ( 'NONE', *, *, #66, .T. ) ;
#218 = ORIENTED_EDGE ( 'NONE', *, *, #123, .T. ) ;
#219 = CARTESIAN_POINT ( 'NONE',  ( 7.373312137594241536E-34, 0.0000000000000000000, 6.020766267243607560E-18 ) ) ;
#220 = CARTESIAN_POINT ( 'NONE',  ( -0.04916328749999996500, 6.020766267243608331E-18, 0.3149609999999999910 ) ) ;
#221 = CARTESIAN_POINT ( 'NONE',  ( -0.04405499999999973326, 0.0000000000000000000, 1.496062999999999921 ) ) ;
#222 = AXIS2_PLACEMENT_3D ( 'NONE', #51, #151, #244 ) ;
#223 = PRESENTATION_LAYER_ASSIGNMENT (  '', '', ( #46 ) ) ;
#224 = ORIENTED_EDGE ( 'NONE', *, *, #258, .F. ) ;
#225 =( NAMED_UNIT ( * ) SI_UNIT ( $, .STERADIAN. ) SOLID_ANGLE_UNIT ( ) );
#226 = ORIENTED_EDGE ( 'NONE', *, *, #102, .T. ) ;
#227 = PRESENTATION_STYLE_ASSIGNMENT (( #110 ) ) ;
#228 = VERTEX_POINT ( 'NONE', #221 ) ;
#229 = DIRECTION ( 'NONE',  ( 0.0000000000000000000, 0.0000000000000000000, -1.000000000000000000 ) ) ;
#230 =( LENGTH_UNIT ( ) NAMED_UNIT ( * ) SI_UNIT ( $, .METRE. ) );
#231 =( GEOMETRIC_REPRESENTATION_CONTEXT ( 3 ) GLOBAL_UNCERTAINTY_ASSIGNED_CONTEXT ( ( #257 ) ) GLOBAL_UNIT_ASSIGNED_CONTEXT ( ( #232, #164, #162 ) ) REPRESENTATION_CONTEXT ( 'NONE', 'WORKASPACE' ) );
#232 =( CONVERSION_BASED_UNIT ( 'INCH', #210 ) LENGTH_UNIT ( ) NAMED_UNIT ( #67 ) );
#233 = ORIENTED_EDGE ( 'NONE', *, *, #60, .T. ) ;
#234 = DIRECTION ( 'NONE',  ( 1.000000000000000000, 0.0000000000000000000, 0.0000000000000000000 ) ) ;
#235 = VECTOR ( 'NONE', #131, 39.37007874015748143 ) ;
#236 = ORIENTED_EDGE ( 'NONE', *, *, #91, .T. ) ;
#237 = DIRECTION ( 'NONE',  ( -1.224646799147353207E-16, -0.0000000000000000000, -1.000000000000000000 ) ) ;
#238 = EDGE_LOOP ( 'NONE', ( #213, #122, #217, #284 ) ) ;
#239 = DIRECTION ( 'NONE',  ( -1.224646799147353207E-16, -0.0000000000000000000, -1.000000000000000000 ) ) ;
#240 = DIRECTION ( 'NONE',  ( 1.000000000000000000, 0.0000000000000000000, -0.0000000000000000000 ) ) ;
#241 = VECTOR ( 'NONE', #53, 39.37007874015747433 ) ;
#242 = AXIS2_PLACEMENT_3D ( 'NONE', #200, #55, #181 ) ;
#243 = ADVANCED_FACE ( 'NONE', ( #202 ), #112, .T. ) ;
#244 = DIRECTION ( 'NONE',  ( 1.000000000000000000, 0.0000000000000000000, 0.0000000000000000000 ) ) ;
#245 = DIRECTION ( 'NONE',  ( 1.000000000000000000, 0.0000000000000000000, 0.0000000000000000000 ) ) ;
#246 = APPLICATION_CONTEXT ( 'automotive_design' ) ;
#247 = DIRECTION ( 'NONE',  ( 1.000000000000000000, 0.0000000000000000000, 0.0000000000000000000 ) ) ;
#248 = CYLINDRICAL_SURFACE ( 'NONE', #29, 0.05905500000000000332 ) ;
#249 = EDGE_CURVE ( 'NONE', #228, #281, #121, .T. ) ;
#250 = ORIENTED_EDGE ( 'NONE', *, *, #91, .F. ) ;
#251 = CARTESIAN_POINT ( 'NONE',  ( 0.0000000000000000000, 0.0000000000000000000, 1.496062999999999921 ) ) ;
#252 = ORIENTED_EDGE ( 'NONE', *, *, #119, .T. ) ;
#253 = LINE ( 'NONE', #220, #241 ) ;
#254 = CARTESIAN_POINT ( 'NONE',  ( 4.544170607523835535E-17, 0.0000000000000000000, 0.3710596892661349178 ) ) ;
#255 = SURFACE_STYLE_FILL_AREA ( #59 ) ;
#256 = AXIS2_PLACEMENT_3D ( 'NONE', #134, #206, #86 ) ;
#257 = UNCERTAINTY_MEASURE_WITH_UNIT (LENGTH_MEASURE( 1.000000000000000082E-05 ), #232, 'distance_accuracy_value', 'NONE');
#258 = EDGE_CURVE ( 'NONE', #190, #26, #292, .T. ) ;
#259 = ORIENTED_EDGE ( 'NONE', *, *, #258, .T. ) ;
#260 = DIRECTION ( 'NONE',  ( 0.0000000000000000000, 0.0000000000000000000, 1.000000000000000000 ) ) ;
#261 = ORIENTED_EDGE ( 'NONE', *, *, #249, .T. ) ;
#262 = CARTESIAN_POINT ( 'NONE',  ( 0.05905500000000000332, 7.232151672364695422E-18, 1.481062999999999574 ) ) ;
#263 = DIRECTION ( 'NONE',  ( 0.0000000000000000000, 0.0000000000000000000, -1.000000000000000000 ) ) ;
#264 =( GEOMETRIC_REPRESENTATION_CONTEXT ( 3 ) GLOBAL_UNCERTAINTY_ASSIGNED_CONTEXT ( ( #278 ) ) GLOBAL_UNIT_ASSIGNED_CONTEXT ( ( #297, #39, #225 ) ) REPRESENTATION_CONTEXT ( 'NONE', 'WORKASPACE' ) );
#265 = EDGE_LOOP ( 'NONE', ( #226, #252, #197, #215 ) ) ;
#266 = CARTESIAN_POINT ( 'NONE',  ( 0.0000000000000000000, 0.0000000000000000000, 1.496062999999999921 ) ) ;
#267 = DIRECTION ( 'NONE',  ( 0.0000000000000000000, 0.0000000000000000000, 1.000000000000000000 ) ) ;
#268 = SURFACE_SIDE_STYLE ('',( #58 ) ) ;
#269 = DIRECTION ( 'NONE',  ( 0.0000000000000000000, 0.0000000000000000000, 1.000000000000000000 ) ) ;
#270 = PRESENTATION_STYLE_ASSIGNMENT (( #157 ) ) ;
#271 =( LENGTH_UNIT ( ) NAMED_UNIT ( * ) SI_UNIT ( $, .METRE. ) );
#272 = VECTOR ( 'NONE', #78, 39.37007874015748143 ) ;
#273 = CARTESIAN_POINT ( 'NONE',  ( -0.05905499999999996169, 0.0000000000000000000, 0.3710596892661349178 ) ) ;
#274 = FACE_OUTER_BOUND ( 'NONE', #265, .T. ) ;
#275 = CIRCLE ( 'NONE', #204, 0.05905500000000000332 ) ;
#276 = CARTESIAN_POINT ( 'NONE',  ( 0.0000000000000000000, 0.0000000000000000000, 0.0000000000000000000 ) ) ;
#277 = COLOUR_RGB ( '',0.7921568627450980005, 0.8196078431372548767, 0.9333333333333333481 ) ;
#278 = UNCERTAINTY_MEASURE_WITH_UNIT (LENGTH_MEASURE( 1.000000000000000082E-05 ), #297, 'distance_accuracy_value', 'NONE');
#279 = AXIS2_PLACEMENT_3D ( 'NONE', #172, #263, #245 ) ;
#280 =( GEOMETRIC_REPRESENTATION_CONTEXT ( 3 ) GLOBAL_UNCERTAINTY_ASSIGNED_CONTEXT ( ( #116 ) ) GLOBAL_UNIT_ASSIGNED_CONTEXT ( ( #140, #18, #211 ) ) REPRESENTATION_CONTEXT ( 'NONE', 'WORKASPACE' ) );
#281 = VERTEX_POINT ( 'NONE', #63 ) ;
#282 = CARTESIAN_POINT ( 'NONE',  ( 0.05905500000000000332, 7.232151672364695422E-18, 1.496062999999999921 ) ) ;
#283 = CIRCLE ( 'NONE', #105, 0.04916328750000000664 ) ;
#284 = ORIENTED_EDGE ( 'NONE', *, *, #70, .F. ) ;
#285 = ADVANCED_FACE ( 'NONE', ( #65 ), #132, .T. ) ;
#286 = CARTESIAN_POINT ( 'NONE',  ( 0.0000000000000000000, 0.0000000000000000000, 0.0000000000000000000 ) ) ;
#287 = CARTESIAN_POINT ( 'NONE',  ( 3.857159805062494824E-17, 0.0000000000000000000, 0.3149609999999999910 ) ) ;
#288 = CARTESIAN_POINT ( 'NONE',  ( -0.04405499999999973326, 0.0000000000000000000, 1.496062999999999921 ) ) ;
#289 = APPLICATION_PROTOCOL_DEFINITION ( 'draft international standard', 'automotive_design', 1998, #115 ) ;
#290 = CARTESIAN_POINT ( 'NONE',  ( 3.857159805062494824E-17, 0.0000000000000000000, 0.3149609999999999910 ) ) ;
#291 = AXIS2_PLACEMENT_3D ( 'NONE', #156, #267, #154 ) ;
#292 = CIRCLE ( 'NONE', #148, 0.05905500000000000332 ) ;
#293 = CARTESIAN_POINT ( 'NONE',  ( 0.04916328750000000664, 6.020766267243608331E-18, -6.020766267243608331E-18 ) ) ;
#294 = DIRECTION ( 'NONE',  ( 1.000000000000000000, 0.0000000000000000000, 0.0000000000000000000 ) ) ;
#295 = LINE ( 'NONE', #178, #235 ) ;
#296 = ORIENTED_EDGE ( 'NONE', *, *, #135, .F. ) ;
#297 =( CONVERSION_BASED_UNIT ( 'INCH', #158 ) LENGTH_UNIT ( ) NAMED_UNIT ( #205 ) );
#298 = PRODUCT_CONTEXT ( 'NONE', #115, 'mechanical' ) ;
#299 = ADVANCED_FACE ( 'NONE', ( #165 ), #248, .T. ) ;
ENDSEC;
END-ISO-10303-21;
