ISO-10303-21;
HEADER;
FILE_DESCRIPTION (( 'STEP AP214' ),
    '1' );
FILE_NAME ('30692W.STEP',
    '2023-06-22T19:02:30',
    ( '' ),
    ( '' ),
    'SwSTEP 2.0',
    'SolidWorks 2023',
    '' );
FILE_SCHEMA (( 'AUTOMOTIVE_DESIGN' ));
ENDSEC;

DATA;
#1 = SURFACE_SIDE_STYLE ('',( #213 ) ) ;
#2 = DIRECTION ( 'NONE',  ( -0.000000000000000000, -1.000000000000000000, -0.000000000000000000 ) ) ;
#3 = FILL_AREA_STYLE ('',( #228 ) ) ;
#4 = SURFACE_STYLE_FILL_AREA ( #205 ) ;
#5 = CARTESIAN_POINT ( 'NONE',  ( -0.3750000000000002220, 6.000000000000000888, 0.000000000000000000 ) ) ;
#6 = LINE ( 'NONE', #236, #57 ) ;
#7 = CARTESIAN_POINT ( 'NONE',  ( 0.000000000000000000, 0.000000000000000000, 0.000000000000000000 ) ) ;
#8 = DIMENSIONAL_EXPONENTS ( 1.000000000000000000, 0.000000000000000000, 0.000000000000000000, 0.000000000000000000, 0.000000000000000000, 0.000000000000000000, 0.000000000000000000 ) ;
#9 = ORIENTED_EDGE ( 'NONE', *, *, #295, .T. ) ;
#10 = EDGE_CURVE ( 'NONE', #17, #109, #37, .T. ) ;
#11 = DIRECTION ( 'NONE',  ( -0.000000000000000000, -1.000000000000000000, -0.000000000000000000 ) ) ;
#12 = PRESENTATION_STYLE_ASSIGNMENT (( #299 ) ) ;
#13 = LENGTH_MEASURE_WITH_UNIT ( LENGTH_MEASURE( 0.02539999999999999897 ), #98 );
#14 =( LENGTH_UNIT ( ) NAMED_UNIT ( * ) SI_UNIT ( $, .METRE. ) );
#15 = DIMENSIONAL_EXPONENTS ( 1.000000000000000000, 0.000000000000000000, 0.000000000000000000, 0.000000000000000000, 0.000000000000000000, 0.000000000000000000, 0.000000000000000000 ) ;
#16 = STYLED_ITEM ( 'NONE', ( #91 ), #274 ) ;
#17 = VERTEX_POINT ( 'NONE', #85 ) ;
#18 = FACE_OUTER_BOUND ( 'NONE', #146, .T. ) ;
#19 =( CONVERSION_BASED_UNIT ( 'INCH', #166 ) LENGTH_UNIT ( ) NAMED_UNIT ( #301 ) );
#20 = DIRECTION ( 'NONE',  ( 0.000000000000000000, 0.000000000000000000, -1.000000000000000000 ) ) ;
#21 = CARTESIAN_POINT ( 'NONE',  ( 0.000000000000000000, 0.000000000000000000, 0.000000000000000000 ) ) ;
#22 = VERTEX_POINT ( 'NONE', #63 ) ;
#23 = MECHANICAL_DESIGN_GEOMETRIC_PRESENTATION_REPRESENTATION (  '', ( #147 ), #242 ) ;
#24 = ADVANCED_FACE ( 'NONE', ( #262 ), #134, .T. ) ;
#25 =( GEOMETRIC_REPRESENTATION_CONTEXT ( 3 ) GLOBAL_UNCERTAINTY_ASSIGNED_CONTEXT ( ( #33 ) ) GLOBAL_UNIT_ASSIGNED_CONTEXT ( ( #130, #235, #31 ) ) REPRESENTATION_CONTEXT ( 'NONE', 'WORKASPACE' ) );
#26 = LENGTH_MEASURE_WITH_UNIT ( LENGTH_MEASURE( 0.02539999999999999897 ), #276 );
#27 = PRESENTATION_STYLE_ASSIGNMENT (( #294 ) ) ;
#28 = CARTESIAN_POINT ( 'NONE',  ( 0.3750000000000000555, 6.000000000000000888, 4.592425496802576684E-17 ) ) ;
#29 = PRODUCT ( '30692W', '30692W', '', ( #240 ) ) ;
#30 = ADVANCED_FACE ( 'NONE', ( #224 ), #77, .T. ) ;
#31 =( NAMED_UNIT ( * ) SI_UNIT ( $, .STERADIAN. ) SOLID_ANGLE_UNIT ( ) );
#32 = SURFACE_SIDE_STYLE ('',( #150 ) ) ;
#33 = UNCERTAINTY_MEASURE_WITH_UNIT (LENGTH_MEASURE( 1.000000000000000082E-05 ), #130, 'distance_accuracy_value', 'NONE');
#34 = DIRECTION ( 'NONE',  ( -4.453261087808560759E-17, 1.000000000000000000, -0.000000000000000000 ) ) ;
#35 = ORIENTED_EDGE ( 'NONE', *, *, #66, .T. ) ;
#36 = LENGTH_MEASURE_WITH_UNIT ( LENGTH_MEASURE( 0.02539999999999999897 ), #61 );
#37 = CIRCLE ( 'NONE', #99, 0.3750000000000000555 ) ;
#38 = ADVANCED_FACE ( 'NONE', ( #255 ), #279, .F. ) ;
#39 = ORIENTED_EDGE ( 'NONE', *, *, #216, .T. ) ;
#40 = DIMENSIONAL_EXPONENTS ( 1.000000000000000000, 0.000000000000000000, 0.000000000000000000, 0.000000000000000000, 0.000000000000000000, 0.000000000000000000, 0.000000000000000000 ) ;
#41 = SURFACE_STYLE_USAGE ( .BOTH. , #243 ) ;
#42 = ADVANCED_FACE ( 'NONE', ( #67 ), #149, .T. ) ;
#43 = EDGE_LOOP ( 'NONE', ( #39, #298 ) ) ;
#44 =( GEOMETRIC_REPRESENTATION_CONTEXT ( 3 ) GLOBAL_UNCERTAINTY_ASSIGNED_CONTEXT ( ( #246 ) ) GLOBAL_UNIT_ASSIGNED_CONTEXT ( ( #153, #115, #187 ) ) REPRESENTATION_CONTEXT ( 'NONE', 'WORKASPACE' ) );
#45 = CARTESIAN_POINT ( 'NONE',  ( -0.3750000000000002776, 6.000000000000000888, 0.000000000000000000 ) ) ;
#46 = ORIENTED_EDGE ( 'NONE', *, *, #148, .F. ) ;
#47 = DIRECTION ( 'NONE',  ( 1.000000000000000000, 4.453261087808560759E-17, 0.000000000000000000 ) ) ;
#48 = AXIS2_PLACEMENT_3D ( 'NONE', #206, #56, #47 ) ;
#49 = PLANE ( 'NONE',  #120 ) ;
#50 =( NAMED_UNIT ( * ) PLANE_ANGLE_UNIT ( ) SI_UNIT ( $, .RADIAN. ) );
#51 = SURFACE_STYLE_FILL_AREA ( #171 ) ;
#52 =( GEOMETRIC_REPRESENTATION_CONTEXT ( 3 ) GLOBAL_UNCERTAINTY_ASSIGNED_CONTEXT ( ( #165 ) ) GLOBAL_UNIT_ASSIGNED_CONTEXT ( ( #94, #50, #151 ) ) REPRESENTATION_CONTEXT ( 'NONE', 'WORKASPACE' ) );
#53 = DIRECTION ( 'NONE',  ( -1.000000000000000000, 0.000000000000000000, 0.000000000000000000 ) ) ;
#54 = CARTESIAN_POINT ( 'NONE',  ( 0.000000000000000000, 0.000000000000000000, -0.3750000000000000555 ) ) ;
#55 = PRODUCT_DEFINITION ( 'UNKNOWN', '', #222, #215 ) ;
#56 = DIRECTION ( 'NONE',  ( 4.453261087808560759E-17, -1.000000000000000000, 0.000000000000000000 ) ) ;
#57 = VECTOR ( 'NONE', #60, 39.37007874015748143 ) ;
#58 = MANIFOLD_SOLID_BREP ( 'Revolve - Cutting Edge', #225 ) ;
#59 = ORIENTED_EDGE ( 'NONE', *, *, #66, .F. ) ;
#60 = DIRECTION ( 'NONE',  ( -0.000000000000000000, -1.000000000000000000, -0.000000000000000000 ) ) ;
#61 =( LENGTH_UNIT ( ) NAMED_UNIT ( * ) SI_UNIT ( $, .METRE. ) );
#62 = VERTEX_POINT ( 'NONE', #263 ) ;
#63 = CARTESIAN_POINT ( 'NONE',  ( 0.000000000000000000, 3.250000000000000000, -0.3750000000000000555 ) ) ;
#64 = MECHANICAL_DESIGN_GEOMETRIC_PRESENTATION_REPRESENTATION (  '', ( #214 ), #44 ) ;
#65 =( NAMED_UNIT ( * ) SI_UNIT ( $, .STERADIAN. ) SOLID_ANGLE_UNIT ( ) );
#66 = EDGE_CURVE ( 'NONE', #133, #22, #76, .T. ) ;
#67 = FACE_OUTER_BOUND ( 'NONE', #117, .T. ) ;
#68 = AXIS2_PLACEMENT_3D ( 'NONE', #90, #308, #95 ) ;
#69 = DIRECTION ( 'NONE',  ( -4.453261087808560759E-17, 1.000000000000000000, 0.000000000000000000 ) ) ;
#70 = APPLICATION_CONTEXT ( 'automotive_design' ) ;
#71 = EDGE_LOOP ( 'NONE', ( #258, #179, #304, #82 ) ) ;
#72 = DIRECTION ( 'NONE',  ( -1.000000000000000000, 0.000000000000000000, 0.000000000000000000 ) ) ;
#73 = CARTESIAN_POINT ( 'NONE',  ( 0.000000000000000000, 3.250000000000000000, 0.000000000000000000 ) ) ;
#74 = DIRECTION ( 'NONE',  ( 0.000000000000000000, 0.000000000000000000, -1.000000000000000000 ) ) ;
#75 = CIRCLE ( 'NONE', #265, 0.3750000000000001665 ) ;
#76 = CIRCLE ( 'NONE', #92, 0.3750000000000000555 ) ;
#77 = CYLINDRICAL_SURFACE ( 'NONE', #87, 0.3750000000000000555 ) ;
#78 = ADVANCED_FACE ( 'NONE', ( #18 ), #137, .T. ) ;
#79 = SURFACE_STYLE_FILL_AREA ( #3 ) ;
#80 =( GEOMETRIC_REPRESENTATION_CONTEXT ( 3 ) GLOBAL_UNCERTAINTY_ASSIGNED_CONTEXT ( ( #233 ) ) GLOBAL_UNIT_ASSIGNED_CONTEXT ( ( #19, #186, #286 ) ) REPRESENTATION_CONTEXT ( 'NONE', 'WORKASPACE' ) );
#81 = CARTESIAN_POINT ( 'NONE',  ( 4.592425496802575451E-17, 0.000000000000000000, 0.3750000000000000555 ) ) ;
#82 = ORIENTED_EDGE ( 'NONE', *, *, #196, .F. ) ;
#83 = SURFACE_STYLE_USAGE ( .BOTH. , #32 ) ;
#84 = DIRECTION ( 'NONE',  ( -4.453261087808560759E-17, 1.000000000000000000, -0.000000000000000000 ) ) ;
#85 = CARTESIAN_POINT ( 'NONE',  ( 4.592425496802575451E-17, 0.000000000000000000, 0.3750000000000000555 ) ) ;
#86 = EDGE_LOOP ( 'NONE', ( #140, #285 ) ) ;
#87 = AXIS2_PLACEMENT_3D ( 'NONE', #105, #174, #278 ) ;
#88 = AXIS2_PLACEMENT_3D ( 'NONE', #7, #104, #110 ) ;
#89 = DIRECTION ( 'NONE',  ( -0.000000000000000000, -1.000000000000000000, -0.000000000000000000 ) ) ;
#90 = CARTESIAN_POINT ( 'NONE',  ( -1.224646799147354440E-16, 6.000000000000000888, 0.000000000000000000 ) ) ;
#91 = PRESENTATION_STYLE_ASSIGNMENT (( #41 ) ) ;
#92 = AXIS2_PLACEMENT_3D ( 'NONE', #297, #89, #159 ) ;
#93 = EDGE_LOOP ( 'NONE', ( #9, #291, #118, #195 ) ) ;
#94 =( CONVERSION_BASED_UNIT ( 'INCH', #188 ) LENGTH_UNIT ( ) NAMED_UNIT ( #210 ) );
#95 = DIRECTION ( 'NONE',  ( -1.000000000000000000, 0.000000000000000000, 0.000000000000000000 ) ) ;
#96 = CIRCLE ( 'NONE', #128, 0.3750000000000001665 ) ;
#97 = AXIS2_PLACEMENT_3D ( 'NONE', #170, #204, #122 ) ;
#98 =( LENGTH_UNIT ( ) NAMED_UNIT ( * ) SI_UNIT ( $, .METRE. ) );
#99 = AXIS2_PLACEMENT_3D ( 'NONE', #21, #11, #300 ) ;
#100 = STYLED_ITEM ( 'NONE', ( #12 ), #42 ) ;
#101 = FILL_AREA_STYLE ('',( #207 ) ) ;
#102 = FILL_AREA_STYLE_COLOUR ( '', #270 ) ;
#103 =( NAMED_UNIT ( * ) SI_UNIT ( $, .STERADIAN. ) SOLID_ANGLE_UNIT ( ) );
#104 = DIRECTION ( 'NONE',  ( 0.000000000000000000, 0.000000000000000000, 1.000000000000000000 ) ) ;
#105 = CARTESIAN_POINT ( 'NONE',  ( 0.000000000000000000, 0.000000000000000000, 0.000000000000000000 ) ) ;
#106 = PRESENTATION_STYLE_ASSIGNMENT (( #83 ) ) ;
#107 = FILL_AREA_STYLE_COLOUR ( '', #131 ) ;
#108 = MECHANICAL_DESIGN_GEOMETRIC_PRESENTATION_REPRESENTATION (  '', ( #100 ), #52 ) ;
#109 = VERTEX_POINT ( 'NONE', #54 ) ;
#110 = DIRECTION ( 'NONE',  ( 1.000000000000000000, 0.000000000000000000, 0.000000000000000000 ) ) ;
#111 = ADVANCED_FACE ( 'NONE', ( #303 ), #269, .T. ) ;
#112 = UNCERTAINTY_MEASURE_WITH_UNIT (LENGTH_MEASURE( 1.000000000000000082E-05 ), #191, 'distance_accuracy_value', 'NONE');
#113 = ORIENTED_EDGE ( 'NONE', *, *, #157, .T. ) ;
#114 = AXIS2_PLACEMENT_3D ( 'NONE', #73, #272, #53 ) ;
#115 =( NAMED_UNIT ( * ) PLANE_ANGLE_UNIT ( ) SI_UNIT ( $, .RADIAN. ) );
#116 = VERTEX_POINT ( 'NONE', #45 ) ;
#117 = EDGE_LOOP ( 'NONE', ( #237, #59 ) ) ;
#118 = ORIENTED_EDGE ( 'NONE', *, *, #190, .F. ) ;
#119 = DIRECTION ( 'NONE',  ( 0.000000000000000000, -1.000000000000000000, -0.000000000000000000 ) ) ;
#120 = AXIS2_PLACEMENT_3D ( 'NONE', #264, #69, #164 ) ;
#121 = AXIS2_PLACEMENT_3D ( 'NONE', #123, #253, #232 ) ;
#122 = DIRECTION ( 'NONE',  ( -1.000000000000000000, 0.000000000000000000, 0.000000000000000000 ) ) ;
#123 = CARTESIAN_POINT ( 'NONE',  ( 0.000000000000000000, 3.250000000000000000, 0.000000000000000000 ) ) ;
#124 = ORIENTED_EDGE ( 'NONE', *, *, #10, .T. ) ;
#125 =( CONVERSION_BASED_UNIT ( 'INCH', #26 ) LENGTH_UNIT ( ) NAMED_UNIT ( #15 ) );
#126 = DIMENSIONAL_EXPONENTS ( 1.000000000000000000, 0.000000000000000000, 0.000000000000000000, 0.000000000000000000, 0.000000000000000000, 0.000000000000000000, 0.000000000000000000 ) ;
#127 = LINE ( 'NONE', #81, #260 ) ;
#128 = AXIS2_PLACEMENT_3D ( 'NONE', #219, #289, #221 ) ;
#129 = CARTESIAN_POINT ( 'NONE',  ( 0.000000000000000000, 0.000000000000000000, 0.000000000000000000 ) ) ;
#130 =( CONVERSION_BASED_UNIT ( 'INCH', #36 ) LENGTH_UNIT ( ) NAMED_UNIT ( #176 ) );
#131 = COLOUR_RGB ( '',1.000000000000000000, 0.000000000000000000, 0.000000000000000000 ) ;
#132 = LINE ( 'NONE', #178, #252 ) ;
#133 = VERTEX_POINT ( 'NONE', #161 ) ;
#134 = CYLINDRICAL_SURFACE ( 'NONE', #283, 0.3750000000000001110 ) ;
#135 = ADVANCED_FACE ( 'NONE', ( #271 ), #49, .F. ) ;
#136 = SURFACE_STYLE_USAGE ( .BOTH. , #234 ) ;
#137 = CYLINDRICAL_SURFACE ( 'NONE', #172, 0.3750000000000000555 ) ;
#138 = SURFACE_STYLE_FILL_AREA ( #101 ) ;
#139 = CARTESIAN_POINT ( 'NONE',  ( -1.224646799147354440E-16, 6.000000000000000888, 0.000000000000000000 ) ) ;
#140 = ORIENTED_EDGE ( 'NONE', *, *, #251, .F. ) ;
#141 =( NAMED_UNIT ( * ) SI_UNIT ( $, .STERADIAN. ) SOLID_ANGLE_UNIT ( ) );
#142 = UNCERTAINTY_MEASURE_WITH_UNIT (LENGTH_MEASURE( 1.000000000000000082E-05 ), #192, 'distance_accuracy_value', 'NONE');
#143 = STYLED_ITEM ( 'NONE', ( #158 ), #30 ) ;
#144 = AXIS2_PLACEMENT_3D ( 'NONE', #129, #256, #281 ) ;
#145 = CIRCLE ( 'NONE', #239, 0.3750000000000000555 ) ;
#146 = EDGE_LOOP ( 'NONE', ( #198, #35, #113, #241 ) ) ;
#147 = STYLED_ITEM ( 'NONE', ( #106 ), #212 ) ;
#148 = EDGE_CURVE ( 'NONE', #181, #116, #75, .T. ) ;
#149 = PLANE ( 'NONE',  #121 ) ;
#150 = SURFACE_STYLE_FILL_AREA ( #203 ) ;
#151 =( NAMED_UNIT ( * ) SI_UNIT ( $, .STERADIAN. ) SOLID_ANGLE_UNIT ( ) );
#152 = VECTOR ( 'NONE', #84, 39.37007874015748143 ) ;
#153 =( CONVERSION_BASED_UNIT ( 'INCH', #13 ) LENGTH_UNIT ( ) NAMED_UNIT ( #8 ) );
#154 = EDGE_LOOP ( 'NONE', ( #217, #124 ) ) ;
#155 = CLOSED_SHELL ( 'NONE', ( #111, #135, #24, #38 ) ) ;
#156 = PRESENTATION_LAYER_ASSIGNMENT (  '', '', ( #147 ) ) ;
#157 = EDGE_CURVE ( 'NONE', #22, #109, #6, .T. ) ;
#158 = PRESENTATION_STYLE_ASSIGNMENT (( #229 ) ) ;
#159 = DIRECTION ( 'NONE',  ( 0.000000000000000000, 0.000000000000000000, -1.000000000000000000 ) ) ;
#160 = LENGTH_MEASURE_WITH_UNIT ( LENGTH_MEASURE( 0.02539999999999999897 ), #284 );
#161 = CARTESIAN_POINT ( 'NONE',  ( 4.592425496802575451E-17, 3.250000000000000000, 0.3750000000000000555 ) ) ;
#162 = MECHANICAL_DESIGN_GEOMETRIC_PRESENTATION_REPRESENTATION (  '', ( #143 ), #25 ) ;
#163 =( NAMED_UNIT ( * ) PLANE_ANGLE_UNIT ( ) SI_UNIT ( $, .RADIAN. ) );
#164 = DIRECTION ( 'NONE',  ( -1.000000000000000000, -4.453261087808560759E-17, 0.000000000000000000 ) ) ;
#165 = UNCERTAINTY_MEASURE_WITH_UNIT (LENGTH_MEASURE( 1.000000000000000082E-05 ), #94, 'distance_accuracy_value', 'NONE');
#166 = LENGTH_MEASURE_WITH_UNIT ( LENGTH_MEASURE( 0.02539999999999999897 ), #14 );
#167 = PRODUCT_DEFINITION_SHAPE ( 'NONE', 'NONE',  #55 ) ;
#168 = APPLICATION_CONTEXT ( 'automotive_design' ) ;
#169 = EDGE_LOOP ( 'NONE', ( #223, #247, #183, #46 ) ) ;
#170 = CARTESIAN_POINT ( 'NONE',  ( 0.000000000000000000, 3.250000000000000000, 0.000000000000000000 ) ) ;
#171 = FILL_AREA_STYLE ('',( #199 ) ) ;
#172 = AXIS2_PLACEMENT_3D ( 'NONE', #218, #282, #189 ) ;
#173 = CIRCLE ( 'NONE', #97, 0.3750000000000000555 ) ;
#174 = DIRECTION ( 'NONE',  ( -0.000000000000000000, -1.000000000000000000, -0.000000000000000000 ) ) ;
#175 = EDGE_CURVE ( 'NONE', #62, #181, #132, .T. ) ;
#176 = DIMENSIONAL_EXPONENTS ( 1.000000000000000000, 0.000000000000000000, 0.000000000000000000, 0.000000000000000000, 0.000000000000000000, 0.000000000000000000, 0.000000000000000000 ) ;
#177 = SURFACE_SIDE_STYLE ('',( #79 ) ) ;
#178 = CARTESIAN_POINT ( 'NONE',  ( 0.3749999999999999445, 6.000000000000000888, 4.592425496802576068E-17 ) ) ;
#179 = ORIENTED_EDGE ( 'NONE', *, *, #175, .T. ) ;
#180 = FACE_OUTER_BOUND ( 'NONE', #154, .T. ) ;
#181 = VERTEX_POINT ( 'NONE', #28 ) ;
#182 = EDGE_CURVE ( 'NONE', #133, #17, #127, .T. ) ;
#183 = ORIENTED_EDGE ( 'NONE', *, *, #196, .T. ) ;
#184 =( LENGTH_UNIT ( ) NAMED_UNIT ( * ) SI_UNIT ( $, .METRE. ) );
#185 = PRESENTATION_LAYER_ASSIGNMENT (  '', '', ( #143 ) ) ;
#186 =( NAMED_UNIT ( * ) PLANE_ANGLE_UNIT ( ) SI_UNIT ( $, .RADIAN. ) );
#187 =( NAMED_UNIT ( * ) SI_UNIT ( $, .STERADIAN. ) SOLID_ANGLE_UNIT ( ) );
#188 = LENGTH_MEASURE_WITH_UNIT ( LENGTH_MEASURE( 0.02539999999999999897 ), #184 );
#189 = DIRECTION ( 'NONE',  ( 0.000000000000000000, 0.000000000000000000, -1.000000000000000000 ) ) ;
#190 = EDGE_CURVE ( 'NONE', #109, #17, #288, .T. ) ;
#191 =( CONVERSION_BASED_UNIT ( 'INCH', #259 ) LENGTH_UNIT ( ) NAMED_UNIT ( #40 ) );
#192 =( CONVERSION_BASED_UNIT ( 'INCH', #160 ) LENGTH_UNIT ( ) NAMED_UNIT ( #126 ) );
#193 = PRESENTATION_LAYER_ASSIGNMENT (  '', '', ( #100 ) ) ;
#194 = CARTESIAN_POINT ( 'NONE',  ( -0.3750000000000000555, 3.250000000000000000, 0.000000000000000000 ) ) ;
#195 = ORIENTED_EDGE ( 'NONE', *, *, #157, .F. ) ;
#196 = EDGE_CURVE ( 'NONE', #248, #116, #211, .T. ) ;
#197 = SURFACE_SIDE_STYLE ('',( #51 ) ) ;
#198 = ORIENTED_EDGE ( 'NONE', *, *, #182, .F. ) ;
#199 = FILL_AREA_STYLE_COLOUR ( '', #201 ) ;
#200 = CARTESIAN_POINT ( 'NONE',  ( -1.224646799147354440E-16, 6.000000000000000888, 0.000000000000000000 ) ) ;
#201 = COLOUR_RGB ( '',1.000000000000000000, 0.000000000000000000, 0.000000000000000000 ) ;
#202 =( GEOMETRIC_REPRESENTATION_CONTEXT ( 3 ) GLOBAL_UNCERTAINTY_ASSIGNED_CONTEXT ( ( #302 ) ) GLOBAL_UNIT_ASSIGNED_CONTEXT ( ( #125, #254, #65 ) ) REPRESENTATION_CONTEXT ( 'NONE', 'WORKASPACE' ) );
#203 = FILL_AREA_STYLE ('',( #102 ) ) ;
#204 = DIRECTION ( 'NONE',  ( -4.453261087808560759E-17, 1.000000000000000000, -0.000000000000000000 ) ) ;
#205 = FILL_AREA_STYLE ('',( #287 ) ) ;
#206 = CARTESIAN_POINT ( 'NONE',  ( 0.3750000000000000555, 6.000000000000000888, 0.000000000000000000 ) ) ;
#207 = FILL_AREA_STYLE_COLOUR ( '', #292 ) ;
#208 = SHAPE_DEFINITION_REPRESENTATION ( #167, #249 ) ;
#209 = MECHANICAL_DESIGN_GEOMETRIC_PRESENTATION_REPRESENTATION (  '', ( #305 ), #80 ) ;
#210 = DIMENSIONAL_EXPONENTS ( 1.000000000000000000, 0.000000000000000000, 0.000000000000000000, 0.000000000000000000, 0.000000000000000000, 0.000000000000000000, 0.000000000000000000 ) ;
#211 = LINE ( 'NONE', #5, #152 ) ;
#212 = ADVANCED_FACE ( 'NONE', ( #180 ), #266, .T. ) ;
#213 = SURFACE_STYLE_FILL_AREA ( #238 ) ;
#214 = STYLED_ITEM ( 'NONE', ( #27 ), #58 ) ;
#215 = PRODUCT_DEFINITION_CONTEXT ( 'detailed design', #70, 'design' ) ;
#216 = EDGE_CURVE ( 'NONE', #116, #181, #96, .T. ) ;
#217 = ORIENTED_EDGE ( 'NONE', *, *, #190, .T. ) ;
#218 = CARTESIAN_POINT ( 'NONE',  ( 0.000000000000000000, 0.000000000000000000, 0.000000000000000000 ) ) ;
#219 = CARTESIAN_POINT ( 'NONE',  ( -1.224646799147354440E-16, 6.000000000000000888, 0.000000000000000000 ) ) ;
#220 = COLOUR_RGB ( '',0.7921568627450980005, 0.8196078431372548767, 0.9333333333333333481 ) ;
#221 = DIRECTION ( 'NONE',  ( -1.000000000000000000, 0.000000000000000000, 0.000000000000000000 ) ) ;
#222 = PRODUCT_DEFINITION_FORMATION_WITH_SPECIFIED_SOURCE ( 'ANY', '', #29, .NOT_KNOWN. ) ;
#223 = ORIENTED_EDGE ( 'NONE', *, *, #175, .F. ) ;
#224 = FACE_OUTER_BOUND ( 'NONE', #93, .T. ) ;
#225 = CLOSED_SHELL ( 'NONE', ( #30, #42, #78, #212 ) ) ;
#226 = COLOUR_RGB ( '',1.000000000000000000, 0.000000000000000000, 0.000000000000000000 ) ;
#227 = CARTESIAN_POINT ( 'NONE',  ( 0.000000000000000000, 3.250000000000000000, 0.000000000000000000 ) ) ;
#228 = FILL_AREA_STYLE_COLOUR ( '', #220 ) ;
#229 = SURFACE_STYLE_USAGE ( .BOTH. , #197 ) ;
#230 = DIRECTION ( 'NONE',  ( -0.000000000000000000, -1.000000000000000000, -0.000000000000000000 ) ) ;
#231 = AXIS2_PLACEMENT_3D ( 'NONE', #244, #119, #20 ) ;
#232 = DIRECTION ( 'NONE',  ( 0.000000000000000000, -0.000000000000000000, 1.000000000000000000 ) ) ;
#233 = UNCERTAINTY_MEASURE_WITH_UNIT (LENGTH_MEASURE( 1.000000000000000082E-05 ), #19, 'distance_accuracy_value', 'NONE');
#234 = SURFACE_SIDE_STYLE ('',( #4 ) ) ;
#235 =( NAMED_UNIT ( * ) PLANE_ANGLE_UNIT ( ) SI_UNIT ( $, .RADIAN. ) );
#236 = CARTESIAN_POINT ( 'NONE',  ( 0.000000000000000000, 0.000000000000000000, -0.3750000000000000555 ) ) ;
#237 = ORIENTED_EDGE ( 'NONE', *, *, #295, .F. ) ;
#238 = FILL_AREA_STYLE ('',( #107 ) ) ;
#239 = AXIS2_PLACEMENT_3D ( 'NONE', #227, #2, #74 ) ;
#240 = PRODUCT_CONTEXT ( 'NONE', #168, 'mechanical' ) ;
#241 = ORIENTED_EDGE ( 'NONE', *, *, #10, .F. ) ;
#242 =( GEOMETRIC_REPRESENTATION_CONTEXT ( 3 ) GLOBAL_UNCERTAINTY_ASSIGNED_CONTEXT ( ( #112 ) ) GLOBAL_UNIT_ASSIGNED_CONTEXT ( ( #191, #163, #141 ) ) REPRESENTATION_CONTEXT ( 'NONE', 'WORKASPACE' ) );
#243 = SURFACE_SIDE_STYLE ('',( #138 ) ) ;
#244 = CARTESIAN_POINT ( 'NONE',  ( 0.000000000000000000, 0.000000000000000000, 0.000000000000000000 ) ) ;
#245 = DIRECTION ( 'NONE',  ( -1.000000000000000000, 0.000000000000000000, 0.000000000000000000 ) ) ;
#246 = UNCERTAINTY_MEASURE_WITH_UNIT (LENGTH_MEASURE( 1.000000000000000082E-05 ), #153, 'distance_accuracy_value', 'NONE');
#247 = ORIENTED_EDGE ( 'NONE', *, *, #275, .T. ) ;
#248 = VERTEX_POINT ( 'NONE', #194 ) ;
#249 = ADVANCED_BREP_SHAPE_REPRESENTATION ( '30692W', ( #58, #274, #88 ), #202 ) ;
#250 =( GEOMETRIC_REPRESENTATION_CONTEXT ( 3 ) GLOBAL_UNCERTAINTY_ASSIGNED_CONTEXT ( ( #142 ) ) GLOBAL_UNIT_ASSIGNED_CONTEXT ( ( #192, #273, #103 ) ) REPRESENTATION_CONTEXT ( 'NONE', 'WORKASPACE' ) );
#251 = EDGE_CURVE ( 'NONE', #248, #62, #257, .T. ) ;
#252 = VECTOR ( 'NONE', #34, 39.37007874015748143 ) ;
#253 = DIRECTION ( 'NONE',  ( 0.000000000000000000, 1.000000000000000000, 0.000000000000000000 ) ) ;
#254 =( NAMED_UNIT ( * ) PLANE_ANGLE_UNIT ( ) SI_UNIT ( $, .RADIAN. ) );
#255 = FACE_OUTER_BOUND ( 'NONE', #43, .T. ) ;
#256 = DIRECTION ( 'NONE',  ( -0.000000000000000000, -1.000000000000000000, -0.000000000000000000 ) ) ;
#257 = CIRCLE ( 'NONE', #114, 0.3750000000000000555 ) ;
#258 = ORIENTED_EDGE ( 'NONE', *, *, #251, .T. ) ;
#259 = LENGTH_MEASURE_WITH_UNIT ( LENGTH_MEASURE( 0.02539999999999999897 ), #267 );
#260 = VECTOR ( 'NONE', #230, 39.37007874015748143 ) ;
#261 = APPLICATION_PROTOCOL_DEFINITION ( 'draft international standard', 'automotive_design', 1998, #168 ) ;
#262 = FACE_OUTER_BOUND ( 'NONE', #169, .T. ) ;
#263 = CARTESIAN_POINT ( 'NONE',  ( 0.3750000000000000555, 3.250000000000000000, 4.592425496802576684E-17 ) ) ;
#264 = CARTESIAN_POINT ( 'NONE',  ( 3.718412684285603637E-34, 3.250000000000000000, 0.000000000000000000 ) ) ;
#265 = AXIS2_PLACEMENT_3D ( 'NONE', #139, #290, #245 ) ;
#266 = PLANE ( 'NONE',  #231 ) ;
#267 =( LENGTH_UNIT ( ) NAMED_UNIT ( * ) SI_UNIT ( $, .METRE. ) );
#268 = PRESENTATION_STYLE_ASSIGNMENT (( #136 ) ) ;
#269 = CYLINDRICAL_SURFACE ( 'NONE', #68, 0.3750000000000001110 ) ;
#270 = COLOUR_RGB ( '',1.000000000000000000, 0.000000000000000000, 0.000000000000000000 ) ;
#271 = FACE_OUTER_BOUND ( 'NONE', #86, .T. ) ;
#272 = DIRECTION ( 'NONE',  ( -4.453261087808560759E-17, 1.000000000000000000, -0.000000000000000000 ) ) ;
#273 =( NAMED_UNIT ( * ) PLANE_ANGLE_UNIT ( ) SI_UNIT ( $, .RADIAN. ) );
#274 = MANIFOLD_SOLID_BREP ( 'Revolve - Tool Body (Straight Shanked)', #155 ) ;
#275 = EDGE_CURVE ( 'NONE', #62, #248, #173, .T. ) ;
#276 =( LENGTH_UNIT ( ) NAMED_UNIT ( * ) SI_UNIT ( $, .METRE. ) );
#277 = APPLICATION_PROTOCOL_DEFINITION ( 'draft international standard', 'automotive_design', 1998, #70 ) ;
#278 = DIRECTION ( 'NONE',  ( 0.000000000000000000, 0.000000000000000000, -1.000000000000000000 ) ) ;
#279 = PLANE ( 'NONE',  #48 ) ;
#280 = PRESENTATION_LAYER_ASSIGNMENT (  '', '', ( #16 ) ) ;
#281 = DIRECTION ( 'NONE',  ( 0.000000000000000000, 0.000000000000000000, -1.000000000000000000 ) ) ;
#282 = DIRECTION ( 'NONE',  ( -0.000000000000000000, -1.000000000000000000, -0.000000000000000000 ) ) ;
#283 = AXIS2_PLACEMENT_3D ( 'NONE', #200, #293, #72 ) ;
#284 =( LENGTH_UNIT ( ) NAMED_UNIT ( * ) SI_UNIT ( $, .METRE. ) );
#285 = ORIENTED_EDGE ( 'NONE', *, *, #275, .F. ) ;
#286 =( NAMED_UNIT ( * ) SI_UNIT ( $, .STERADIAN. ) SOLID_ANGLE_UNIT ( ) );
#287 = FILL_AREA_STYLE_COLOUR ( '', #226 ) ;
#288 = CIRCLE ( 'NONE', #144, 0.3750000000000000555 ) ;
#289 = DIRECTION ( 'NONE',  ( -4.453261087808560759E-17, 1.000000000000000000, -0.000000000000000000 ) ) ;
#290 = DIRECTION ( 'NONE',  ( -4.453261087808560759E-17, 1.000000000000000000, -0.000000000000000000 ) ) ;
#291 = ORIENTED_EDGE ( 'NONE', *, *, #182, .T. ) ;
#292 = COLOUR_RGB ( '',0.7921568627450980005, 0.8196078431372548767, 0.9333333333333333481 ) ;
#293 = DIRECTION ( 'NONE',  ( -4.453261087808560759E-17, 1.000000000000000000, -0.000000000000000000 ) ) ;
#294 = SURFACE_STYLE_USAGE ( .BOTH. , #177 ) ;
#295 = EDGE_CURVE ( 'NONE', #22, #133, #145, .T. ) ;
#296 = PRESENTATION_LAYER_ASSIGNMENT (  '', '', ( #214 ) ) ;
#297 = CARTESIAN_POINT ( 'NONE',  ( 0.000000000000000000, 3.250000000000000000, 0.000000000000000000 ) ) ;
#298 = ORIENTED_EDGE ( 'NONE', *, *, #148, .T. ) ;
#299 = SURFACE_STYLE_USAGE ( .BOTH. , #1 ) ;
#300 = DIRECTION ( 'NONE',  ( 0.000000000000000000, 0.000000000000000000, -1.000000000000000000 ) ) ;
#301 = DIMENSIONAL_EXPONENTS ( 1.000000000000000000, 0.000000000000000000, 0.000000000000000000, 0.000000000000000000, 0.000000000000000000, 0.000000000000000000, 0.000000000000000000 ) ;
#302 = UNCERTAINTY_MEASURE_WITH_UNIT (LENGTH_MEASURE( 1.000000000000000082E-05 ), #125, 'distance_accuracy_value', 'NONE');
#303 = FACE_OUTER_BOUND ( 'NONE', #71, .T. ) ;
#304 = ORIENTED_EDGE ( 'NONE', *, *, #216, .F. ) ;
#305 = STYLED_ITEM ( 'NONE', ( #268 ), #78 ) ;
#306 = MECHANICAL_DESIGN_GEOMETRIC_PRESENTATION_REPRESENTATION (  '', ( #16 ), #250 ) ;
#307 = PRODUCT_RELATED_PRODUCT_CATEGORY ( 'part', '', ( #29 ) ) ;
#308 = DIRECTION ( 'NONE',  ( -4.453261087808560759E-17, 1.000000000000000000, -0.000000000000000000 ) ) ;
#309 = PRESENTATION_LAYER_ASSIGNMENT (  '', '', ( #305 ) ) ;
ENDSEC;
END-ISO-10303-21;
