ISO-10303-21;
HEADER;
FILE_DESCRIPTION (( 'STEP AP214' ),
    '1' );
FILE_NAME ('Micro_BMSM-018-2.STEP',
    '2021-09-03T15:52:39',
    ( '' ),
    ( '' ),
    'SwSTEP 2.0',
    'SolidWorks 2020',
    '' );
FILE_SCHEMA (( 'AUTOMOTIVE_DESIGN' ));
ENDSEC;

DATA;
#1 = ORIENTED_EDGE ( 'NONE', *, *, #255, .T. ) ;
#2 = AXIS2_PLACEMENT_3D ( 'NONE', #98, #222, #149 ) ;
#3 = SURFACE_SIDE_STYLE ('',( #225 ) ) ;
#4 = VERTEX_POINT ( 'NONE', #284 ) ;
#5 = VERTEX_POINT ( 'NONE', #307 ) ;
#6 = DIRECTION ( 'NONE',  ( -1.224646799147353207E-16, -0.0000000000000000000, -1.000000000000000000 ) ) ;
#7 = ORIENTED_EDGE ( 'NONE', *, *, #294, .T. ) ;
#8 = CARTESIAN_POINT ( 'NONE',  ( 4.334951712415397505E-18, 0.0000000000000000000, 0.03539756699999999784 ) ) ;
#9 = CARTESIAN_POINT ( 'NONE',  ( 4.334951712415397505E-18, 0.0000000000000000000, 0.03539756699999999784 ) ) ;
#10 = FACE_OUTER_BOUND ( 'NONE', #24, .T. ) ;
#11 = AXIS2_PLACEMENT_3D ( 'NONE', #12, #35, #134 ) ;
#12 = CARTESIAN_POINT ( 'NONE',  ( 0.0000000000000000000, 0.0000000000000000000, 1.496062999999999921 ) ) ;
#13 = DIRECTION ( 'NONE',  ( -0.0000000000000000000, -0.0000000000000000000, -1.000000000000000000 ) ) ;
#14 = CARTESIAN_POINT ( 'NONE',  ( 0.05905500000000000332, 7.232151672364695422E-18, 1.496062999999999921 ) ) ;
#15 = CIRCLE ( 'NONE', #145, 0.05905500000000000332 ) ;
#16 = CARTESIAN_POINT ( 'NONE',  ( 4.334951712415397505E-18, 0.0000000000000000000, 0.03539756699999999784 ) ) ;
#17 = SHAPE_DEFINITION_REPRESENTATION ( #69, #107 ) ;
#18 = ORIENTED_EDGE ( 'NONE', *, *, #182, .T. ) ;
#19 = ADVANCED_FACE ( 'NONE', ( #156 ), #176, .T. ) ;
#20 = DIRECTION ( 'NONE',  ( -0.7071067811865482389, 0.0000000000000000000, -0.7071067811865469066 ) ) ;
#21 = ORIENTED_EDGE ( 'NONE', *, *, #157, .T. ) ;
#22 = STYLED_ITEM ( 'NONE', ( #258 ), #117 ) ;
#23 = AXIS2_PLACEMENT_3D ( 'NONE', #96, #144, #49 ) ;
#24 = EDGE_LOOP ( 'NONE', ( #146, #150, #79, #273 ) ) ;
#25 = ORIENTED_EDGE ( 'NONE', *, *, #66, .T. ) ;
#26 = EDGE_LOOP ( 'NONE', ( #85, #123, #148, #179 ) ) ;
#27 = CIRCLE ( 'NONE', #177, 0.03539756699999999784 ) ;
#28 = ADVANCED_FACE ( 'NONE', ( #81 ), #202, .T. ) ;
#29 =( CONVERSION_BASED_UNIT ( 'INCH', #203 ) LENGTH_UNIT ( ) NAMED_UNIT ( #34 ) );
#30 =( NAMED_UNIT ( * ) PLANE_ANGLE_UNIT ( ) SI_UNIT ( $, .RADIAN. ) );
#31 = DIRECTION ( 'NONE',  ( 1.000000000000000000, 0.0000000000000000000, 0.0000000000000000000 ) ) ;
#32 = DIRECTION ( 'NONE',  ( 0.0000000000000000000, 0.0000000000000000000, -1.000000000000000000 ) ) ;
#33 = CARTESIAN_POINT ( 'NONE',  ( 1.301787301025644899E-17, 0.0000000000000000000, 0.1062990000000000046 ) ) ;
#34 = DIMENSIONAL_EXPONENTS ( 1.000000000000000000, 0.0000000000000000000, 0.0000000000000000000, 0.0000000000000000000, 0.0000000000000000000, 0.0000000000000000000, 0.0000000000000000000 ) ;
#35 = DIRECTION ( 'NONE',  ( 0.0000000000000000000, 0.0000000000000000000, 1.000000000000000000 ) ) ;
#36 = MECHANICAL_DESIGN_GEOMETRIC_PRESENTATION_REPRESENTATION (  '', ( #22 ), #210 ) ;
#37 = AXIS2_PLACEMENT_3D ( 'NONE', #33, #106, #83 ) ;
#38 = CARTESIAN_POINT ( 'NONE',  ( 1.301787301025644899E-17, 0.0000000000000000000, 0.1062990000000000046 ) ) ;
#39 = CIRCLE ( 'NONE', #245, 0.05905500000000000332 ) ;
#40 = DIRECTION ( 'NONE',  ( 0.0000000000000000000, 0.0000000000000000000, 1.000000000000000000 ) ) ;
#41 = DIRECTION ( 'NONE',  ( -1.000000000000000000, 0.0000000000000000000, 0.0000000000000000000 ) ) ;
#42 = PLANE ( 'NONE',  #11 ) ;
#43 = DIRECTION ( 'NONE',  ( 1.000000000000000000, 0.0000000000000000000, 0.0000000000000000000 ) ) ;
#44 = DIRECTION ( 'NONE',  ( -0.0000000000000000000, -0.0000000000000000000, -1.000000000000000000 ) ) ;
#45 = AXIS2_PLACEMENT_3D ( 'NONE', #295, #77, #168 ) ;
#46 = PRESENTATION_STYLE_ASSIGNMENT (( #103 ) ) ;
#47 = CARTESIAN_POINT ( 'NONE',  ( 0.04405499999999973326, 5.395181473643630390E-18, 1.496062999999999921 ) ) ;
#48 = EDGE_LOOP ( 'NONE', ( #243, #21, #200, #299 ) ) ;
#49 = DIRECTION ( 'NONE',  ( -1.000000000000000000, 0.0000000000000000000, 0.0000000000000000000 ) ) ;
#50 = EDGE_LOOP ( 'NONE', ( #118, #97, #194, #73 ) ) ;
#51 = ORIENTED_EDGE ( 'NONE', *, *, #180, .F. ) ;
#52 = EDGE_CURVE ( 'NONE', #301, #201, #15, .T. ) ;
#53 = ORIENTED_EDGE ( 'NONE', *, *, #265, .F. ) ;
#54 = CIRCLE ( 'NONE', #2, 0.05905500000000000332 ) ;
#55 = EDGE_CURVE ( 'NONE', #101, #121, #209, .T. ) ;
#56 = DIRECTION ( 'NONE',  ( 1.000000000000000000, 0.0000000000000000000, 0.0000000000000000000 ) ) ;
#57 = AXIS2_PLACEMENT_3D ( 'NONE', #89, #113, #158 ) ;
#58 = DIRECTION ( 'NONE',  ( 1.000000000000000000, 0.0000000000000000000, 0.0000000000000000000 ) ) ;
#59 = DIMENSIONAL_EXPONENTS ( 1.000000000000000000, 0.0000000000000000000, 0.0000000000000000000, 0.0000000000000000000, 0.0000000000000000000, 0.0000000000000000000, 0.0000000000000000000 ) ;
#60 = DIRECTION ( 'NONE',  ( -0.1736481776669311639, 2.126576849575783008E-17, 0.9848077530122080203 ) ) ;
#61 = CARTESIAN_POINT ( 'NONE',  ( -0.03539756699999998396, 4.334951712415397505E-18, 0.1062990000000000046 ) ) ;
#62 = AXIS2_PLACEMENT_3D ( 'NONE', #312, #40, #43 ) ;
#63 = CYLINDRICAL_SURFACE ( 'NONE', #109, 0.03539756699999999784 ) ;
#64 = LINE ( 'NONE', #14, #169 ) ;
#65 = CARTESIAN_POINT ( 'NONE',  ( 0.0000000000000000000, 0.0000000000000000000, 1.496062999999999921 ) ) ;
#66 = EDGE_CURVE ( 'NONE', #4, #71, #305, .T. ) ;
#67 = AXIS2_PLACEMENT_3D ( 'NONE', #153, #154, #31 ) ;
#68 = VECTOR ( 'NONE', #286, 39.37007874015748143 ) ;
#69 = PRODUCT_DEFINITION_SHAPE ( 'NONE', 'NONE',  #126 ) ;
#70 =( CONVERSION_BASED_UNIT ( 'INCH', #193 ) LENGTH_UNIT ( ) NAMED_UNIT ( #88 ) );
#71 = VERTEX_POINT ( 'NONE', #282 ) ;
#72 = APPLICATION_PROTOCOL_DEFINITION ( 'draft international standard', 'automotive_design', 1998, #259 ) ;
#73 = ORIENTED_EDGE ( 'NONE', *, *, #294, .F. ) ;
#74 = CARTESIAN_POINT ( 'NONE',  ( -0.04405499999999973326, 0.0000000000000000000, 1.496062999999999921 ) ) ;
#75 = ORIENTED_EDGE ( 'NONE', *, *, #320, .F. ) ;
#76 = AXIS2_PLACEMENT_3D ( 'NONE', #211, #44, #41 ) ;
#77 = DIRECTION ( 'NONE',  ( 0.0000000000000000000, 0.0000000000000000000, 1.000000000000000000 ) ) ;
#78 = ORIENTED_EDGE ( 'NONE', *, *, #318, .F. ) ;
#79 = ORIENTED_EDGE ( 'NONE', *, *, #265, .T. ) ;
#80 = UNCERTAINTY_MEASURE_WITH_UNIT (LENGTH_MEASURE( 1.000000000000000082E-05 ), #249, 'distance_accuracy_value', 'NONE');
#81 = FACE_OUTER_BOUND ( 'NONE', #233, .T. ) ;
#82 = CIRCLE ( 'NONE', #266, 0.03539756699999999784 ) ;
#83 = DIRECTION ( 'NONE',  ( 1.000000000000000000, 0.0000000000000000000, 0.0000000000000000000 ) ) ;
#84 = SURFACE_STYLE_USAGE ( .BOTH. , #130 ) ;
#85 = ORIENTED_EDGE ( 'NONE', *, *, #320, .T. ) ;
#86 = PRESENTATION_LAYER_ASSIGNMENT (  '', '', ( #279 ) ) ;
#87 = CARTESIAN_POINT ( 'NONE',  ( 6.502427568623096257E-18, 0.0000000000000000000, 0.0000000000000000000 ) ) ;
#88 = DIMENSIONAL_EXPONENTS ( 1.000000000000000000, 0.0000000000000000000, 0.0000000000000000000, 0.0000000000000000000, 0.0000000000000000000, 0.0000000000000000000, 0.0000000000000000000 ) ;
#89 = CARTESIAN_POINT ( 'NONE',  ( 0.0000000000000000000, 0.0000000000000000000, 1.496062999999999921 ) ) ;
#90 = LINE ( 'NONE', #285, #68 ) ;
#91 = PRESENTATION_LAYER_ASSIGNMENT (  '', '', ( #22 ) ) ;
#92 = CARTESIAN_POINT ( 'NONE',  ( 0.03539756700000001172, 0.0000000000000000000, 0.1062990000000000046 ) ) ;
#93 = LINE ( 'NONE', #92, #114 ) ;
#94 = FACE_OUTER_BOUND ( 'NONE', #302, .T. ) ;
#95 =( NAMED_UNIT ( * ) SI_UNIT ( $, .STERADIAN. ) SOLID_ANGLE_UNIT ( ) );
#96 = CARTESIAN_POINT ( 'NONE',  ( 1.301787301025644899E-17, 0.0000000000000000000, 0.1062990000000000046 ) ) ;
#97 = ORIENTED_EDGE ( 'NONE', *, *, #318, .T. ) ;
#98 = CARTESIAN_POINT ( 'NONE',  ( 2.944871047091396946E-17, 0.0000000000000000000, 0.2404669696717233462 ) ) ;
#99 = EDGE_CURVE ( 'NONE', #228, #132, #230, .T. ) ;
#100 =( LENGTH_UNIT ( ) NAMED_UNIT ( * ) SI_UNIT ( $, .METRE. ) );
#101 = VERTEX_POINT ( 'NONE', #87 ) ;
#102 = VECTOR ( 'NONE', #20, 39.37007874015748143 ) ;
#103 = SURFACE_STYLE_USAGE ( .BOTH. , #3 ) ;
#104 = SURFACE_STYLE_FILL_AREA ( #231 ) ;
#105 = ORIENTED_EDGE ( 'NONE', *, *, #124, .F. ) ;
#106 = DIRECTION ( 'NONE',  ( 1.224646799147353207E-16, 0.0000000000000000000, 1.000000000000000000 ) ) ;
#107 = ADVANCED_BREP_SHAPE_REPRESENTATION ( 'Micro_BMSM-018-2', ( #117, #62 ), #155 ) ;
#108 = DIRECTION ( 'NONE',  ( -1.000000000000000000, 1.224646799147353207E-16, 0.0000000000000000000 ) ) ;
#109 = AXIS2_PLACEMENT_3D ( 'NONE', #239, #311, #215 ) ;
#110 = DIRECTION ( 'NONE',  ( -1.000000000000000000, 0.0000000000000000000, 0.0000000000000000000 ) ) ;
#111 = ADVANCED_FACE ( 'NONE', ( #175 ), #133, .T. ) ;
#112 = DIRECTION ( 'NONE',  ( -1.224646799147353207E-16, -0.0000000000000000000, -1.000000000000000000 ) ) ;
#113 = DIRECTION ( 'NONE',  ( 0.0000000000000000000, 0.0000000000000000000, -1.000000000000000000 ) ) ;
#114 = VECTOR ( 'NONE', #213, 39.37007874015748143 ) ;
#115 = DIRECTION ( 'NONE',  ( 1.000000000000000000, 0.0000000000000000000, 0.0000000000000000000 ) ) ;
#116 = DIRECTION ( 'NONE',  ( 0.0000000000000000000, 0.0000000000000000000, 1.000000000000000000 ) ) ;
#117 = MANIFOLD_SOLID_BREP ( 'Fillet1', #206 ) ;
#118 = ORIENTED_EDGE ( 'NONE', *, *, #255, .F. ) ;
#119 = ADVANCED_FACE ( 'NONE', ( #212 ), #181, .T. ) ;
#120 = VECTOR ( 'NONE', #319, 39.37007874015748143 ) ;
#121 = VERTEX_POINT ( 'NONE', #186 ) ;
#122 = ORIENTED_EDGE ( 'NONE', *, *, #191, .T. ) ;
#123 = ORIENTED_EDGE ( 'NONE', *, *, #99, .T. ) ;
#124 = EDGE_CURVE ( 'NONE', #172, #71, #185, .T. ) ;
#125 = FILL_AREA_STYLE ('',( #253 ) ) ;
#126 = PRODUCT_DEFINITION ( 'UNKNOWN', '', #287, #272 ) ;
#127 = ORIENTED_EDGE ( 'NONE', *, *, #306, .F. ) ;
#128 = MECHANICAL_DESIGN_GEOMETRIC_PRESENTATION_REPRESENTATION (  '', ( #279 ), #204 ) ;
#129 = ORIENTED_EDGE ( 'NONE', *, *, #55, .F. ) ;
#130 = SURFACE_SIDE_STYLE ('',( #104 ) ) ;
#131 = CIRCLE ( 'NONE', #293, 0.04405499999999973326 ) ;
#132 = VERTEX_POINT ( 'NONE', #214 ) ;
#133 = CYLINDRICAL_SURFACE ( 'NONE', #274, 0.03539756699999999784 ) ;
#134 = DIRECTION ( 'NONE',  ( 1.000000000000000000, 0.0000000000000000000, -0.0000000000000000000 ) ) ;
#135 = CIRCLE ( 'NONE', #256, 0.03539756699999999784 ) ;
#136 = CARTESIAN_POINT ( 'NONE',  ( -0.03539756699999998396, 5.783551692390045693E-18, 0.1062990000000000046 ) ) ;
#137 = DIRECTION ( 'NONE',  ( 1.000000000000000000, 0.0000000000000000000, 0.0000000000000000000 ) ) ;
#138 = CARTESIAN_POINT ( 'NONE',  ( 0.03539756700000001172, 0.0000000000000000000, 0.1062990000000000046 ) ) ;
#139 = CIRCLE ( 'NONE', #23, 0.03539756699999999784 ) ;
#140 = DIRECTION ( 'NONE',  ( 0.0000000000000000000, -1.000000000000000000, 0.0000000000000000000 ) ) ;
#141 = APPLICATION_PROTOCOL_DEFINITION ( 'draft international standard', 'automotive_design', 1998, #289 ) ;
#142 = EDGE_CURVE ( 'NONE', #121, #132, #27, .T. ) ;
#143 = DIRECTION ( 'NONE',  ( -0.0000000000000000000, -0.0000000000000000000, -1.000000000000000000 ) ) ;
#144 = DIRECTION ( 'NONE',  ( -1.224646799147353207E-16, -0.0000000000000000000, -1.000000000000000000 ) ) ;
#145 = AXIS2_PLACEMENT_3D ( 'NONE', #308, #32, #56 ) ;
#146 = ORIENTED_EDGE ( 'NONE', *, *, #191, .F. ) ;
#147 = DIRECTION ( 'NONE',  ( 1.000000000000000000, 0.0000000000000000000, 0.0000000000000000000 ) ) ;
#148 = ORIENTED_EDGE ( 'NONE', *, *, #306, .T. ) ;
#149 = DIRECTION ( 'NONE',  ( 1.000000000000000000, 0.0000000000000000000, 0.0000000000000000000 ) ) ;
#150 = ORIENTED_EDGE ( 'NONE', *, *, #252, .T. ) ;
#151 =( LENGTH_UNIT ( ) NAMED_UNIT ( * ) SI_UNIT ( $, .METRE. ) );
#152 = AXIS2_PLACEMENT_3D ( 'NONE', #288, #159, #115 ) ;
#153 = CARTESIAN_POINT ( 'NONE',  ( 2.944871047091396946E-17, 0.0000000000000000000, 0.2404669696717233462 ) ) ;
#154 = DIRECTION ( 'NONE',  ( -1.224646799147353207E-16, -0.0000000000000000000, -1.000000000000000000 ) ) ;
#155 =( GEOMETRIC_REPRESENTATION_CONTEXT ( 3 ) GLOBAL_UNCERTAINTY_ASSIGNED_CONTEXT ( ( #80 ) ) GLOBAL_UNIT_ASSIGNED_CONTEXT ( ( #249, #292, #198 ) ) REPRESENTATION_CONTEXT ( 'NONE', 'WORKASPACE' ) );
#156 = FACE_OUTER_BOUND ( 'NONE', #278, .T. ) ;
#157 = EDGE_CURVE ( 'NONE', #228, #172, #82, .T. ) ;
#158 = DIRECTION ( 'NONE',  ( -1.000000000000000000, 0.0000000000000000000, 0.0000000000000000000 ) ) ;
#159 = DIRECTION ( 'NONE',  ( 1.224646799147353207E-16, 0.0000000000000000000, 1.000000000000000000 ) ) ;
#160 = DIRECTION ( 'NONE',  ( -1.000000000000000000, 0.0000000000000000000, 0.0000000000000000000 ) ) ;
#161 = CARTESIAN_POINT ( 'NONE',  ( 0.04405499999999973326, 6.313666573004162521E-18, 1.496062999999999921 ) ) ;
#162 = DIRECTION ( 'NONE',  ( 1.224646799147353207E-16, 0.0000000000000000000, 1.000000000000000000 ) ) ;
#163 = VECTOR ( 'NONE', #60, 39.37007874015747433 ) ;
#164 =( LENGTH_UNIT ( ) NAMED_UNIT ( * ) SI_UNIT ( $, .METRE. ) );
#165 = ADVANCED_FACE ( 'NONE', ( #10 ), #316, .T. ) ;
#166 = DIRECTION ( 'NONE',  ( 1.000000000000000000, 0.0000000000000000000, 0.0000000000000000000 ) ) ;
#167 = ORIENTED_EDGE ( 'NONE', *, *, #142, .F. ) ;
#168 = DIRECTION ( 'NONE',  ( 1.000000000000000000, 0.0000000000000000000, 0.0000000000000000000 ) ) ;
#169 = VECTOR ( 'NONE', #13, 39.37007874015748143 ) ;
#170 = EDGE_LOOP ( 'NONE', ( #129, #298, #167 ) ) ;
#171 = DIRECTION ( 'NONE',  ( 1.224646799147353207E-16, 0.0000000000000000000, 1.000000000000000000 ) ) ;
#172 = VERTEX_POINT ( 'NONE', #136 ) ;
#173 = ORIENTED_EDGE ( 'NONE', *, *, #55, .T. ) ;
#174 = EDGE_CURVE ( 'NONE', #172, #121, #90, .T. ) ;
#175 = FACE_OUTER_BOUND ( 'NONE', #48, .T. ) ;
#176 = CONICAL_SURFACE ( 'NONE', #37, 0.03539756699999999784, 0.1745329251994338637 ) ;
#177 = AXIS2_PLACEMENT_3D ( 'NONE', #16, #162, #268 ) ;
#178 = CARTESIAN_POINT ( 'NONE',  ( 0.0000000000000000000, 0.0000000000000000000, 0.0000000000000000000 ) ) ;
#179 = ORIENTED_EDGE ( 'NONE', *, *, #174, .F. ) ;
#180 = EDGE_CURVE ( 'NONE', #101, #132, #135, .T. ) ;
#181 = CONICAL_SURFACE ( 'NONE', #199, 0.04405499999999973326, 0.7853981633974491672 ) ;
#182 = EDGE_CURVE ( 'NONE', #5, #227, #131, .T. ) ;
#183 = FILL_AREA_STYLE_COLOUR ( '', #264 ) ;
#184 = FACE_OUTER_BOUND ( 'NONE', #224, .T. ) ;
#185 = LINE ( 'NONE', #61, #163 ) ;
#186 = CARTESIAN_POINT ( 'NONE',  ( -0.03539756699999999784, 0.0000000000000000000, 0.03539756700000000478 ) ) ;
#187 = ADVANCED_FACE ( 'NONE', ( #238 ), #63, .T. ) ;
#188 = CYLINDRICAL_SURFACE ( 'NONE', #300, 0.05905500000000000332 ) ;
#189 = CARTESIAN_POINT ( 'NONE',  ( 0.0000000000000000000, 0.0000000000000000000, 1.496062999999999921 ) ) ;
#190 = PRODUCT_RELATED_PRODUCT_CATEGORY ( 'part', '', ( #247 ) ) ;
#191 = EDGE_CURVE ( 'NONE', #201, #4, #64, .T. ) ;
#192 = CIRCLE ( 'NONE', #45, 0.04405499999999973326 ) ;
#193 = LENGTH_MEASURE_WITH_UNIT ( LENGTH_MEASURE( 0.02539999999999999897 ), #164 );
#194 = ORIENTED_EDGE ( 'NONE', *, *, #52, .F. ) ;
#195 = UNCERTAINTY_MEASURE_WITH_UNIT (LENGTH_MEASURE( 1.000000000000000082E-05 ), #29, 'distance_accuracy_value', 'NONE');
#196 = SPHERICAL_SURFACE ( 'NONE', #315, 0.03539756699999999784 ) ;
#197 = AXIS2_PLACEMENT_3D ( 'NONE', #8, #207, #108 ) ;
#198 =( NAMED_UNIT ( * ) SI_UNIT ( $, .STERADIAN. ) SOLID_ANGLE_UNIT ( ) );
#199 = AXIS2_PLACEMENT_3D ( 'NONE', #281, #234, #110 ) ;
#200 = ORIENTED_EDGE ( 'NONE', *, *, #174, .T. ) ;
#201 = VERTEX_POINT ( 'NONE', #317 ) ;
#202 = SPHERICAL_SURFACE ( 'NONE', #321, 0.03539756699999999784 ) ;
#203 = LENGTH_MEASURE_WITH_UNIT ( LENGTH_MEASURE( 0.02539999999999999897 ), #151 );
#204 =( GEOMETRIC_REPRESENTATION_CONTEXT ( 3 ) GLOBAL_UNCERTAINTY_ASSIGNED_CONTEXT ( ( #250 ) ) GLOBAL_UNIT_ASSIGNED_CONTEXT ( ( #70, #303, #95 ) ) REPRESENTATION_CONTEXT ( 'NONE', 'WORKASPACE' ) );
#205 = ORIENTED_EDGE ( 'NONE', *, *, #52, .T. ) ;
#206 = CLOSED_SHELL ( 'NONE', ( #28, #187, #237, #119, #235, #165, #248, #216, #19, #111, #297 ) ) ;
#207 = DIRECTION ( 'NONE',  ( 1.224646799147353207E-16, 1.000000000000000000, -0.0000000000000000000 ) ) ;
#208 = CARTESIAN_POINT ( 'NONE',  ( 0.03539756699999999784, 4.334951712415397505E-18, -4.334951712415397505E-18 ) ) ;
#209 = CIRCLE ( 'NONE', #197, 0.03539756699999999784 ) ;
#210 =( GEOMETRIC_REPRESENTATION_CONTEXT ( 3 ) GLOBAL_UNCERTAINTY_ASSIGNED_CONTEXT ( ( #195 ) ) GLOBAL_UNIT_ASSIGNED_CONTEXT ( ( #29, #30, #280 ) ) REPRESENTATION_CONTEXT ( 'NONE', 'WORKASPACE' ) );
#211 = CARTESIAN_POINT ( 'NONE',  ( 0.0000000000000000000, 0.0000000000000000000, 1.496062999999999921 ) ) ;
#212 = FACE_OUTER_BOUND ( 'NONE', #50, .T. ) ;
#213 = DIRECTION ( 'NONE',  ( 0.1736481776669313581, 0.0000000000000000000, 0.9848077530122077983 ) ) ;
#214 = CARTESIAN_POINT ( 'NONE',  ( 0.03539756700000000478, 4.334951712415397505E-18, 0.03539756699999999784 ) ) ;
#215 = DIRECTION ( 'NONE',  ( -1.000000000000000000, 0.0000000000000000000, 1.224646799147353207E-16 ) ) ;
#216 = ADVANCED_FACE ( 'NONE', ( #94 ), #260, .T. ) ;
#217 = DIRECTION ( 'NONE',  ( 0.0000000000000000000, 1.000000000000000000, 0.0000000000000000000 ) ) ;
#218 = ORIENTED_EDGE ( 'NONE', *, *, #257, .F. ) ;
#219 = VECTOR ( 'NONE', #261, 39.37007874015748143 ) ;
#220 = LENGTH_MEASURE_WITH_UNIT ( LENGTH_MEASURE( 0.02539999999999999897 ), #100 );
#221 = ORIENTED_EDGE ( 'NONE', *, *, #252, .F. ) ;
#222 = DIRECTION ( 'NONE',  ( -1.224646799147353207E-16, -0.0000000000000000000, -1.000000000000000000 ) ) ;
#223 = DIRECTION ( 'NONE',  ( -1.000000000000000000, 0.0000000000000000000, 1.205877367249678918E-16 ) ) ;
#224 = EDGE_LOOP ( 'NONE', ( #75, #232, #324, #270 ) ) ;
#225 = SURFACE_STYLE_FILL_AREA ( #125 ) ;
#226 = COLOUR_RGB ( '',0.7921568627450980005, 0.8196078431372548767, 0.9333333333333333481 ) ;
#227 = VERTEX_POINT ( 'NONE', #161 ) ;
#228 = VERTEX_POINT ( 'NONE', #138 ) ;
#229 = EDGE_CURVE ( 'NONE', #228, #4, #93, .T. ) ;
#230 = LINE ( 'NONE', #208, #219 ) ;
#231 = FILL_AREA_STYLE ('',( #183 ) ) ;
#232 = ORIENTED_EDGE ( 'NONE', *, *, #124, .T. ) ;
#233 = EDGE_LOOP ( 'NONE', ( #51, #173, #127 ) ) ;
#234 = DIRECTION ( 'NONE',  ( 0.0000000000000000000, 0.0000000000000000000, -1.000000000000000000 ) ) ;
#235 = ADVANCED_FACE ( 'NONE', ( #267 ), #188, .T. ) ;
#236 = DIRECTION ( 'NONE',  ( 0.0000000000000000000, 0.0000000000000000000, -1.000000000000000000 ) ) ;
#237 = ADVANCED_FACE ( 'NONE', ( #184 ), #322, .T. ) ;
#238 = FACE_OUTER_BOUND ( 'NONE', #26, .T. ) ;
#239 = CARTESIAN_POINT ( 'NONE',  ( 0.0000000000000000000, 0.0000000000000000000, 0.0000000000000000000 ) ) ;
#240 = VECTOR ( 'NONE', #143, 39.37007874015748143 ) ;
#241 = CARTESIAN_POINT ( 'NONE',  ( 4.334951712415397505E-18, 0.0000000000000000000, 0.03539756699999999784 ) ) ;
#242 = CARTESIAN_POINT ( 'NONE',  ( 4.334951712415397505E-18, 0.0000000000000000000, 0.03539756699999999784 ) ) ;
#243 = ORIENTED_EDGE ( 'NONE', *, *, #99, .F. ) ;
#244 = CARTESIAN_POINT ( 'NONE',  ( 4.334951712415397505E-18, 0.0000000000000000000, 0.03539756699999999784 ) ) ;
#245 = AXIS2_PLACEMENT_3D ( 'NONE', #263, #236, #166 ) ;
#246 = EDGE_LOOP ( 'NONE', ( #18, #1 ) ) ;
#247 = PRODUCT ( 'Micro_BMSM-018-2', 'Micro_BMSM-018-2', '', ( #290 ) ) ;
#248 = ADVANCED_FACE ( 'NONE', ( #262 ), #42, .T. ) ;
#249 =( CONVERSION_BASED_UNIT ( 'INCH', #220 ) LENGTH_UNIT ( ) NAMED_UNIT ( #59 ) );
#250 = UNCERTAINTY_MEASURE_WITH_UNIT (LENGTH_MEASURE( 1.000000000000000082E-05 ), #70, 'distance_accuracy_value', 'NONE');
#251 = EDGE_LOOP ( 'NONE', ( #205, #122, #218, #53 ) ) ;
#252 = EDGE_CURVE ( 'NONE', #201, #301, #39, .T. ) ;
#253 = FILL_AREA_STYLE_COLOUR ( '', #226 ) ;
#254 = ORIENTED_EDGE ( 'NONE', *, *, #229, .T. ) ;
#255 = EDGE_CURVE ( 'NONE', #227, #5, #192, .T. ) ;
#256 = AXIS2_PLACEMENT_3D ( 'NONE', #241, #140, #291 ) ;
#257 = EDGE_CURVE ( 'NONE', #71, #4, #54, .T. ) ;
#258 = PRESENTATION_STYLE_ASSIGNMENT (( #84 ) ) ;
#259 = APPLICATION_CONTEXT ( 'automotive_design' ) ;
#260 = CONICAL_SURFACE ( 'NONE', #57, 0.04405499999999973326, 0.7853981633974491672 ) ;
#261 = DIRECTION ( 'NONE',  ( -1.224646799147353207E-16, -0.0000000000000000000, -1.000000000000000000 ) ) ;
#262 = FACE_OUTER_BOUND ( 'NONE', #246, .T. ) ;
#263 = CARTESIAN_POINT ( 'NONE',  ( 0.0000000000000000000, 0.0000000000000000000, 1.481062999999999574 ) ) ;
#264 = COLOUR_RGB ( '',0.7921568627450980005, 0.8196078431372548767, 0.9333333333333333481 ) ;
#265 = EDGE_CURVE ( 'NONE', #301, #71, #325, .T. ) ;
#266 = AXIS2_PLACEMENT_3D ( 'NONE', #38, #112, #313 ) ;
#267 = FACE_OUTER_BOUND ( 'NONE', #251, .T. ) ;
#268 = DIRECTION ( 'NONE',  ( -1.000000000000000000, 0.0000000000000000000, 1.205877367249678918E-16 ) ) ;
#269 = LINE ( 'NONE', #74, #102 ) ;
#270 = ORIENTED_EDGE ( 'NONE', *, *, #229, .F. ) ;
#271 = CARTESIAN_POINT ( 'NONE',  ( -0.05905500000000000332, 0.0000000000000000000, 1.481062999999999574 ) ) ;
#272 = PRODUCT_DEFINITION_CONTEXT ( 'detailed design', #289, 'design' ) ;
#273 = ORIENTED_EDGE ( 'NONE', *, *, #66, .F. ) ;
#274 = AXIS2_PLACEMENT_3D ( 'NONE', #178, #6, #309 ) ;
#275 = FACE_OUTER_BOUND ( 'NONE', #170, .T. ) ;
#276 = LINE ( 'NONE', #47, #120 ) ;
#277 = ORIENTED_EDGE ( 'NONE', *, *, #182, .F. ) ;
#278 = EDGE_LOOP ( 'NONE', ( #105, #296, #254, #25 ) ) ;
#279 = STYLED_ITEM ( 'NONE', ( #46 ), #107 ) ;
#280 =( NAMED_UNIT ( * ) SI_UNIT ( $, .STERADIAN. ) SOLID_ANGLE_UNIT ( ) );
#281 = CARTESIAN_POINT ( 'NONE',  ( 0.0000000000000000000, 0.0000000000000000000, 1.496062999999999921 ) ) ;
#282 = CARTESIAN_POINT ( 'NONE',  ( -0.05905499999999998251, 0.0000000000000000000, 0.2404669696717233462 ) ) ;
#283 = AXIS2_PLACEMENT_3D ( 'NONE', #244, #171, #223 ) ;
#284 = CARTESIAN_POINT ( 'NONE',  ( 0.05905500000000003108, 7.232151672364698504E-18, 0.2404669696717233462 ) ) ;
#285 = CARTESIAN_POINT ( 'NONE',  ( -0.03539756699999999784, 0.0000000000000000000, 4.334951712415397505E-18 ) ) ;
#286 = DIRECTION ( 'NONE',  ( -1.224646799147353207E-16, -0.0000000000000000000, -1.000000000000000000 ) ) ;
#287 = PRODUCT_DEFINITION_FORMATION_WITH_SPECIFIED_SOURCE ( 'ANY', '', #247, .NOT_KNOWN. ) ;
#288 = CARTESIAN_POINT ( 'NONE',  ( 1.301787301025644899E-17, 0.0000000000000000000, 0.1062990000000000046 ) ) ;
#289 = APPLICATION_CONTEXT ( 'automotive_design' ) ;
#290 = PRODUCT_CONTEXT ( 'NONE', #259, 'mechanical' ) ;
#291 = DIRECTION ( 'NONE',  ( 0.0000000000000000000, 0.0000000000000000000, -1.000000000000000000 ) ) ;
#292 =( NAMED_UNIT ( * ) PLANE_ANGLE_UNIT ( ) SI_UNIT ( $, .RADIAN. ) );
#293 = AXIS2_PLACEMENT_3D ( 'NONE', #65, #116, #137 ) ;
#294 = EDGE_CURVE ( 'NONE', #5, #301, #269, .T. ) ;
#295 = CARTESIAN_POINT ( 'NONE',  ( 0.0000000000000000000, 0.0000000000000000000, 1.496062999999999921 ) ) ;
#296 = ORIENTED_EDGE ( 'NONE', *, *, #157, .F. ) ;
#297 = ADVANCED_FACE ( 'NONE', ( #275 ), #196, .T. ) ;
#298 = ORIENTED_EDGE ( 'NONE', *, *, #180, .T. ) ;
#299 = ORIENTED_EDGE ( 'NONE', *, *, #142, .T. ) ;
#300 = AXIS2_PLACEMENT_3D ( 'NONE', #189, #314, #160 ) ;
#301 = VERTEX_POINT ( 'NONE', #271 ) ;
#302 = EDGE_LOOP ( 'NONE', ( #78, #277, #7, #221 ) ) ;
#303 =( NAMED_UNIT ( * ) PLANE_ANGLE_UNIT ( ) SI_UNIT ( $, .RADIAN. ) );
#304 = DIRECTION ( 'NONE',  ( 0.0000000000000000000, 1.000000000000000000, 0.0000000000000000000 ) ) ;
#305 = CIRCLE ( 'NONE', #67, 0.05905500000000000332 ) ;
#306 = EDGE_CURVE ( 'NONE', #132, #121, #310, .T. ) ;
#307 = CARTESIAN_POINT ( 'NONE',  ( -0.04405499999999973326, 0.0000000000000000000, 1.496062999999999921 ) ) ;
#308 = CARTESIAN_POINT ( 'NONE',  ( 0.0000000000000000000, 0.0000000000000000000, 1.481062999999999574 ) ) ;
#309 = DIRECTION ( 'NONE',  ( -1.000000000000000000, 0.0000000000000000000, 1.224646799147353207E-16 ) ) ;
#310 = CIRCLE ( 'NONE', #283, 0.03539756699999999784 ) ;
#311 = DIRECTION ( 'NONE',  ( -1.224646799147353207E-16, -0.0000000000000000000, -1.000000000000000000 ) ) ;
#312 = CARTESIAN_POINT ( 'NONE',  ( 0.0000000000000000000, 0.0000000000000000000, 0.0000000000000000000 ) ) ;
#313 = DIRECTION ( 'NONE',  ( -1.000000000000000000, 0.0000000000000000000, 0.0000000000000000000 ) ) ;
#314 = DIRECTION ( 'NONE',  ( -0.0000000000000000000, -0.0000000000000000000, -1.000000000000000000 ) ) ;
#315 = AXIS2_PLACEMENT_3D ( 'NONE', #242, #217, #147 ) ;
#316 = CYLINDRICAL_SURFACE ( 'NONE', #76, 0.05905500000000000332 ) ;
#317 = CARTESIAN_POINT ( 'NONE',  ( 0.05905500000000000332, 7.232151672364695422E-18, 1.481062999999999574 ) ) ;
#318 = EDGE_CURVE ( 'NONE', #227, #201, #276, .T. ) ;
#319 = DIRECTION ( 'NONE',  ( 0.7071067811865482389, 8.659560562354941486E-17, -0.7071067811865469066 ) ) ;
#320 = EDGE_CURVE ( 'NONE', #172, #228, #139, .T. ) ;
#321 = AXIS2_PLACEMENT_3D ( 'NONE', #9, #304, #58 ) ;
#322 = CONICAL_SURFACE ( 'NONE', #152, 0.03539756699999999784, 0.1745329251994338637 ) ;
#323 = CARTESIAN_POINT ( 'NONE',  ( -0.05905500000000000332, 0.0000000000000000000, 1.496062999999999921 ) ) ;
#324 = ORIENTED_EDGE ( 'NONE', *, *, #257, .T. ) ;
#325 = LINE ( 'NONE', #323, #240 ) ;
ENDSEC;
END-ISO-10303-21;
