ISO-10303-21;
HEADER;
FILE_DESCRIPTION (( 'STEP AP214' ),
    '1' );
FILE_NAME ('48426.STEP',
    '2023-06-22T21:35:50',
    ( '' ),
    ( '' ),
    'SwSTEP 2.0',
    'SolidWorks 2023',
    '' );
FILE_SCHEMA (( 'AUTOMOTIVE_DESIGN' ));
ENDSEC;

DATA;
#1 = SURFACE_STYLE_FILL_AREA ( #3 ) ;
#2 = CIRCLE ( 'NONE', #189, 0.2500000000000001665 ) ;
#3 = FILL_AREA_STYLE ('',( #25 ) ) ;
#4 = FACE_OUTER_BOUND ( 'NONE', #270, .T. ) ;
#5 = ORIENTED_EDGE ( 'NONE', *, *, #101, .F. ) ;
#6 = PRESENTATION_LAYER_ASSIGNMENT (  '', '', ( #117 ) ) ;
#7 = PRESENTATION_LAYER_ASSIGNMENT (  '', '', ( #79 ) ) ;
#8 =( CONVERSION_BASED_UNIT ( 'INCH', #35 ) LENGTH_UNIT ( ) NAMED_UNIT ( #76 ) );
#9 = DIRECTION ( 'NONE',  ( -5.156407575357275299E-17, 1.000000000000000000, -0.000000000000000000 ) ) ;
#10 = DIRECTION ( 'NONE',  ( -0.000000000000000000, -1.000000000000000000, -0.000000000000000000 ) ) ;
#11 =( CONVERSION_BASED_UNIT ( 'INCH', #235 ) LENGTH_UNIT ( ) NAMED_UNIT ( #55 ) );
#12 = AXIS2_PLACEMENT_3D ( 'NONE', #299, #32, #192 ) ;
#13 = COLOUR_RGB ( '',0.7921568627450980005, 0.8196078431372548767, 0.9333333333333333481 ) ;
#14 = CARTESIAN_POINT ( 'NONE',  ( 3.061616997868383018E-17, 0.000000000000000000, 0.2500000000000000000 ) ) ;
#15 = DIRECTION ( 'NONE',  ( -0.000000000000000000, -1.000000000000000000, -0.000000000000000000 ) ) ;
#16 = ORIENTED_EDGE ( 'NONE', *, *, #204, .F. ) ;
#17 =( NAMED_UNIT ( * ) SI_UNIT ( $, .STERADIAN. ) SOLID_ANGLE_UNIT ( ) );
#18 = CARTESIAN_POINT ( 'NONE',  ( 0.2500000000000000555, 4.000000000000000000, 0.000000000000000000 ) ) ;
#19 = VECTOR ( 'NONE', #196, 39.37007874015748143 ) ;
#20 = ORIENTED_EDGE ( 'NONE', *, *, #221, .T. ) ;
#21 = LENGTH_MEASURE_WITH_UNIT ( LENGTH_MEASURE( 0.02539999999999999897 ), #85 );
#22 = EDGE_CURVE ( 'NONE', #197, #287, #124, .T. ) ;
#23 = CARTESIAN_POINT ( 'NONE',  ( 0.000000000000000000, 0.000000000000000000, -0.2500000000000000000 ) ) ;
#24 = ORIENTED_EDGE ( 'NONE', *, *, #89, .T. ) ;
#25 = FILL_AREA_STYLE_COLOUR ( '', #154 ) ;
#26 = ADVANCED_FACE ( 'NONE', ( #163 ), #297, .T. ) ;
#27 = CIRCLE ( 'NONE', #193, 0.2500000000000000555 ) ;
#28 = CARTESIAN_POINT ( 'NONE',  ( -0.2500000000000000555, 1.625000000000000000, 0.000000000000000000 ) ) ;
#29 = SURFACE_SIDE_STYLE ('',( #1 ) ) ;
#30 = SURFACE_STYLE_USAGE ( .BOTH. , #83 ) ;
#31 = MECHANICAL_DESIGN_GEOMETRIC_PRESENTATION_REPRESENTATION (  '', ( #37 ), #254 ) ;
#32 = DIRECTION ( 'NONE',  ( -0.000000000000000000, -1.000000000000000000, -0.000000000000000000 ) ) ;
#33 = EDGE_LOOP ( 'NONE', ( #20, #98, #162, #5 ) ) ;
#34 = PRODUCT_DEFINITION ( 'UNKNOWN', '', #206, #223 ) ;
#35 = LENGTH_MEASURE_WITH_UNIT ( LENGTH_MEASURE( 0.02539999999999999897 ), #278 );
#36 = APPLICATION_PROTOCOL_DEFINITION ( 'draft international standard', 'automotive_design', 1998, #72 ) ;
#37 = STYLED_ITEM ( 'NONE', ( #45 ), #273 ) ;
#38 = ORIENTED_EDGE ( 'NONE', *, *, #22, .F. ) ;
#39 = ORIENTED_EDGE ( 'NONE', *, *, #64, .F. ) ;
#40 = CYLINDRICAL_SURFACE ( 'NONE', #286, 0.2500000000000001110 ) ;
#41 = CARTESIAN_POINT ( 'NONE',  ( 0.2500000000000000555, 1.625000000000000000, 3.061616997868384867E-17 ) ) ;
#42 = DIRECTION ( 'NONE',  ( 0.000000000000000000, -1.000000000000000000, -0.000000000000000000 ) ) ;
#43 = COLOUR_RGB ( '',1.000000000000000000, 0.000000000000000000, 0.000000000000000000 ) ;
#44 = CARTESIAN_POINT ( 'NONE',  ( 0.2499999999999999722, 4.000000000000000000, 3.061616997868384251E-17 ) ) ;
#45 = PRESENTATION_STYLE_ASSIGNMENT (( #268 ) ) ;
#46 = DIRECTION ( 'NONE',  ( 0.000000000000000000, 0.000000000000000000, -1.000000000000000000 ) ) ;
#47 = UNCERTAINTY_MEASURE_WITH_UNIT (LENGTH_MEASURE( 1.000000000000000082E-05 ), #8, 'distance_accuracy_value', 'NONE');
#48 = VERTEX_POINT ( 'NONE', #142 ) ;
#49 = LENGTH_MEASURE_WITH_UNIT ( LENGTH_MEASURE( 0.02539999999999999897 ), #201 );
#50 = FACE_OUTER_BOUND ( 'NONE', #155, .T. ) ;
#51 = MECHANICAL_DESIGN_GEOMETRIC_PRESENTATION_REPRESENTATION (  '', ( #176 ), #74 ) ;
#52 = ADVANCED_FACE ( 'NONE', ( #236 ), #40, .T. ) ;
#53 = AXIS2_PLACEMENT_3D ( 'NONE', #167, #66, #46 ) ;
#54 = CARTESIAN_POINT ( 'NONE',  ( -1.224646799147352714E-16, 4.000000000000000000, 0.000000000000000000 ) ) ;
#55 = DIMENSIONAL_EXPONENTS ( 1.000000000000000000, 0.000000000000000000, 0.000000000000000000, 0.000000000000000000, 0.000000000000000000, 0.000000000000000000, 0.000000000000000000 ) ;
#56 =( NAMED_UNIT ( * ) SI_UNIT ( $, .STERADIAN. ) SOLID_ANGLE_UNIT ( ) );
#57 = CIRCLE ( 'NONE', #94, 0.2500000000000001665 ) ;
#58 = FACE_OUTER_BOUND ( 'NONE', #187, .T. ) ;
#59 = EDGE_CURVE ( 'NONE', #48, #179, #141, .T. ) ;
#60 = ORIENTED_EDGE ( 'NONE', *, *, #101, .T. ) ;
#61 = APPLICATION_PROTOCOL_DEFINITION ( 'draft international standard', 'automotive_design', 1998, #248 ) ;
#62 = DIRECTION ( 'NONE',  ( -5.156407575357275299E-17, 1.000000000000000000, -0.000000000000000000 ) ) ;
#63 = DIRECTION ( 'NONE',  ( -5.156407575357275916E-17, 1.000000000000000000, 0.000000000000000000 ) ) ;
#64 = EDGE_CURVE ( 'NONE', #48, #125, #27, .T. ) ;
#65 = PRESENTATION_STYLE_ASSIGNMENT (( #199 ) ) ;
#66 = DIRECTION ( 'NONE',  ( -0.000000000000000000, -1.000000000000000000, -0.000000000000000000 ) ) ;
#67 = ORIENTED_EDGE ( 'NONE', *, *, #22, .T. ) ;
#68 = DIMENSIONAL_EXPONENTS ( 1.000000000000000000, 0.000000000000000000, 0.000000000000000000, 0.000000000000000000, 0.000000000000000000, 0.000000000000000000, 0.000000000000000000 ) ;
#69 = MECHANICAL_DESIGN_GEOMETRIC_PRESENTATION_REPRESENTATION (  '', ( #264 ), #241 ) ;
#70 =( NAMED_UNIT ( * ) SI_UNIT ( $, .STERADIAN. ) SOLID_ANGLE_UNIT ( ) );
#71 = UNCERTAINTY_MEASURE_WITH_UNIT (LENGTH_MEASURE( 1.000000000000000082E-05 ), #168, 'distance_accuracy_value', 'NONE');
#72 = APPLICATION_CONTEXT ( 'automotive_design' ) ;
#73 = PRESENTATION_STYLE_ASSIGNMENT (( #132 ) ) ;
#74 =( GEOMETRIC_REPRESENTATION_CONTEXT ( 3 ) GLOBAL_UNCERTAINTY_ASSIGNED_CONTEXT ( ( #207 ) ) GLOBAL_UNIT_ASSIGNED_CONTEXT ( ( #302, #195, #17 ) ) REPRESENTATION_CONTEXT ( 'NONE', 'WORKASPACE' ) );
#75 =( LENGTH_UNIT ( ) NAMED_UNIT ( * ) SI_UNIT ( $, .METRE. ) );
#76 = DIMENSIONAL_EXPONENTS ( 1.000000000000000000, 0.000000000000000000, 0.000000000000000000, 0.000000000000000000, 0.000000000000000000, 0.000000000000000000, 0.000000000000000000 ) ;
#77 = DIRECTION ( 'NONE',  ( 0.000000000000000000, 0.000000000000000000, -1.000000000000000000 ) ) ;
#78 = AXIS2_PLACEMENT_3D ( 'NONE', #18, #88, #104 ) ;
#79 = STYLED_ITEM ( 'NONE', ( #73 ), #291 ) ;
#80 = PRODUCT_DEFINITION_SHAPE ( 'NONE', 'NONE',  #34 ) ;
#81 = SURFACE_STYLE_USAGE ( .BOTH. , #295 ) ;
#82 = CARTESIAN_POINT ( 'NONE',  ( -1.224646799147352714E-16, 4.000000000000000000, 0.000000000000000000 ) ) ;
#83 = SURFACE_SIDE_STYLE ('',( #294 ) ) ;
#84 = LINE ( 'NONE', #87, #19 ) ;
#85 =( LENGTH_UNIT ( ) NAMED_UNIT ( * ) SI_UNIT ( $, .METRE. ) );
#86 = CLOSED_SHELL ( 'NONE', ( #284, #273, #261, #119 ) ) ;
#87 = CARTESIAN_POINT ( 'NONE',  ( -0.2500000000000002220, 4.000000000000000000, 0.000000000000000000 ) ) ;
#88 = DIRECTION ( 'NONE',  ( 5.156407575357275916E-17, -1.000000000000000000, 0.000000000000000000 ) ) ;
#89 = EDGE_CURVE ( 'NONE', #125, #48, #306, .T. ) ;
#90 = SURFACE_STYLE_FILL_AREA ( #93 ) ;
#91 = ORIENTED_EDGE ( 'NONE', *, *, #89, .F. ) ;
#92 = FACE_OUTER_BOUND ( 'NONE', #171, .T. ) ;
#93 = FILL_AREA_STYLE ('',( #280 ) ) ;
#94 = AXIS2_PLACEMENT_3D ( 'NONE', #54, #160, #138 ) ;
#95 = ORIENTED_EDGE ( 'NONE', *, *, #106, .T. ) ;
#96 = FILL_AREA_STYLE_COLOUR ( '', #184 ) ;
#97 = CARTESIAN_POINT ( 'NONE',  ( 0.000000000000000000, 0.000000000000000000, 0.000000000000000000 ) ) ;
#98 = ORIENTED_EDGE ( 'NONE', *, *, #178, .T. ) ;
#99 = DIMENSIONAL_EXPONENTS ( 1.000000000000000000, 0.000000000000000000, 0.000000000000000000, 0.000000000000000000, 0.000000000000000000, 0.000000000000000000, 0.000000000000000000 ) ;
#100 = DIRECTION ( 'NONE',  ( -0.000000000000000000, -1.000000000000000000, -0.000000000000000000 ) ) ;
#101 = EDGE_CURVE ( 'NONE', #287, #309, #84, .T. ) ;
#102 =( NAMED_UNIT ( * ) PLANE_ANGLE_UNIT ( ) SI_UNIT ( $, .RADIAN. ) );
#103 = ADVANCED_BREP_SHAPE_REPRESENTATION ( '48426', ( #291, #292, #109 ), #194 ) ;
#104 = DIRECTION ( 'NONE',  ( 1.000000000000000000, 5.156407575357275916E-17, 0.000000000000000000 ) ) ;
#105 =( NAMED_UNIT ( * ) SI_UNIT ( $, .STERADIAN. ) SOLID_ANGLE_UNIT ( ) );
#106 = EDGE_CURVE ( 'NONE', #309, #260, #57, .T. ) ;
#107 =( NAMED_UNIT ( * ) PLANE_ANGLE_UNIT ( ) SI_UNIT ( $, .RADIAN. ) );
#108 = MECHANICAL_DESIGN_GEOMETRIC_PRESENTATION_REPRESENTATION (  '', ( #117 ), #185 ) ;
#109 = AXIS2_PLACEMENT_3D ( 'NONE', #111, #214, #296 ) ;
#110 = DIRECTION ( 'NONE',  ( -1.000000000000000000, 0.000000000000000000, 0.000000000000000000 ) ) ;
#111 = CARTESIAN_POINT ( 'NONE',  ( 0.000000000000000000, 0.000000000000000000, 0.000000000000000000 ) ) ;
#112 = FILL_AREA_STYLE_COLOUR ( '', #271 ) ;
#113 = CARTESIAN_POINT ( 'NONE',  ( 0.000000000000000000, 1.625000000000000000, 0.000000000000000000 ) ) ;
#114 = ORIENTED_EDGE ( 'NONE', *, *, #64, .T. ) ;
#115 = FILL_AREA_STYLE ('',( #96 ) ) ;
#116 = DIRECTION ( 'NONE',  ( -5.156407575357275299E-17, 1.000000000000000000, -0.000000000000000000 ) ) ;
#117 = STYLED_ITEM ( 'NONE', ( #276 ), #284 ) ;
#118 = PLANE ( 'NONE',  #147 ) ;
#119 = ADVANCED_FACE ( 'NONE', ( #152 ), #118, .T. ) ;
#120 = CARTESIAN_POINT ( 'NONE',  ( 0.000000000000000000, 1.625000000000000000, -0.2500000000000000555 ) ) ;
#121 = ORIENTED_EDGE ( 'NONE', *, *, #172, .T. ) ;
#122 = DIMENSIONAL_EXPONENTS ( 1.000000000000000000, 0.000000000000000000, 0.000000000000000000, 0.000000000000000000, 0.000000000000000000, 0.000000000000000000, 0.000000000000000000 ) ;
#123 = SURFACE_STYLE_FILL_AREA ( #115 ) ;
#124 = CIRCLE ( 'NONE', #161, 0.2500000000000000555 ) ;
#125 = VERTEX_POINT ( 'NONE', #120 ) ;
#126 =( LENGTH_UNIT ( ) NAMED_UNIT ( * ) SI_UNIT ( $, .METRE. ) );
#127 = SURFACE_STYLE_USAGE ( .BOTH. , #289 ) ;
#128 = CYLINDRICAL_SURFACE ( 'NONE', #177, 0.2500000000000000000 ) ;
#129 = DIRECTION ( 'NONE',  ( -1.000000000000000000, 0.000000000000000000, 0.000000000000000000 ) ) ;
#130 = UNCERTAINTY_MEASURE_WITH_UNIT (LENGTH_MEASURE( 1.000000000000000082E-05 ), #274, 'distance_accuracy_value', 'NONE');
#131 = ORIENTED_EDGE ( 'NONE', *, *, #139, .F. ) ;
#132 = SURFACE_STYLE_USAGE ( .BOTH. , #29 ) ;
#133 = ORIENTED_EDGE ( 'NONE', *, *, #59, .T. ) ;
#134 = CARTESIAN_POINT ( 'NONE',  ( 3.323567385400236968E-34, 1.625000000000000000, 0.000000000000000000 ) ) ;
#135 = MECHANICAL_DESIGN_GEOMETRIC_PRESENTATION_REPRESENTATION (  '', ( #240 ), #157 ) ;
#136 = AXIS2_PLACEMENT_3D ( 'NONE', #134, #63, #253 ) ;
#137 =( NAMED_UNIT ( * ) SI_UNIT ( $, .STERADIAN. ) SOLID_ANGLE_UNIT ( ) );
#138 = DIRECTION ( 'NONE',  ( -1.000000000000000000, 0.000000000000000000, 0.000000000000000000 ) ) ;
#139 = EDGE_CURVE ( 'NONE', #269, #179, #198, .T. ) ;
#140 = CARTESIAN_POINT ( 'NONE',  ( 0.000000000000000000, 0.000000000000000000, 0.000000000000000000 ) ) ;
#141 = LINE ( 'NONE', #14, #205 ) ;
#142 = CARTESIAN_POINT ( 'NONE',  ( 3.061616997868383634E-17, 1.625000000000000000, 0.2500000000000000555 ) ) ;
#143 = SHAPE_DEFINITION_REPRESENTATION ( #80, #103 ) ;
#144 = CARTESIAN_POINT ( 'NONE',  ( 3.032960542342103792E-32, 1.625000000000000000, 0.000000000000000000 ) ) ;
#145 = DIRECTION ( 'NONE',  ( -0.000000000000000000, -1.000000000000000000, -0.000000000000000000 ) ) ;
#146 = PLANE ( 'NONE',  #78 ) ;
#147 = AXIS2_PLACEMENT_3D ( 'NONE', #97, #42, #242 ) ;
#148 = DIRECTION ( 'NONE',  ( -5.156407575357275916E-17, 1.000000000000000000, -0.000000000000000000 ) ) ;
#149 = DIMENSIONAL_EXPONENTS ( 1.000000000000000000, 0.000000000000000000, 0.000000000000000000, 0.000000000000000000, 0.000000000000000000, 0.000000000000000000, 0.000000000000000000 ) ;
#150 = CARTESIAN_POINT ( 'NONE',  ( -1.224646799147352714E-16, 4.000000000000000000, 0.000000000000000000 ) ) ;
#151 = ORIENTED_EDGE ( 'NONE', *, *, #59, .F. ) ;
#152 = FACE_OUTER_BOUND ( 'NONE', #304, .T. ) ;
#153 = PRESENTATION_LAYER_ASSIGNMENT (  '', '', ( #176 ) ) ;
#154 = COLOUR_RGB ( '',0.7921568627450980005, 0.8196078431372548767, 0.9333333333333333481 ) ;
#155 = EDGE_LOOP ( 'NONE', ( #95, #121 ) ) ;
#156 = CARTESIAN_POINT ( 'NONE',  ( 0.000000000000000000, 1.625000000000000000, 0.000000000000000000 ) ) ;
#157 =( GEOMETRIC_REPRESENTATION_CONTEXT ( 3 ) GLOBAL_UNCERTAINTY_ASSIGNED_CONTEXT ( ( #71 ) ) GLOBAL_UNIT_ASSIGNED_CONTEXT ( ( #168, #174, #281 ) ) REPRESENTATION_CONTEXT ( 'NONE', 'WORKASPACE' ) );
#158 = PRESENTATION_LAYER_ASSIGNMENT (  '', '', ( #264 ) ) ;
#159 = CARTESIAN_POINT ( 'NONE',  ( -0.2500000000000002776, 4.000000000000000000, 0.000000000000000000 ) ) ;
#160 = DIRECTION ( 'NONE',  ( -5.156407575357275299E-17, 1.000000000000000000, -0.000000000000000000 ) ) ;
#161 = AXIS2_PLACEMENT_3D ( 'NONE', #144, #62, #190 ) ;
#162 = ORIENTED_EDGE ( 'NONE', *, *, #106, .F. ) ;
#163 = FACE_OUTER_BOUND ( 'NONE', #200, .T. ) ;
#164 = PRODUCT_RELATED_PRODUCT_CATEGORY ( 'part', '', ( #288 ) ) ;
#165 = ORIENTED_EDGE ( 'NONE', *, *, #178, .F. ) ;
#166 = VECTOR ( 'NONE', #202, 39.37007874015748143 ) ;
#167 = CARTESIAN_POINT ( 'NONE',  ( 0.000000000000000000, 0.000000000000000000, 0.000000000000000000 ) ) ;
#168 =( CONVERSION_BASED_UNIT ( 'INCH', #222 ) LENGTH_UNIT ( ) NAMED_UNIT ( #68 ) );
#169 = CARTESIAN_POINT ( 'NONE',  ( 0.000000000000000000, 0.000000000000000000, -0.2500000000000000000 ) ) ;
#170 = LINE ( 'NONE', #44, #228 ) ;
#171 = EDGE_LOOP ( 'NONE', ( #91, #39 ) ) ;
#172 = EDGE_CURVE ( 'NONE', #260, #309, #2, .T. ) ;
#173 = PLANE ( 'NONE',  #210 ) ;
#174 =( NAMED_UNIT ( * ) PLANE_ANGLE_UNIT ( ) SI_UNIT ( $, .RADIAN. ) );
#175 = FILL_AREA_STYLE ('',( #209 ) ) ;
#176 = STYLED_ITEM ( 'NONE', ( #191 ), #261 ) ;
#177 = AXIS2_PLACEMENT_3D ( 'NONE', #227, #100, #246 ) ;
#178 = EDGE_CURVE ( 'NONE', #197, #260, #170, .T. ) ;
#179 = VERTEX_POINT ( 'NONE', #305 ) ;
#180 =( CONVERSION_BASED_UNIT ( 'INCH', #49 ) LENGTH_UNIT ( ) NAMED_UNIT ( #149 ) );
#181 = DIRECTION ( 'NONE',  ( -5.156407575357275299E-17, 1.000000000000000000, -0.000000000000000000 ) ) ;
#182 = UNCERTAINTY_MEASURE_WITH_UNIT (LENGTH_MEASURE( 1.000000000000000082E-05 ), #11, 'distance_accuracy_value', 'NONE');
#183 = DIRECTION ( 'NONE',  ( 0.000000000000000000, 1.000000000000000000, 0.000000000000000000 ) ) ;
#184 = COLOUR_RGB ( '',1.000000000000000000, 0.000000000000000000, 0.000000000000000000 ) ;
#185 =( GEOMETRIC_REPRESENTATION_CONTEXT ( 3 ) GLOBAL_UNCERTAINTY_ASSIGNED_CONTEXT ( ( #267 ) ) GLOBAL_UNIT_ASSIGNED_CONTEXT ( ( #226, #102, #186 ) ) REPRESENTATION_CONTEXT ( 'NONE', 'WORKASPACE' ) );
#186 =( NAMED_UNIT ( * ) SI_UNIT ( $, .STERADIAN. ) SOLID_ANGLE_UNIT ( ) );
#187 = EDGE_LOOP ( 'NONE', ( #151, #114, #203, #259 ) ) ;
#188 = CARTESIAN_POINT ( 'NONE',  ( 0.2500000000000000555, 4.000000000000000000, 3.061616997868384867E-17 ) ) ;
#189 = AXIS2_PLACEMENT_3D ( 'NONE', #150, #262, #266 ) ;
#190 = DIRECTION ( 'NONE',  ( -1.000000000000000000, 0.000000000000000000, 0.000000000000000000 ) ) ;
#191 = PRESENTATION_STYLE_ASSIGNMENT (( #81 ) ) ;
#192 = DIRECTION ( 'NONE',  ( 0.000000000000000000, 0.000000000000000000, -1.000000000000000000 ) ) ;
#193 = AXIS2_PLACEMENT_3D ( 'NONE', #113, #145, #257 ) ;
#194 =( GEOMETRIC_REPRESENTATION_CONTEXT ( 3 ) GLOBAL_UNCERTAINTY_ASSIGNED_CONTEXT ( ( #182 ) ) GLOBAL_UNIT_ASSIGNED_CONTEXT ( ( #11, #255, #56 ) ) REPRESENTATION_CONTEXT ( 'NONE', 'WORKASPACE' ) );
#195 =( NAMED_UNIT ( * ) PLANE_ANGLE_UNIT ( ) SI_UNIT ( $, .RADIAN. ) );
#196 = DIRECTION ( 'NONE',  ( -5.156407575357275916E-17, 1.000000000000000000, -0.000000000000000000 ) ) ;
#197 = VERTEX_POINT ( 'NONE', #41 ) ;
#198 = CIRCLE ( 'NONE', #53, 0.2500000000000000000 ) ;
#199 = SURFACE_STYLE_USAGE ( .BOTH. , #219 ) ;
#200 = EDGE_LOOP ( 'NONE', ( #165, #67, #60, #220 ) ) ;
#201 =( LENGTH_UNIT ( ) NAMED_UNIT ( * ) SI_UNIT ( $, .METRE. ) );
#202 = DIRECTION ( 'NONE',  ( -0.000000000000000000, -1.000000000000000000, -0.000000000000000000 ) ) ;
#203 = ORIENTED_EDGE ( 'NONE', *, *, #204, .T. ) ;
#204 = EDGE_CURVE ( 'NONE', #125, #269, #243, .T. ) ;
#205 = VECTOR ( 'NONE', #10, 39.37007874015748143 ) ;
#206 = PRODUCT_DEFINITION_FORMATION_WITH_SPECIFIED_SOURCE ( 'ANY', '', #288, .NOT_KNOWN. ) ;
#207 = UNCERTAINTY_MEASURE_WITH_UNIT (LENGTH_MEASURE( 1.000000000000000082E-05 ), #302, 'distance_accuracy_value', 'NONE');
#208 = ORIENTED_EDGE ( 'NONE', *, *, #221, .F. ) ;
#209 = FILL_AREA_STYLE_COLOUR ( '', #245 ) ;
#210 = AXIS2_PLACEMENT_3D ( 'NONE', #156, #183, #231 ) ;
#211 = ADVANCED_FACE ( 'NONE', ( #50 ), #146, .F. ) ;
#212 = FACE_OUTER_BOUND ( 'NONE', #244, .T. ) ;
#213 = SURFACE_STYLE_FILL_AREA ( #215 ) ;
#214 = DIRECTION ( 'NONE',  ( 0.000000000000000000, 0.000000000000000000, 1.000000000000000000 ) ) ;
#215 = FILL_AREA_STYLE ('',( #112 ) ) ;
#216 = FILL_AREA_STYLE ('',( #256 ) ) ;
#217 = DIRECTION ( 'NONE',  ( -1.000000000000000000, 0.000000000000000000, 0.000000000000000000 ) ) ;
#218 = AXIS2_PLACEMENT_3D ( 'NONE', #232, #181, #129 ) ;
#219 = SURFACE_SIDE_STYLE ('',( #90 ) ) ;
#220 = ORIENTED_EDGE ( 'NONE', *, *, #172, .F. ) ;
#221 = EDGE_CURVE ( 'NONE', #287, #197, #263, .T. ) ;
#222 = LENGTH_MEASURE_WITH_UNIT ( LENGTH_MEASURE( 0.02539999999999999897 ), #126 );
#223 = PRODUCT_DEFINITION_CONTEXT ( 'detailed design', #72, 'design' ) ;
#224 = PRESENTATION_LAYER_ASSIGNMENT (  '', '', ( #37 ) ) ;
#225 = DIMENSIONAL_EXPONENTS ( 1.000000000000000000, 0.000000000000000000, 0.000000000000000000, 0.000000000000000000, 0.000000000000000000, 0.000000000000000000, 0.000000000000000000 ) ;
#226 =( CONVERSION_BASED_UNIT ( 'INCH', #249 ) LENGTH_UNIT ( ) NAMED_UNIT ( #225 ) );
#227 = CARTESIAN_POINT ( 'NONE',  ( 0.000000000000000000, 0.000000000000000000, 0.000000000000000000 ) ) ;
#228 = VECTOR ( 'NONE', #148, 39.37007874015748143 ) ;
#229 = AXIS2_PLACEMENT_3D ( 'NONE', #140, #238, #77 ) ;
#230 =( LENGTH_UNIT ( ) NAMED_UNIT ( * ) SI_UNIT ( $, .METRE. ) );
#231 = DIRECTION ( 'NONE',  ( 0.000000000000000000, -0.000000000000000000, 1.000000000000000000 ) ) ;
#232 = CARTESIAN_POINT ( 'NONE',  ( 3.032960542342103792E-32, 1.625000000000000000, 0.000000000000000000 ) ) ;
#233 = AXIS2_PLACEMENT_3D ( 'NONE', #303, #15, #307 ) ;
#234 = CYLINDRICAL_SURFACE ( 'NONE', #233, 0.2500000000000000000 ) ;
#235 = LENGTH_MEASURE_WITH_UNIT ( LENGTH_MEASURE( 0.02539999999999999897 ), #277 );
#236 = FACE_OUTER_BOUND ( 'NONE', #33, .T. ) ;
#237 =( NAMED_UNIT ( * ) PLANE_ANGLE_UNIT ( ) SI_UNIT ( $, .RADIAN. ) );
#238 = DIRECTION ( 'NONE',  ( -0.000000000000000000, -1.000000000000000000, -0.000000000000000000 ) ) ;
#239 = CARTESIAN_POINT ( 'NONE',  ( -1.224646799147352714E-16, 4.000000000000000000, 0.000000000000000000 ) ) ;
#240 = STYLED_ITEM ( 'NONE', ( #65 ), #119 ) ;
#241 =( GEOMETRIC_REPRESENTATION_CONTEXT ( 3 ) GLOBAL_UNCERTAINTY_ASSIGNED_CONTEXT ( ( #47 ) ) GLOBAL_UNIT_ASSIGNED_CONTEXT ( ( #8, #237, #137 ) ) REPRESENTATION_CONTEXT ( 'NONE', 'WORKASPACE' ) );
#242 = DIRECTION ( 'NONE',  ( 0.000000000000000000, 0.000000000000000000, -1.000000000000000000 ) ) ;
#243 = LINE ( 'NONE', #23, #166 ) ;
#244 = EDGE_LOOP ( 'NONE', ( #208, #38 ) ) ;
#245 = COLOUR_RGB ( '',1.000000000000000000, 0.000000000000000000, 0.000000000000000000 ) ;
#246 = DIRECTION ( 'NONE',  ( 0.000000000000000000, 0.000000000000000000, -1.000000000000000000 ) ) ;
#247 = ORIENTED_EDGE ( 'NONE', *, *, #301, .T. ) ;
#248 = APPLICATION_CONTEXT ( 'automotive_design' ) ;
#249 = LENGTH_MEASURE_WITH_UNIT ( LENGTH_MEASURE( 0.02539999999999999897 ), #75 );
#250 =( NAMED_UNIT ( * ) PLANE_ANGLE_UNIT ( ) SI_UNIT ( $, .RADIAN. ) );
#251 = AXIS2_PLACEMENT_3D ( 'NONE', #82, #116, #217 ) ;
#252 = CIRCLE ( 'NONE', #229, 0.2500000000000000000 ) ;
#253 = DIRECTION ( 'NONE',  ( -1.000000000000000000, -5.156407575357275916E-17, 0.000000000000000000 ) ) ;
#254 =( GEOMETRIC_REPRESENTATION_CONTEXT ( 3 ) GLOBAL_UNCERTAINTY_ASSIGNED_CONTEXT ( ( #285 ) ) GLOBAL_UNIT_ASSIGNED_CONTEXT ( ( #180, #107, #70 ) ) REPRESENTATION_CONTEXT ( 'NONE', 'WORKASPACE' ) );
#255 =( NAMED_UNIT ( * ) PLANE_ANGLE_UNIT ( ) SI_UNIT ( $, .RADIAN. ) );
#256 = FILL_AREA_STYLE_COLOUR ( '', #13 ) ;
#257 = DIRECTION ( 'NONE',  ( 0.000000000000000000, 0.000000000000000000, -1.000000000000000000 ) ) ;
#258 = PRODUCT_CONTEXT ( 'NONE', #248, 'mechanical' ) ;
#259 = ORIENTED_EDGE ( 'NONE', *, *, #301, .F. ) ;
#260 = VERTEX_POINT ( 'NONE', #188 ) ;
#261 = ADVANCED_FACE ( 'NONE', ( #58 ), #234, .T. ) ;
#262 = DIRECTION ( 'NONE',  ( -5.156407575357275299E-17, 1.000000000000000000, -0.000000000000000000 ) ) ;
#263 = CIRCLE ( 'NONE', #218, 0.2500000000000000555 ) ;
#264 = STYLED_ITEM ( 'NONE', ( #293 ), #292 ) ;
#265 = SURFACE_SIDE_STYLE ('',( #123 ) ) ;
#266 = DIRECTION ( 'NONE',  ( -1.000000000000000000, 0.000000000000000000, 0.000000000000000000 ) ) ;
#267 = UNCERTAINTY_MEASURE_WITH_UNIT (LENGTH_MEASURE( 1.000000000000000082E-05 ), #226, 'distance_accuracy_value', 'NONE');
#268 = SURFACE_STYLE_USAGE ( .BOTH. , #265 ) ;
#269 = VERTEX_POINT ( 'NONE', #169 ) ;
#270 = EDGE_LOOP ( 'NONE', ( #24, #133, #131, #16 ) ) ;
#271 = COLOUR_RGB ( '',1.000000000000000000, 0.000000000000000000, 0.000000000000000000 ) ;
#272 = LENGTH_MEASURE_WITH_UNIT ( LENGTH_MEASURE( 0.02539999999999999897 ), #230 );
#273 = ADVANCED_FACE ( 'NONE', ( #92 ), #173, .T. ) ;
#274 =( CONVERSION_BASED_UNIT ( 'INCH', #272 ) LENGTH_UNIT ( ) NAMED_UNIT ( #99 ) );
#275 =( GEOMETRIC_REPRESENTATION_CONTEXT ( 3 ) GLOBAL_UNCERTAINTY_ASSIGNED_CONTEXT ( ( #130 ) ) GLOBAL_UNIT_ASSIGNED_CONTEXT ( ( #274, #250, #105 ) ) REPRESENTATION_CONTEXT ( 'NONE', 'WORKASPACE' ) );
#276 = PRESENTATION_STYLE_ASSIGNMENT (( #127 ) ) ;
#277 =( LENGTH_UNIT ( ) NAMED_UNIT ( * ) SI_UNIT ( $, .METRE. ) );
#278 =( LENGTH_UNIT ( ) NAMED_UNIT ( * ) SI_UNIT ( $, .METRE. ) );
#279 = MECHANICAL_DESIGN_GEOMETRIC_PRESENTATION_REPRESENTATION (  '', ( #79 ), #275 ) ;
#280 = FILL_AREA_STYLE_COLOUR ( '', #43 ) ;
#281 =( NAMED_UNIT ( * ) SI_UNIT ( $, .STERADIAN. ) SOLID_ANGLE_UNIT ( ) );
#282 = CLOSED_SHELL ( 'NONE', ( #52, #308, #26, #211 ) ) ;
#283 = ORIENTED_EDGE ( 'NONE', *, *, #139, .T. ) ;
#284 = ADVANCED_FACE ( 'NONE', ( #4 ), #128, .T. ) ;
#285 = UNCERTAINTY_MEASURE_WITH_UNIT (LENGTH_MEASURE( 1.000000000000000082E-05 ), #180, 'distance_accuracy_value', 'NONE');
#286 = AXIS2_PLACEMENT_3D ( 'NONE', #239, #9, #110 ) ;
#287 = VERTEX_POINT ( 'NONE', #28 ) ;
#288 = PRODUCT ( '48426', '48426', '', ( #258 ) ) ;
#289 = SURFACE_SIDE_STYLE ('',( #290 ) ) ;
#290 = SURFACE_STYLE_FILL_AREA ( #175 ) ;
#291 = MANIFOLD_SOLID_BREP ( 'Revolve - Cutting Edge', #86 ) ;
#292 = MANIFOLD_SOLID_BREP ( 'Revolve - Tool Body (Straight Shanked)', #282 ) ;
#293 = PRESENTATION_STYLE_ASSIGNMENT (( #30 ) ) ;
#294 = SURFACE_STYLE_FILL_AREA ( #216 ) ;
#295 = SURFACE_SIDE_STYLE ('',( #213 ) ) ;
#296 = DIRECTION ( 'NONE',  ( 1.000000000000000000, 0.000000000000000000, 0.000000000000000000 ) ) ;
#297 = CYLINDRICAL_SURFACE ( 'NONE', #251, 0.2500000000000001110 ) ;
#298 = PLANE ( 'NONE',  #136 ) ;
#299 = CARTESIAN_POINT ( 'NONE',  ( 0.000000000000000000, 1.625000000000000000, 0.000000000000000000 ) ) ;
#300 = PRESENTATION_LAYER_ASSIGNMENT (  '', '', ( #240 ) ) ;
#301 = EDGE_CURVE ( 'NONE', #179, #269, #252, .T. ) ;
#302 =( CONVERSION_BASED_UNIT ( 'INCH', #21 ) LENGTH_UNIT ( ) NAMED_UNIT ( #122 ) );
#303 = CARTESIAN_POINT ( 'NONE',  ( 0.000000000000000000, 0.000000000000000000, 0.000000000000000000 ) ) ;
#304 = EDGE_LOOP ( 'NONE', ( #283, #247 ) ) ;
#305 = CARTESIAN_POINT ( 'NONE',  ( 3.061616997868383018E-17, 0.000000000000000000, 0.2500000000000000000 ) ) ;
#306 = CIRCLE ( 'NONE', #12, 0.2500000000000000555 ) ;
#307 = DIRECTION ( 'NONE',  ( 0.000000000000000000, 0.000000000000000000, -1.000000000000000000 ) ) ;
#308 = ADVANCED_FACE ( 'NONE', ( #212 ), #298, .F. ) ;
#309 = VERTEX_POINT ( 'NONE', #159 ) ;
ENDSEC;
END-ISO-10303-21;
